  0
SECTION
  2
HEADER
  9
$ACADVER
  1
AC1009
  9
$DWGCODEPAGE
  3
ansi_1250
  9
$INSBASE
 10
0.0
 20
0.0
 30
0.0
  9
$EXTMIN
 10
-400.0
 20
-30.0
 30
-749.9999999999999
  9
$EXTMAX
 10
400.0000000000001
 20
0.0
 30
750.0000000000003
  9
$LIMMIN
 10
0.0
 20
0.0
  9
$LIMMAX
 10
420.0
 20
297.0
  9
$ORTHOMODE
 70
     0
  9
$REGENMODE
 70
     1
  9
$FILLMODE
 70
     1
  9
$QTEXTMODE
 70
     0
  9
$MIRRTEXT
 70
     0
  9
$DRAGMODE
 70
     2
  9
$LTSCALE
 40
1.0
  9
$OSMODE
 70
   511
  9
$ATTMODE
 70
     1
  9
$TEXTSIZE
 40
2.5
  9
$TRACEWID
 40
1.0
  9
$TEXTSTYLE
  7
STANDARD
  9
$CLAYER
  8
0
  9
$CELTYPE
  6
BYLAYER
  9
$CECOLOR
 62
   256
  9
$DIMSCALE
 40
1.0
  9
$DIMASZ
 40
2.5
  9
$DIMEXO
 40
0.625
  9
$DIMDLI
 40
3.75
  9
$DIMRND
 40
0.0
  9
$DIMDLE
 40
0.0
  9
$DIMEXE
 40
1.25
  9
$DIMTP
 40
0.0
  9
$DIMTM
 40
0.0
  9
$DIMTXT
 40
2.5
  9
$DIMCEN
 40
-2.5
  9
$DIMTSZ
 40
0.0
  9
$DIMTOL
 70
     0
  9
$DIMLIM
 70
     0
  9
$DIMTIH
 70
     0
  9
$DIMTOH
 70
     0
  9
$DIMSE1
 70
     0
  9
$DIMSE2
 70
     0
  9
$DIMTAD
 70
     1
  9
$DIMZIN
 70
     8
  9
$DIMBLK
  1

  9
$DIMASO
 70
     1
  9
$DIMSHO
 70
     1
  9
$DIMPOST
  1

  9
$DIMAPOST
  1

  9
$DIMALT
 70
     0
  9
$DIMALTD
 70
     3
  9
$DIMALTF
 40
0.03937007874016
  9
$DIMLFAC
 40
1.0
  9
$DIMTOFL
 70
     1
  9
$DIMTVP
 40
0.0
  9
$DIMTIX
 70
     0
  9
$DIMSOXD
 70
     0
  9
$DIMSAH
 70
     0
  9
$DIMBLK1
  1

  9
$DIMBLK2
  1

  9
$DIMSTYLE
  2
ISO-25
  9
$DIMCLRD
 70
     0
  9
$DIMCLRE
 70
     0
  9
$DIMCLRT
 70
     0
  9
$DIMTFAC
 40
1.0
  9
$DIMGAP
 40
0.625
  9
$LUNITS
 70
     2
  9
$LUPREC
 70
     3
  9
$SKETCHINC
 40
1.0
  9
$FILLETRAD
 40
10.0
  9
$AUNITS
 70
     0
  9
$AUPREC
 70
     0
  9
$MENU
  1
.
  9
$ELEVATION
 40
0.0
  9
$PELEVATION
 40
0.0
  9
$THICKNESS
 40
0.0
  9
$LIMCHECK
 70
     0
  9
$CHAMFERA
 40
10.0
  9
$CHAMFERB
 40
10.0
  9
$SKPOLY
 70
     0
  9
$TDCREATE
 40
2455022.720692848
  9
$TDUPDATE
 40
2460461.591702292
  9
$TDINDWG
 40
0.0003247685
  9
$TDUSRTIMER
 40
0.0003247685
  9
$USRTIMER
 70
     1
  9
$ANGBASE
 50
0.0
  9
$ANGDIR
 70
     0
  9
$PDMODE
 70
     0
  9
$PDSIZE
 40
0.0
  9
$PLINEWID
 40
0.0
  9
$COORDS
 70
     1
  9
$SPLFRAME
 70
     0
  9
$SPLINETYPE
 70
     6
  9
$SPLINESEGS
 70
     8
  9
$ATTDIA
 70
     0
  9
$ATTREQ
 70
     1
  9
$HANDLING
 70
     1
  9
$HANDSEED
  5
D89
  9
$SURFTAB1
 70
     6
  9
$SURFTAB2
 70
     6
  9
$SURFTYPE
 70
     6
  9
$SURFU
 70
     6
  9
$SURFV
 70
     6
  9
$UCSNAME
  2

  9
$UCSORG
 10
0.0
 20
0.0
 30
0.0
  9
$UCSXDIR
 10
1.0
 20
0.0
 30
0.0
  9
$UCSYDIR
 10
0.0
 20
1.0
 30
0.0
  9
$PUCSNAME
  2

  9
$PUCSORG
 10
0.0
 20
0.0
 30
0.0
  9
$PUCSXDIR
 10
1.0
 20
0.0
 30
0.0
  9
$PUCSYDIR
 10
0.0
 20
1.0
 30
0.0
  9
$USERI1
 70
     0
  9
$USERI2
 70
     0
  9
$USERI3
 70
     0
  9
$USERI4
 70
     0
  9
$USERI5
 70
     0
  9
$USERR1
 40
0.0
  9
$USERR2
 40
0.0
  9
$USERR3
 40
0.0
  9
$USERR4
 40
0.0
  9
$USERR5
 40
0.0
  9
$WORLDVIEW
 70
     1
  9
$SHADEDGE
 70
     3
  9
$SHADEDIF
 70
    70
  9
$TILEMODE
 70
     1
  9
$MAXACTVP
 70
    64
  9
$PLIMCHECK
 70
     0
  9
$PEXTMIN
 10
1.000000000000000E+20
 20
1.000000000000000E+20
 30
1.000000000000000E+20
  9
$PEXTMAX
 10
-1.000000000000000E+20
 20
-1.000000000000000E+20
 30
-1.000000000000000E+20
  9
$PLIMMIN
 10
0.0
 20
0.0
  9
$PLIMMAX
 10
0.0
 20
0.0
  9
$UNITMODE
 70
     0
  9
$VISRETAIN
 70
     1
  9
$PLINEGEN
 70
     0
  9
$PSLTSCALE
 70
     1
  0
ENDSEC
  0
SECTION
  2
TABLES
  0
TABLE
  2
VPORT
 70
     1
  0
VPORT
  2
*ACTIVE
 70
     0
 10
0.0
 20
0.0
 11
1.0
 21
1.0
 12
-105.4910798886061
 22
-48.65785465687509
 13
0.0
 23
0.0
 14
10.0
 24
10.0
 15
10.0
 25
10.0
 16
0.5773502691896226
 26
0.5773502691896226
 36
0.5773502691896226
 17
-134.1869158878504
 27
-0.0000000000000107
 37
0.0
 40
1594.862771526128
 41
1.89041095890411
 42
50.0
 43
0.0
 44
0.0
 50
0.0
 51
0.0
 71
    16
 72
  1000
 73
     1
 74
     3
 75
     0
 76
     0
 77
     0
 78
     0
  0
ENDTAB
  0
TABLE
  2
LTYPE
 70
     1
  0
LTYPE
  2
CONTINUOUS
 70
     0
  3
Solid line
 72
    65
 73
     0
 40
0.0
  0
ENDTAB
  0
TABLE
  2
LAYER
 70
     3
  0
LAYER
  2
0
 70
     0
 62
     7
  6
CONTINUOUS
  0
LAYER
  2
VANA
 70
     0
 62
     7
  6
CONTINUOUS
  0
LAYER
  2
ODPAD
 70
     0
 62
     7
  6
CONTINUOUS
  0
ENDTAB
  0
TABLE
  2
STYLE
 70
     2
  0
STYLE
  2
STANDARD
 70
     0
 40
0.0
 41
1.0
 50
0.0
 71
     0
 42
2.5
  3
arial.ttf
  4

  0
STYLE
  2
ANNOTATIVE
 70
     0
 40
0.0
 41
1.0
 50
0.0
 71
     0
 42
2.5
  3
arial.ttf
  4

  0
ENDTAB
  0
TABLE
  2
VIEW
 70
     0
  0
ENDTAB
  0
TABLE
  2
UCS
 70
     0
  0
ENDTAB
  0
TABLE
  2
APPID
 70
     3
  0
APPID
  2
ACAD
 70
     0
  0
APPID
  2
ACADANNOTATIVE
 70
     0
  0
APPID
  2
ACAECLAYERSTANDARD
 70
     0
  0
ENDTAB
  0
TABLE
  2
DIMSTYLE
 70
     2
  0
DIMSTYLE
  2
ISO-25
 70
     0
  3

  4

  5

  6

  7

 40
1.0
 41
2.5
 42
0.625
 43
3.75
 44
1.25
 45
0.0
 46
0.0
 47
0.0
 48
0.0
140
2.5
141
-2.5
142
0.0
143
0.03937007874016
144
1.0
145
0.0
146
1.0
147
0.625
 71
     0
 72
     0
 73
     0
 74
     0
 75
     0
 76
     0
 77
     1
 78
     8
170
     0
171
     3
172
     1
173
     0
174
     0
175
     0
176
     0
177
     0
178
     0
  0
DIMSTYLE
  2
ANNOTATIVE
 70
     0
  3

  4

  5

  6

  7

 40
0.0
 41
2.5
 42
0.625
 43
3.75
 44
1.25
 45
0.0
 46
0.0
 47
0.0
 48
0.0
140
2.5
141
-2.5
142
0.0
143
0.03937007874016
144
1.0
145
0.0
146
1.0
147
0.625
 71
     0
 72
     0
 73
     0
 74
     0
 75
     0
 76
     0
 77
     1
 78
     8
170
     0
171
     3
172
     1
173
     0
174
     0
175
     0
176
     0
177
     0
178
     0
  0
ENDTAB
  0
ENDSEC
  0
SECTION
  2
BLOCKS
  0
BLOCK
  8
0
  2
$MODEL_SPACE
 70
     0
 10
0.0
 20
0.0
 30
0.0
  3
$MODEL_SPACE
  1

  0
ENDBLK
  5
21
  8
0
  0
BLOCK
 67
     1
  8
0
  2
$PAPER_SPACE
 70
     0
 10
0.0
 20
0.0
 30
0.0
  3
$PAPER_SPACE
  1

  0
ENDBLK
  5
1D
 67
     1
  8
0
  0
BLOCK
  8
0
  2
*X1
 70
     1
 10
0.0
 20
0.0
 30
0.0
  3
*X1
  1

  0
POLYLINE
  5
734
  8
VANA
 66
     1
 10
0.0
 20
0.0
 30
0.0
 70
    64
 71
    10
 72
     8
  0
VERTEX
  5
735
  8
VANA
 10
-0.0000000000000014
 20
-26.49999999999994
 30
-394.9999999999998
 70
   192
  0
VERTEX
  5
736
  8
VANA
 10
-0.0000000000000119
 20
-26.49999999999994
 30
-304.9999999999998
 70
   192
  0
VERTEX
  5
737
  8
VANA
 10
-0.0000000000000133
 20
-23.5
 30
-292.4999999999998
 70
   192
  0
VERTEX
  5
738
  8
VANA
 10
0.0000000000000001
 20
-23.4999999999999
 30
-407.4999999999998
 70
   192
  0
VERTEX
  5
739
  8
VANA
 10
-57.5
 20
-23.5
 30
-349.9999999999998
 70
   192
  0
VERTEX
  5
73A
  8
VANA
 10
-44.99999999999999
 20
-26.49999999999994
 30
-349.9999999999998
 70
   192
  0
VERTEX
  5
73B
  8
VANA
 10
-40.65863991822648
 20
-23.5
 30
-390.6586399182263
 70
   192
  0
VERTEX
  5
73C
  8
VANA
 10
-31.81980515339463
 20
-26.49999999999994
 30
-381.8198051533944
 70
   192
  0
VERTEX
  5
73D
  8
VANA
 10
-40.65863991822649
 20
-23.5
 30
-309.3413600817734
 70
   192
  0
VERTEX
  5
73E
  8
VANA
 10
-31.81980515339464
 20
-26.49999999999994
 30
-318.1801948466052
 70
   192
  0
VERTEX
  5
73F
  8
VANA
 10
0.0
 20
0.0
 30
0.0
 70
   128
 71
     8
 72
     1
 73
    -4
  0
VERTEX
  5
740
  8
VANA
 10
0.0
 20
0.0
 30
0.0
 70
   128
 71
     7
 72
    -8
 73
     4
  0
VERTEX
  5
741
  8
VANA
 10
0.0
 20
0.0
 30
0.0
 70
   128
 71
     6
 72
     8
 73
    -7
  0
VERTEX
  5
742
  8
VANA
 10
0.0
 20
0.0
 30
0.0
 70
   128
 71
     5
 72
    -6
 73
     7
  0
VERTEX
  5
743
  8
VANA
 10
0.0
 20
0.0
 30
0.0
 70
   128
 71
    10
 72
     6
 73
    -5
  0
VERTEX
  5
744
  8
VANA
 10
0.0
 20
0.0
 30
0.0
 70
   128
 71
     9
 72
   -10
 73
     5
  0
VERTEX
  5
745
  8
VANA
 10
0.0
 20
0.0
 30
0.0
 70
   128
 71
     2
 72
    10
 73
    -9
  0
VERTEX
  5
746
  8
VANA
 10
0.0
 20
0.0
 30
0.0
 70
   128
 71
     3
 72
    -2
 73
     9
  0
SEQEND
  5
D09
  8
VANA
  0
POLYLINE
  5
747
  8
VANA
 66
     1
 10
0.0
 20
0.0
 30
0.0
 70
    64
 71
    10
 72
     8
  0
VERTEX
  5
748
  8
VANA
 10
-0.0000000000000069
 20
-30.0
 30
-394.9999999999998
 70
   192
  0
VERTEX
  5
749
  8
VANA
 10
-0.0000000000000069
 20
-30.0
 30
-304.9999999999998
 70
   192
  0
VERTEX
  5
74A
  8
VANA
 10
-0.0000000000000119
 20
-26.49999999999994
 30
-304.9999999999998
 70
   192
  0
VERTEX
  5
74B
  8
VANA
 10
-0.0000000000000014
 20
-26.49999999999994
 30
-394.9999999999998
 70
   192
  0
VERTEX
  5
74C
  8
VANA
 10
-44.99999999999999
 20
-26.49999999999994
 30
-349.9999999999998
 70
   192
  0
VERTEX
  5
74D
  8
VANA
 10
-45.0
 20
-30.0
 30
-349.9999999999998
 70
   192
  0
VERTEX
  5
74E
  8
VANA
 10
-31.81980515339463
 20
-26.49999999999994
 30
-381.8198051533944
 70
   192
  0
VERTEX
  5
74F
  8
VANA
 10
-31.81980515339464
 20
-30.0
 30
-381.8198051533944
 70
   192
  0
VERTEX
  5
750
  8
VANA
 10
-31.81980515339464
 20
-26.49999999999994
 30
-318.1801948466052
 70
   192
  0
VERTEX
  5
751
  8
VANA
 10
-31.81980515339464
 20
-30.0
 30
-318.1801948466052
 70
   192
  0
VERTEX
  5
752
  8
VANA
 10
0.0
 20
0.0
 30
0.0
 70
   128
 71
     8
 72
     1
 73
    -4
  0
VERTEX
  5
753
  8
VANA
 10
0.0
 20
0.0
 30
0.0
 70
   128
 71
     7
 72
    -8
 73
     4
  0
VERTEX
  5
754
  8
VANA
 10
0.0
 20
0.0
 30
0.0
 70
   128
 71
     6
 72
     8
 73
    -7
  0
VERTEX
  5
755
  8
VANA
 10
0.0
 20
0.0
 30
0.0
 70
   128
 71
     5
 72
    -6
 73
     7
  0
VERTEX
  5
756
  8
VANA
 10
0.0
 20
0.0
 30
0.0
 70
   128
 71
    10
 72
     6
 73
    -5
  0
VERTEX
  5
757
  8
VANA
 10
0.0
 20
0.0
 30
0.0
 70
   128
 71
     9
 72
   -10
 73
     5
  0
VERTEX
  5
758
  8
VANA
 10
0.0
 20
0.0
 30
0.0
 70
   128
 71
     2
 72
    10
 73
    -9
  0
VERTEX
  5
759
  8
VANA
 10
0.0
 20
0.0
 30
0.0
 70
   128
 71
     3
 72
    -2
 73
     9
  0
SEQEND
  5
D0A
  8
VANA
  0
POLYLINE
  5
75A
  8
VANA
 66
     1
 10
0.0
 20
0.0
 30
0.0
 70
    64
 71
    10
 72
     8
  0
VERTEX
  5
75B
  8
VANA
 10
0.0000000000000001
 20
-23.5
 30
-407.4999999999998
 70
   192
  0
VERTEX
  5
75C
  8
VANA
 10
-0.0000000000000133
 20
-23.5
 30
-292.4999999999998
 70
   192
  0
VERTEX
  5
75D
  8
VANA
 10
-0.0000000000000133
 20
-21.0
 30
-292.4999999999998
 70
   192
  0
VERTEX
  5
75E
  8
VANA
 10
0.0000000000000001
 20
-21.0
 30
-407.4999999999998
 70
   192
  0
VERTEX
  5
75F
  8
VANA
 10
-57.5
 20
-21.0
 30
-349.9999999999998
 70
   192
  0
VERTEX
  5
760
  8
VANA
 10
-57.5
 20
-23.5
 30
-349.9999999999998
 70
   192
  0
VERTEX
  5
761
  8
VANA
 10
-40.65863991822648
 20
-21.0
 30
-390.6586399182263
 70
   192
  0
VERTEX
  5
762
  8
VANA
 10
-40.65863991822648
 20
-23.5
 30
-390.6586399182263
 70
   192
  0
VERTEX
  5
763
  8
VANA
 10
-40.65863991822649
 20
-21.0
 30
-309.3413600817734
 70
   192
  0
VERTEX
  5
764
  8
VANA
 10
-40.65863991822649
 20
-23.5
 30
-309.3413600817734
 70
   192
  0
VERTEX
  5
765
  8
VANA
 10
0.0
 20
0.0
 30
0.0
 70
   128
 71
     8
 72
     1
 73
    -4
  0
VERTEX
  5
766
  8
VANA
 10
0.0
 20
0.0
 30
0.0
 70
   128
 71
     7
 72
    -8
 73
     4
  0
VERTEX
  5
767
  8
VANA
 10
0.0
 20
0.0
 30
0.0
 70
   128
 71
     6
 72
     8
 73
    -7
  0
VERTEX
  5
768
  8
VANA
 10
0.0
 20
0.0
 30
0.0
 70
   128
 71
     5
 72
    -6
 73
     7
  0
VERTEX
  5
769
  8
VANA
 10
0.0
 20
0.0
 30
0.0
 70
   128
 71
    10
 72
     6
 73
    -5
  0
VERTEX
  5
76A
  8
VANA
 10
0.0
 20
0.0
 30
0.0
 70
   128
 71
     9
 72
   -10
 73
     5
  0
VERTEX
  5
76B
  8
VANA
 10
0.0
 20
0.0
 30
0.0
 70
   128
 71
     2
 72
    10
 73
    -9
  0
VERTEX
  5
76C
  8
VANA
 10
0.0
 20
0.0
 30
0.0
 70
   128
 71
     3
 72
    -2
 73
     9
  0
SEQEND
  5
D0B
  8
VANA
  0
POLYLINE
  5
76D
  8
VANA
 66
     1
 10
0.0
 20
0.0
 30
0.0
 70
    64
 71
     4
 72
     2
  0
VERTEX
  5
76E
  8
VANA
 10
-399.9999999999999
 20
0.0
 30
750.0
 70
   192
  0
VERTEX
  5
76F
  8
VANA
 10
-399.9999999999999
 20
0.0
 30
-749.9999999999999
 70
   192
  0
VERTEX
  5
770
  8
VANA
 10
-399.9999999999999
 20
-30.0
 30
-749.9999999999998
 70
   192
  0
VERTEX
  5
771
  8
VANA
 10
-399.9999999999999
 20
-30.0
 30
750.0000000000002
 70
   192
  0
VERTEX
  5
772
  8
VANA
 10
0.0
 20
0.0
 30
0.0
 70
   128
 71
     3
 72
     4
 73
    -1
  0
VERTEX
  5
773
  8
VANA
 10
0.0
 20
0.0
 30
0.0
 70
   128
 71
     2
 72
    -3
 73
     1
  0
SEQEND
  5
D0C
  8
VANA
  0
POLYLINE
  5
774
  8
VANA
 66
     1
 10
0.0
 20
0.0
 30
0.0
 70
    64
 71
     4
 72
     2
  0
VERTEX
  5
775
  8
VANA
 10
-400.0
 20
0.0000000000000194
 30
-750.0
 70
   192
  0
VERTEX
  5
776
  8
VANA
 10
400.0000000000001
 20
0.0000000000000222
 30
-750.0
 70
   192
  0
VERTEX
  5
777
  8
VANA
 10
400.0000000000001
 20
-30.0
 30
-749.9999999999998
 70
   192
  0
VERTEX
  5
778
  8
VANA
 10
-399.9999999999999
 20
-30.0
 30
-749.9999999999998
 70
   192
  0
VERTEX
  5
779
  8
VANA
 10
0.0
 20
0.0
 30
0.0
 70
   128
 71
     3
 72
     4
 73
    -1
  0
VERTEX
  5
77A
  8
VANA
 10
0.0
 20
0.0
 30
0.0
 70
   128
 71
     2
 72
    -3
 73
     1
  0
SEQEND
  5
D0D
  8
VANA
  0
POLYLINE
  5
77B
  8
VANA
 66
     1
 10
0.0
 20
0.0
 30
0.0
 70
    64
 71
     4
 72
     2
  0
VERTEX
  5
77C
  8
VANA
 10
400.0000000000001
 20
0.0000000000000003
 30
-749.9999999999999
 70
   192
  0
VERTEX
  5
77D
  8
VANA
 10
400.0000000000001
 20
-0.0000000000000142
 30
750.0000000000003
 70
   192
  0
VERTEX
  5
77E
  8
VANA
 10
400.0000000000001
 20
-30.0
 30
750.0000000000002
 70
   192
  0
VERTEX
  5
77F
  8
VANA
 10
400.0000000000001
 20
-30.0
 30
-749.9999999999998
 70
   192
  0
VERTEX
  5
780
  8
VANA
 10
0.0
 20
0.0
 30
0.0
 70
   128
 71
     3
 72
     4
 73
    -1
  0
VERTEX
  5
781
  8
VANA
 10
0.0
 20
0.0
 30
0.0
 70
   128
 71
     2
 72
    -3
 73
     1
  0
SEQEND
  5
D0E
  8
VANA
  0
POLYLINE
  5
782
  8
VANA
 66
     1
 10
0.0
 20
0.0
 30
0.0
 70
    64
 71
     4
 72
     2
  0
VERTEX
  5
783
  8
VANA
 10
400.0000000000001
 20
-0.0000000000000035
 30
750.0000000000005
 70
   192
  0
VERTEX
  5
784
  8
VANA
 10
-400.0
 20
-0.0000000000000035
 30
750.0000000000005
 70
   192
  0
VERTEX
  5
785
  8
VANA
 10
-399.9999999999999
 20
-30.0
 30
750.0000000000002
 70
   192
  0
VERTEX
  5
786
  8
VANA
 10
400.0000000000001
 20
-30.0
 30
750.0000000000002
 70
   192
  0
VERTEX
  5
787
  8
VANA
 10
0.0
 20
0.0
 30
0.0
 70
   128
 71
     3
 72
     4
 73
    -1
  0
VERTEX
  5
788
  8
VANA
 10
0.0
 20
0.0
 30
0.0
 70
   128
 71
     2
 72
    -3
 73
     1
  0
SEQEND
  5
D0F
  8
VANA
  0
POLYLINE
  5
789
  8
VANA
 66
     1
 10
0.0
 20
0.0
 30
0.0
 70
    64
 71
    12
 72
    12
  0
VERTEX
  5
78A
  8
VANA
 10
-399.9999999999999
 20
-30.0
 30
750.0000000000002
 70
   192
  0
VERTEX
  5
78B
  8
VANA
 10
400.0000000000001
 20
-30.0
 30
750.0000000000002
 70
   192
  0
VERTEX
  5
78C
  8
VANA
 10
400.0000000000001
 20
-30.0
 30
-749.9999999999998
 70
   192
  0
VERTEX
  5
78D
  8
VANA
 10
-399.9999999999999
 20
-30.0
 30
-749.9999999999998
 70
   192
  0
VERTEX
  5
78E
  8
VANA
 10
-0.0000000000000124
 20
-30.0
 30
-394.9999999999998
 70
   192
  0
VERTEX
  5
78F
  8
VANA
 10
31.81980515339462
 20
-30.0
 30
-381.8198051533944
 70
   192
  0
VERTEX
  5
790
  8
VANA
 10
44.99999999999998
 20
-30.0
 30
-349.9999999999998
 70
   192
  0
VERTEX
  5
791
  8
VANA
 10
31.81980515339463
 20
-30.0
 30
-318.1801948466052
 70
   192
  0
VERTEX
  5
792
  8
VANA
 10
-0.0000000000000069
 20
-30.0
 30
-304.9999999999998
 70
   192
  0
VERTEX
  5
793
  8
VANA
 10
-31.81980515339464
 20
-30.0
 30
-318.1801948466052
 70
   192
  0
VERTEX
  5
794
  8
VANA
 10
-45.0
 20
-30.0
 30
-349.9999999999998
 70
   192
  0
VERTEX
  5
795
  8
VANA
 10
-31.81980515339464
 20
-30.0
 30
-381.8198051533944
 70
   192
  0
VERTEX
  5
796
  8
VANA
 10
0.0
 20
0.0
 30
0.0
 70
   128
 71
     6
 72
    -5
 73
    -4
  0
VERTEX
  5
797
  8
VANA
 10
0.0
 20
0.0
 30
0.0
 70
   128
 71
    -6
 72
     4
 73
    -3
  0
VERTEX
  5
798
  8
VANA
 10
0.0
 20
0.0
 30
0.0
 70
   128
 71
    -3
 72
     7
 73
    -6
  0
VERTEX
  5
799
  8
VANA
 10
0.0
 20
0.0
 30
0.0
 70
   128
 71
    -3
 72
     8
 73
    -7
  0
VERTEX
  5
79A
  8
VANA
 10
0.0
 20
0.0
 30
0.0
 70
   128
 71
    -8
 72
     3
 73
    -2
  0
VERTEX
  5
79B
  8
VANA
 10
0.0
 20
0.0
 30
0.0
 70
   128
 71
    -2
 72
     9
 73
    -8
  0
VERTEX
  5
79C
  8
VANA
 10
0.0
 20
0.0
 30
0.0
 70
   128
 71
    -2
 72
    10
 73
    -9
  0
VERTEX
  5
79D
  8
VANA
 10
0.0
 20
0.0
 30
0.0
 70
   128
 71
     2
 72
     1
 73
    -4
  0
VERTEX
  5
79E
  8
VANA
 10
0.0
 20
0.0
 30
0.0
 70
   128
 71
    -2
 72
    -4
 73
   -10
  0
VERTEX
  5
79F
  8
VANA
 10
0.0
 20
0.0
 30
0.0
 70
   128
 71
    -4
 72
    11
 73
   -10
  0
VERTEX
  5
7A0
  8
VANA
 10
0.0
 20
0.0
 30
0.0
 70
   128
 71
    -4
 72
    12
 73
   -11
  0
VERTEX
  5
7A1
  8
VANA
 10
0.0
 20
0.0
 30
0.0
 70
   128
 71
    -4
 72
     5
 73
   -12
  0
SEQEND
  5
D10
  8
VANA
  0
POLYLINE
  5
7A2
  8
VANA
 66
     1
 10
0.0
 20
0.0
 30
0.0
 70
    64
 71
     4
 72
     2
  0
VERTEX
  5
7A3
  8
VANA
 10
-63.49999999999989
 20
-18.0
 30
-413.4999999999998
 70
   192
  0
VERTEX
  5
7A4
  8
VANA
 10
-400.0000000000001
 20
0.0000000000000046
 30
-749.9999999999999
 70
   192
  0
VERTEX
  5
7A5
  8
VANA
 10
-399.9999999999999
 20
0.0
 30
750.0
 70
   192
  0
VERTEX
  5
7A6
  8
VANA
 10
-63.49999999999994
 20
-17.99999999999999
 30
-286.4999999999998
 70
   192
  0
VERTEX
  5
7A7
  8
VANA
 10
0.0
 20
0.0
 30
0.0
 70
   128
 71
     3
 72
     4
 73
    -1
  0
VERTEX
  5
7A8
  8
VANA
 10
0.0
 20
0.0
 30
0.0
 70
   128
 71
     2
 72
    -3
 73
     1
  0
SEQEND
  5
D11
  8
VANA
  0
POLYLINE
  5
7A9
  8
VANA
 66
     1
 10
0.0
 20
0.0
 30
0.0
 70
    64
 71
     4
 72
     2
  0
VERTEX
  5
7AA
  8
VANA
 10
-63.49999999999989
 20
-18.0
 30
-286.4999999999997
 70
   192
  0
VERTEX
  5
7AB
  8
VANA
 10
63.49999999999983
 20
-18.0
 30
-286.5
 70
   192
  0
VERTEX
  5
7AC
  8
VANA
 10
400.0000000000001
 20
-0.0000000000000035
 30
750.0000000000005
 70
   192
  0
VERTEX
  5
7AD
  8
VANA
 10
-399.9999999999999
 20
-0.0000000000000033
 30
750.0
 70
   192
  0
VERTEX
  5
7AE
  8
VANA
 10
0.0
 20
0.0
 30
0.0
 70
   128
 71
     1
 72
     4
 73
    -3
  0
VERTEX
  5
7AF
  8
VANA
 10
0.0
 20
0.0
 30
0.0
 70
   128
 71
    -1
 72
     3
 73
     2
  0
SEQEND
  5
D12
  8
VANA
  0
POLYLINE
  5
7B0
  8
VANA
 66
     1
 10
0.0
 20
0.0
 30
0.0
 70
    64
 71
     4
 72
     2
  0
VERTEX
  5
7B1
  8
VANA
 10
63.50000000000011
 20
-18.0
 30
-413.4999999999998
 70
   192
  0
VERTEX
  5
7B2
  8
VANA
 10
400.0000000000002
 20
0.0000000000000046
 30
-749.9999999999999
 70
   192
  0
VERTEX
  5
7B3
  8
VANA
 10
-400.0
 20
0.0000000000000194
 30
-750.0
 70
   192
  0
VERTEX
  5
7B4
  8
VANA
 10
-63.49999999999989
 20
-18.0
 30
-413.4999999999998
 70
   192
  0
VERTEX
  5
7B5
  8
VANA
 10
0.0
 20
0.0
 30
0.0
 70
   128
 71
     3
 72
     4
 73
    -1
  0
VERTEX
  5
7B6
  8
VANA
 10
0.0
 20
0.0
 30
0.0
 70
   128
 71
     2
 72
    -3
 73
     1
  0
SEQEND
  5
D13
  8
VANA
  0
POLYLINE
  5
7B7
  8
VANA
 66
     1
 10
0.0
 20
0.0
 30
0.0
 70
    64
 71
     4
 72
     2
  0
VERTEX
  5
7B8
  8
VANA
 10
63.49999999999983
 20
-18.0
 30
-286.5
 70
   192
  0
VERTEX
  5
7B9
  8
VANA
 10
400.0000000000001
 20
0.0000000000000021
 30
750.0000000000003
 70
   192
  0
VERTEX
  5
7BA
  8
VANA
 10
400.0000000000001
 20
0.0000000000000003
 30
-749.9999999999999
 70
   192
  0
VERTEX
  5
7BB
  8
VANA
 10
63.50000000000011
 20
-18.0
 30
-413.4999999999998
 70
   192
  0
VERTEX
  5
7BC
  8
VANA
 10
0.0
 20
0.0
 30
0.0
 70
   128
 71
     3
 72
     4
 73
    -1
  0
VERTEX
  5
7BD
  8
VANA
 10
0.0
 20
0.0
 30
0.0
 70
   128
 71
     2
 72
    -3
 73
     1
  0
SEQEND
  5
D14
  8
VANA
  0
POLYLINE
  5
7BE
  8
VANA
 66
     1
 10
0.0
 20
0.0
 30
0.0
 70
    64
 71
     4
 72
     2
  0
VERTEX
  5
7BF
  8
VANA
 10
-63.49999999999989
 20
-18.0
 30
-286.4999999999997
 70
   192
  0
VERTEX
  5
7C0
  8
VANA
 10
-63.49999999999989
 20
-21.0
 30
-286.4999999999997
 70
   192
  0
VERTEX
  5
7C1
  8
VANA
 10
63.49999999999989
 20
-21.0
 30
-286.4999999999997
 70
   192
  0
VERTEX
  5
7C2
  8
VANA
 10
63.49999999999989
 20
-18.0
 30
-286.4999999999997
 70
   192
  0
VERTEX
  5
7C3
  8
VANA
 10
0.0
 20
0.0
 30
0.0
 70
   128
 71
     1
 72
     4
 73
    -3
  0
VERTEX
  5
7C4
  8
VANA
 10
0.0
 20
0.0
 30
0.0
 70
   128
 71
    -1
 72
     3
 73
     2
  0
SEQEND
  5
D15
  8
VANA
  0
POLYLINE
  5
7C5
  8
VANA
 66
     1
 10
0.0
 20
0.0
 30
0.0
 70
    64
 71
     4
 72
     2
  0
VERTEX
  5
7C6
  8
VANA
 10
-63.49999999999989
 20
-18.0
 30
-413.4999999999998
 70
   192
  0
VERTEX
  5
7C7
  8
VANA
 10
-63.49999999999989
 20
-21.0
 30
-413.4999999999998
 70
   192
  0
VERTEX
  5
7C8
  8
VANA
 10
-63.49999999999989
 20
-21.0
 30
-286.4999999999997
 70
   192
  0
VERTEX
  5
7C9
  8
VANA
 10
-63.49999999999989
 20
-18.0
 30
-286.4999999999997
 70
   192
  0
VERTEX
  5
7CA
  8
VANA
 10
0.0
 20
0.0
 30
0.0
 70
   128
 71
     1
 72
     4
 73
    -3
  0
VERTEX
  5
7CB
  8
VANA
 10
0.0
 20
0.0
 30
0.0
 70
   128
 71
    -1
 72
     3
 73
     2
  0
SEQEND
  5
D16
  8
VANA
  0
POLYLINE
  5
7CC
  8
VANA
 66
     1
 10
0.0
 20
0.0
 30
0.0
 70
    64
 71
     4
 72
     2
  0
VERTEX
  5
7CD
  8
VANA
 10
63.50000000000011
 20
-18.0
 30
-413.4999999999998
 70
   192
  0
VERTEX
  5
7CE
  8
VANA
 10
63.50000000000011
 20
-21.0
 30
-413.4999999999998
 70
   192
  0
VERTEX
  5
7CF
  8
VANA
 10
-63.49999999999989
 20
-21.0
 30
-413.4999999999998
 70
   192
  0
VERTEX
  5
7D0
  8
VANA
 10
-63.49999999999989
 20
-18.0
 30
-413.4999999999998
 70
   192
  0
VERTEX
  5
7D1
  8
VANA
 10
0.0
 20
0.0
 30
0.0
 70
   128
 71
     1
 72
     4
 73
    -3
  0
VERTEX
  5
7D2
  8
VANA
 10
0.0
 20
0.0
 30
0.0
 70
   128
 71
    -1
 72
     3
 73
     2
  0
SEQEND
  5
D17
  8
VANA
  0
POLYLINE
  5
7D3
  8
VANA
 66
     1
 10
0.0
 20
0.0
 30
0.0
 70
    64
 71
     4
 72
     2
  0
VERTEX
  5
7D4
  8
VANA
 10
63.49999999999989
 20
-18.0
 30
-286.4999999999997
 70
   192
  0
VERTEX
  5
7D5
  8
VANA
 10
63.49999999999989
 20
-21.0
 30
-286.4999999999997
 70
   192
  0
VERTEX
  5
7D6
  8
VANA
 10
63.50000000000011
 20
-21.0
 30
-413.4999999999998
 70
   192
  0
VERTEX
  5
7D7
  8
VANA
 10
63.50000000000011
 20
-18.0
 30
-413.4999999999998
 70
   192
  0
VERTEX
  5
7D8
  8
VANA
 10
0.0
 20
0.0
 30
0.0
 70
   128
 71
     1
 72
     4
 73
    -3
  0
VERTEX
  5
7D9
  8
VANA
 10
0.0
 20
0.0
 30
0.0
 70
   128
 71
    -1
 72
     3
 73
     2
  0
SEQEND
  5
D18
  8
VANA
  0
POLYLINE
  5
7DA
  8
VANA
 66
     1
 10
0.0
 20
0.0
 30
0.0
 70
    64
 71
    12
 72
    12
  0
VERTEX
  5
7DB
  8
VANA
 10
-63.49999999999989
 20
-21.0
 30
-286.4999999999997
 70
   192
  0
VERTEX
  5
7DC
  8
VANA
 10
63.49999999999989
 20
-21.0
 30
-286.4999999999997
 70
   192
  0
VERTEX
  5
7DD
  8
VANA
 10
63.50000000000011
 20
-21.0
 30
-413.4999999999998
 70
   192
  0
VERTEX
  5
7DE
  8
VANA
 10
-63.49999999999989
 20
-21.0
 30
-413.4999999999998
 70
   192
  0
VERTEX
  5
7DF
  8
VANA
 10
-0.0000000000000069
 20
-21.0
 30
-407.4999999999998
 70
   192
  0
VERTEX
  5
7E0
  8
VANA
 10
40.65863991822648
 20
-21.0
 30
-390.6586399182263
 70
   192
  0
VERTEX
  5
7E1
  8
VANA
 10
57.5
 20
-21.0
 30
-349.9999999999998
 70
   192
  0
VERTEX
  5
7E2
  8
VANA
 10
40.65863991822647
 20
-21.0
 30
-309.3413600817734
 70
   192
  0
VERTEX
  5
7E3
  8
VANA
 10
-0.0000000000000069
 20
-21.0
 30
-292.4999999999998
 70
   192
  0
VERTEX
  5
7E4
  8
VANA
 10
-40.65863991822649
 20
-21.0
 30
-309.3413600817734
 70
   192
  0
VERTEX
  5
7E5
  8
VANA
 10
-57.5
 20
-21.0
 30
-349.9999999999998
 70
   192
  0
VERTEX
  5
7E6
  8
VANA
 10
-40.65863991822648
 20
-21.0
 30
-390.6586399182263
 70
   192
  0
VERTEX
  5
7E7
  8
VANA
 10
0.0
 20
0.0
 30
0.0
 70
   128
 71
     3
 72
    -4
 73
    -5
  0
VERTEX
  5
7E8
  8
VANA
 10
0.0
 20
0.0
 30
0.0
 70
   128
 71
     5
 72
    -6
 73
    -3
  0
VERTEX
  5
7E9
  8
VANA
 10
0.0
 20
0.0
 30
0.0
 70
   128
 71
     6
 72
    -7
 73
    -3
  0
VERTEX
  5
7EA
  8
VANA
 10
0.0
 20
0.0
 30
0.0
 70
   128
 71
     2
 72
    -3
 73
    -7
  0
VERTEX
  5
7EB
  8
VANA
 10
0.0
 20
0.0
 30
0.0
 70
   128
 71
     7
 72
    -8
 73
    -2
  0
VERTEX
  5
7EC
  8
VANA
 10
0.0
 20
0.0
 30
0.0
 70
   128
 71
     8
 72
    -9
 73
    -2
  0
VERTEX
  5
7ED
  8
VANA
 10
0.0
 20
0.0
 30
0.0
 70
   128
 71
    -9
 72
     1
 73
    -2
  0
VERTEX
  5
7EE
  8
VANA
 10
0.0
 20
0.0
 30
0.0
 70
   128
 71
     9
 72
   -10
 73
    -1
  0
VERTEX
  5
7EF
  8
VANA
 10
0.0
 20
0.0
 30
0.0
 70
   128
 71
    10
 72
   -11
 73
    -1
  0
VERTEX
  5
7F0
  8
VANA
 10
0.0
 20
0.0
 30
0.0
 70
   128
 71
   -11
 72
     4
 73
    -1
  0
VERTEX
  5
7F1
  8
VANA
 10
0.0
 20
0.0
 30
0.0
 70
   128
 71
    -4
 72
    11
 73
   -12
  0
VERTEX
  5
7F2
  8
VANA
 10
0.0
 20
0.0
 30
0.0
 70
   128
 71
    12
 72
    -5
 73
    -4
  0
SEQEND
  5
D19
  8
VANA
  0
POLYLINE
  5
7F3
  8
VANA
 66
     1
 10
0.0
 20
0.0
 30
0.0
 70
    64
 71
    10
 72
     8
  0
VERTEX
  5
7F4
  8
VANA
 10
-0.0000000000000069
 20
-23.5
 30
-292.4999999999998
 70
   192
  0
VERTEX
  5
7F5
  8
VANA
 10
0.0000000000000001
 20
-23.5
 30
-407.4999999999998
 70
   192
  0
VERTEX
  5
7F6
  8
VANA
 10
0.0000000000000001
 20
-21.0
 30
-407.4999999999998
 70
   192
  0
VERTEX
  5
7F7
  8
VANA
 10
-0.0000000000000069
 20
-21.0
 30
-292.4999999999998
 70
   192
  0
VERTEX
  5
7F8
  8
VANA
 10
57.5
 20
-21.0
 30
-349.9999999999998
 70
   192
  0
VERTEX
  5
7F9
  8
VANA
 10
57.5
 20
-23.5
 30
-349.9999999999998
 70
   192
  0
VERTEX
  5
7FA
  8
VANA
 10
40.65863991822647
 20
-21.0
 30
-309.3413600817734
 70
   192
  0
VERTEX
  5
7FB
  8
VANA
 10
40.65863991822647
 20
-23.5
 30
-309.3413600817734
 70
   192
  0
VERTEX
  5
7FC
  8
VANA
 10
40.65863991822648
 20
-21.0
 30
-390.6586399182263
 70
   192
  0
VERTEX
  5
7FD
  8
VANA
 10
40.65863991822648
 20
-23.5
 30
-390.6586399182263
 70
   192
  0
VERTEX
  5
7FE
  8
VANA
 10
0.0
 20
0.0
 30
0.0
 70
   128
 71
     8
 72
     1
 73
    -4
  0
VERTEX
  5
7FF
  8
VANA
 10
0.0
 20
0.0
 30
0.0
 70
   128
 71
     7
 72
    -8
 73
     4
  0
VERTEX
  5
800
  8
VANA
 10
0.0
 20
0.0
 30
0.0
 70
   128
 71
     6
 72
     8
 73
    -7
  0
VERTEX
  5
801
  8
VANA
 10
0.0
 20
0.0
 30
0.0
 70
   128
 71
     5
 72
    -6
 73
     7
  0
VERTEX
  5
802
  8
VANA
 10
0.0
 20
0.0
 30
0.0
 70
   128
 71
    10
 72
     6
 73
    -5
  0
VERTEX
  5
803
  8
VANA
 10
0.0
 20
0.0
 30
0.0
 70
   128
 71
     9
 72
   -10
 73
     5
  0
VERTEX
  5
804
  8
VANA
 10
0.0
 20
0.0
 30
0.0
 70
   128
 71
     3
 72
     2
 73
   -10
  0
VERTEX
  5
805
  8
VANA
 10
0.0
 20
0.0
 30
0.0
 70
   128
 71
     9
 72
    -3
 73
    10
  0
SEQEND
  5
D1A
  8
VANA
  0
POLYLINE
  5
806
  8
VANA
 66
     1
 10
0.0
 20
0.0
 30
0.0
 70
    64
 71
    10
 72
     8
  0
VERTEX
  5
807
  8
VANA
 10
-0.0000000000000019
 20
-30.0
 30
-304.9999999999998
 70
   192
  0
VERTEX
  5
808
  8
VANA
 10
-0.0000000000000014
 20
-30.00000000000001
 30
-394.9999999999998
 70
   192
  0
VERTEX
  5
809
  8
VANA
 10
-0.0000000000000014
 20
-26.49999999999994
 30
-394.9999999999998
 70
   192
  0
VERTEX
  5
80A
  8
VANA
 10
-0.0000000000000069
 20
-26.49999999999994
 30
-304.9999999999998
 70
   192
  0
VERTEX
  5
80B
  8
VANA
 10
44.99999999999999
 20
-26.49999999999994
 30
-349.9999999999998
 70
   192
  0
VERTEX
  5
80C
  8
VANA
 10
44.99999999999998
 20
-30.0
 30
-349.9999999999998
 70
   192
  0
VERTEX
  5
80D
  8
VANA
 10
31.81980515339462
 20
-26.49999999999994
 30
-318.1801948466052
 70
   192
  0
VERTEX
  5
80E
  8
VANA
 10
31.81980515339463
 20
-30.0
 30
-318.1801948466052
 70
   192
  0
VERTEX
  5
80F
  8
VANA
 10
31.81980515339463
 20
-26.49999999999994
 30
-381.8198051533944
 70
   192
  0
VERTEX
  5
810
  8
VANA
 10
31.81980515339462
 20
-30.0
 30
-381.8198051533944
 70
   192
  0
VERTEX
  5
811
  8
VANA
 10
0.0
 20
0.0
 30
0.0
 70
   128
 71
     8
 72
     1
 73
    -4
  0
VERTEX
  5
812
  8
VANA
 10
0.0
 20
0.0
 30
0.0
 70
   128
 71
     7
 72
    -8
 73
     4
  0
VERTEX
  5
813
  8
VANA
 10
0.0
 20
0.0
 30
0.0
 70
   128
 71
     6
 72
     8
 73
    -7
  0
VERTEX
  5
814
  8
VANA
 10
0.0
 20
0.0
 30
0.0
 70
   128
 71
     5
 72
    -6
 73
     7
  0
VERTEX
  5
815
  8
VANA
 10
0.0
 20
0.0
 30
0.0
 70
   128
 71
    10
 72
     6
 73
    -5
  0
VERTEX
  5
816
  8
VANA
 10
0.0
 20
0.0
 30
0.0
 70
   128
 71
     9
 72
   -10
 73
     5
  0
VERTEX
  5
817
  8
VANA
 10
0.0
 20
0.0
 30
0.0
 70
   128
 71
     3
 72
     2
 73
   -10
  0
VERTEX
  5
818
  8
VANA
 10
0.0
 20
0.0
 30
0.0
 70
   128
 71
     9
 72
    -3
 73
    10
  0
SEQEND
  5
D1B
  8
VANA
  0
POLYLINE
  5
819
  8
VANA
 66
     1
 10
0.0
 20
0.0
 30
0.0
 70
    64
 71
    10
 72
     8
  0
VERTEX
  5
81A
  8
VANA
 10
-0.0000000000000069
 20
-26.49999999999994
 30
-304.9999999999998
 70
   192
  0
VERTEX
  5
81B
  8
VANA
 10
-0.0000000000000014
 20
-26.49999999999994
 30
-394.9999999999998
 70
   192
  0
VERTEX
  5
81C
  8
VANA
 10
0.0000000000000001
 20
-23.4999999999999
 30
-407.4999999999998
 70
   192
  0
VERTEX
  5
81D
  8
VANA
 10
-0.0000000000000069
 20
-23.49999999999991
 30
-292.4999999999998
 70
   192
  0
VERTEX
  5
81E
  8
VANA
 10
57.5
 20
-23.5
 30
-349.9999999999998
 70
   192
  0
VERTEX
  5
81F
  8
VANA
 10
44.99999999999999
 20
-26.49999999999994
 30
-349.9999999999998
 70
   192
  0
VERTEX
  5
820
  8
VANA
 10
40.65863991822647
 20
-23.5
 30
-309.3413600817734
 70
   192
  0
VERTEX
  5
821
  8
VANA
 10
31.81980515339462
 20
-26.49999999999994
 30
-318.1801948466052
 70
   192
  0
VERTEX
  5
822
  8
VANA
 10
40.65863991822648
 20
-23.5
 30
-390.6586399182263
 70
   192
  0
VERTEX
  5
823
  8
VANA
 10
31.81980515339463
 20
-26.49999999999994
 30
-381.8198051533944
 70
   192
  0
VERTEX
  5
824
  8
VANA
 10
0.0
 20
0.0
 30
0.0
 70
   128
 71
     8
 72
     1
 73
    -4
  0
VERTEX
  5
825
  8
VANA
 10
0.0
 20
0.0
 30
0.0
 70
   128
 71
     7
 72
    -8
 73
     4
  0
VERTEX
  5
826
  8
VANA
 10
0.0
 20
0.0
 30
0.0
 70
   128
 71
     6
 72
     8
 73
    -7
  0
VERTEX
  5
827
  8
VANA
 10
0.0
 20
0.0
 30
0.0
 70
   128
 71
     5
 72
    -6
 73
     7
  0
VERTEX
  5
828
  8
VANA
 10
0.0
 20
0.0
 30
0.0
 70
   128
 71
    10
 72
     6
 73
    -5
  0
VERTEX
  5
829
  8
VANA
 10
0.0
 20
0.0
 30
0.0
 70
   128
 71
     9
 72
   -10
 73
     5
  0
VERTEX
  5
82A
  8
VANA
 10
0.0
 20
0.0
 30
0.0
 70
   128
 71
     3
 72
     2
 73
   -10
  0
VERTEX
  5
82B
  8
VANA
 10
0.0
 20
0.0
 30
0.0
 70
   128
 71
     9
 72
    -3
 73
    10
  0
SEQEND
  5
D1C
  8
VANA
  0
ENDBLK
  5
D08
  8
0
  0
BLOCK
  8
0
  2
*X2
 70
     1
 10
0.0
 20
0.0
 30
0.0
  3
*X2
  1

  0
POLYLINE
  5
82D
  8
ODPAD
 66
     1
 10
0.0
 20
0.0
 30
0.0
 70
    64
 71
     4
 72
     2
  0
VERTEX
  5
82E
  8
ODPAD
 10
-61.99999999999989
 20
-20.99999999999999
 30
-411.9999999999997
 70
   192
  0
VERTEX
  5
82F
  8
ODPAD
 10
-61.99999999999989
 20
-19.99999999999999
 30
-411.9999999999997
 70
   192
  0
VERTEX
  5
830
  8
ODPAD
 10
-61.99999999999989
 20
-19.99999999999999
 30
-287.9999999999997
 70
   192
  0
VERTEX
  5
831
  8
ODPAD
 10
-61.99999999999989
 20
-20.99999999999999
 30
-287.9999999999997
 70
   192
  0
VERTEX
  5
832
  8
ODPAD
 10
0.0
 20
0.0
 30
0.0
 70
   128
 71
     1
 72
     4
 73
    -3
  0
VERTEX
  5
833
  8
ODPAD
 10
0.0
 20
0.0
 30
0.0
 70
   128
 71
    -1
 72
     3
 73
     2
  0
SEQEND
  5
D1F
  8
ODPAD
  0
POLYLINE
  5
834
  8
ODPAD
 66
     1
 10
0.0
 20
0.0
 30
0.0
 70
    64
 71
     4
 72
     2
  0
VERTEX
  5
835
  8
ODPAD
 10
-61.99999999999989
 20
-20.99999999999999
 30
-287.9999999999997
 70
   192
  0
VERTEX
  5
836
  8
ODPAD
 10
-61.99999999999989
 20
-19.99999999999999
 30
-287.9999999999997
 70
   192
  0
VERTEX
  5
837
  8
ODPAD
 10
62.00000000000011
 20
-19.99999999999999
 30
-287.9999999999997
 70
   192
  0
VERTEX
  5
838
  8
ODPAD
 10
62.00000000000011
 20
-20.99999999999999
 30
-287.9999999999997
 70
   192
  0
VERTEX
  5
839
  8
ODPAD
 10
0.0
 20
0.0
 30
0.0
 70
   128
 71
     1
 72
     4
 73
    -3
  0
VERTEX
  5
83A
  8
ODPAD
 10
0.0
 20
0.0
 30
0.0
 70
   128
 71
    -1
 72
     3
 73
     2
  0
SEQEND
  5
D20
  8
ODPAD
  0
POLYLINE
  5
83B
  8
ODPAD
 66
     1
 10
0.0
 20
0.0
 30
0.0
 70
    64
 71
     4
 72
     2
  0
VERTEX
  5
83C
  8
ODPAD
 10
62.00000000000011
 20
-20.99999999999999
 30
-287.9999999999997
 70
   192
  0
VERTEX
  5
83D
  8
ODPAD
 10
62.00000000000011
 20
-19.99999999999999
 30
-287.9999999999997
 70
   192
  0
VERTEX
  5
83E
  8
ODPAD
 10
62.00000000000011
 20
-19.99999999999999
 30
-411.9999999999997
 70
   192
  0
VERTEX
  5
83F
  8
ODPAD
 10
62.00000000000011
 20
-20.99999999999999
 30
-411.9999999999997
 70
   192
  0
VERTEX
  5
840
  8
ODPAD
 10
0.0
 20
0.0
 30
0.0
 70
   128
 71
     1
 72
     4
 73
    -3
  0
VERTEX
  5
841
  8
ODPAD
 10
0.0
 20
0.0
 30
0.0
 70
   128
 71
    -1
 72
     3
 73
     2
  0
SEQEND
  5
D21
  8
ODPAD
  0
POLYLINE
  5
842
  8
ODPAD
 66
     1
 10
0.0
 20
0.0
 30
0.0
 70
    64
 71
     4
 72
     2
  0
VERTEX
  5
843
  8
ODPAD
 10
62.00000000000011
 20
-20.99999999999999
 30
-411.9999999999997
 70
   192
  0
VERTEX
  5
844
  8
ODPAD
 10
62.00000000000011
 20
-19.99999999999999
 30
-411.9999999999997
 70
   192
  0
VERTEX
  5
845
  8
ODPAD
 10
-61.99999999999989
 20
-19.99999999999999
 30
-411.9999999999997
 70
   192
  0
VERTEX
  5
846
  8
ODPAD
 10
-61.99999999999989
 20
-20.99999999999999
 30
-411.9999999999997
 70
   192
  0
VERTEX
  5
847
  8
ODPAD
 10
0.0
 20
0.0
 30
0.0
 70
   128
 71
     1
 72
     4
 73
    -3
  0
VERTEX
  5
848
  8
ODPAD
 10
0.0
 20
0.0
 30
0.0
 70
   128
 71
    -1
 72
     3
 73
     2
  0
SEQEND
  5
D22
  8
ODPAD
  0
POLYLINE
  5
849
  8
ODPAD
 66
     1
 10
0.0
 20
0.0
 30
0.0
 70
    64
 71
   104
 72
   152
  0
VERTEX
  5
84A
  8
ODPAD
 10
-61.99999999999989
 20
-19.99999999999999
 30
-411.9999999999997
 70
   192
  0
VERTEX
  5
84B
  8
ODPAD
 10
-61.99999999999989
 20
-19.99999999999999
 30
-287.9999999999997
 70
   192
  0
VERTEX
  5
84C
  8
ODPAD
 10
62.00000000000011
 20
-19.99999999999999
 30
-287.9999999999997
 70
   192
  0
VERTEX
  5
84D
  8
ODPAD
 10
62.00000000000011
 20
-19.99999999999999
 30
-411.9999999999997
 70
   192
  0
VERTEX
  5
84E
  8
ODPAD
 10
-4.500000000000226
 20
-19.99999999999999
 30
-378.4999999999997
 70
   192
  0
VERTEX
  5
84F
  8
ODPAD
 10
-4.500000000000226
 20
-19.99999999999999
 30
-387.4999999999997
 70
   192
  0
VERTEX
  5
850
  8
ODPAD
 10
4.499999999999768
 20
-19.99999999999999
 30
-387.4999999999997
 70
   192
  0
VERTEX
  5
851
  8
ODPAD
 10
4.499999999999768
 20
-19.99999999999999
 30
-378.4999999999997
 70
   192
  0
VERTEX
  5
852
  8
ODPAD
 10
11.99999999999976
 20
-19.99999999999999
 30
-378.4999999999997
 70
   192
  0
VERTEX
  5
853
  8
ODPAD
 10
11.99999999999976
 20
-19.99999999999999
 30
-387.4999999999997
 70
   192
  0
VERTEX
  5
854
  8
ODPAD
 10
20.99999999999977
 20
-19.99999999999999
 30
-387.4999999999997
 70
   192
  0
VERTEX
  5
855
  8
ODPAD
 10
20.99999999999977
 20
-19.99999999999999
 30
-378.4999999999997
 70
   192
  0
VERTEX
  5
856
  8
ODPAD
 10
28.49999999999978
 20
-19.99999999999999
 30
-378.4999999999997
 70
   192
  0
VERTEX
  5
857
  8
ODPAD
 10
28.49999999999978
 20
-19.99999999999999
 30
-387.4999999999997
 70
   192
  0
VERTEX
  5
858
  8
ODPAD
 10
37.49999999999976
 20
-19.99999999999999
 30
-387.4999999999997
 70
   192
  0
VERTEX
  5
859
  8
ODPAD
 10
37.49999999999976
 20
-19.99999999999999
 30
-378.4999999999997
 70
   192
  0
VERTEX
  5
85A
  8
ODPAD
 10
-21.00000000000006
 20
-19.99999999999999
 30
-361.9999999999997
 70
   192
  0
VERTEX
  5
85B
  8
ODPAD
 10
-21.00000000000006
 20
-19.99999999999999
 30
-370.9999999999997
 70
   192
  0
VERTEX
  5
85C
  8
ODPAD
 10
-12.00000000000007
 20
-19.99999999999999
 30
-370.9999999999997
 70
   192
  0
VERTEX
  5
85D
  8
ODPAD
 10
-12.00000000000007
 20
-19.99999999999999
 30
-361.9999999999997
 70
   192
  0
VERTEX
  5
85E
  8
ODPAD
 10
-4.50000000000006
 20
-19.99999999999999
 30
-361.9999999999997
 70
   192
  0
VERTEX
  5
85F
  8
ODPAD
 10
-4.50000000000006
 20
-19.99999999999999
 30
-370.9999999999997
 70
   192
  0
VERTEX
  5
860
  8
ODPAD
 10
4.499999999999934
 20
-19.99999999999999
 30
-370.9999999999997
 70
   192
  0
VERTEX
  5
861
  8
ODPAD
 10
4.499999999999934
 20
-19.99999999999999
 30
-361.9999999999997
 70
   192
  0
VERTEX
  5
862
  8
ODPAD
 10
11.99999999999996
 20
-19.99999999999999
 30
-361.9999999999997
 70
   192
  0
VERTEX
  5
863
  8
ODPAD
 10
11.99999999999996
 20
-19.99999999999999
 30
-370.9999999999997
 70
   192
  0
VERTEX
  5
864
  8
ODPAD
 10
20.99999999999994
 20
-19.99999999999999
 30
-370.9999999999997
 70
   192
  0
VERTEX
  5
865
  8
ODPAD
 10
20.99999999999994
 20
-19.99999999999999
 30
-361.9999999999997
 70
   192
  0
VERTEX
  5
866
  8
ODPAD
 10
28.49999999999994
 20
-19.99999999999999
 30
-361.9999999999997
 70
   192
  0
VERTEX
  5
867
  8
ODPAD
 10
28.49999999999994
 20
-19.99999999999999
 30
-370.9999999999997
 70
   192
  0
VERTEX
  5
868
  8
ODPAD
 10
37.49999999999992
 20
-19.99999999999999
 30
-370.9999999999997
 70
   192
  0
VERTEX
  5
869
  8
ODPAD
 10
37.49999999999992
 20
-19.99999999999999
 30
-361.9999999999997
 70
   192
  0
VERTEX
  5
86A
  8
ODPAD
 10
-20.99999999999988
 20
-19.99999999999999
 30
-345.4999999999997
 70
   192
  0
VERTEX
  5
86B
  8
ODPAD
 10
-20.99999999999988
 20
-19.99999999999999
 30
-354.4999999999997
 70
   192
  0
VERTEX
  5
86C
  8
ODPAD
 10
-11.99999999999989
 20
-19.99999999999999
 30
-354.4999999999997
 70
   192
  0
VERTEX
  5
86D
  8
ODPAD
 10
-11.99999999999989
 20
-19.99999999999999
 30
-345.4999999999997
 70
   192
  0
VERTEX
  5
86E
  8
ODPAD
 10
-4.499999999999893
 20
-19.99999999999999
 30
-345.4999999999997
 70
   192
  0
VERTEX
  5
86F
  8
ODPAD
 10
-4.499999999999896
 20
-19.99999999999999
 30
-354.4999999999997
 70
   192
  0
VERTEX
  5
870
  8
ODPAD
 10
4.500000000000115
 20
-19.99999999999999
 30
-354.4999999999997
 70
   192
  0
VERTEX
  5
871
  8
ODPAD
 10
4.500000000000115
 20
-19.99999999999999
 30
-345.4999999999997
 70
   192
  0
VERTEX
  5
872
  8
ODPAD
 10
12.00000000000012
 20
-19.99999999999999
 30
-345.4999999999997
 70
   192
  0
VERTEX
  5
873
  8
ODPAD
 10
12.00000000000012
 20
-19.99999999999999
 30
-354.4999999999997
 70
   192
  0
VERTEX
  5
874
  8
ODPAD
 10
21.0000000000001
 20
-19.99999999999999
 30
-354.4999999999997
 70
   192
  0
VERTEX
  5
875
  8
ODPAD
 10
21.0000000000001
 20
-19.99999999999999
 30
-345.4999999999997
 70
   192
  0
VERTEX
  5
876
  8
ODPAD
 10
28.50000000000011
 20
-19.99999999999999
 30
-345.4999999999997
 70
   192
  0
VERTEX
  5
877
  8
ODPAD
 10
28.50000000000011
 20
-19.99999999999999
 30
-354.4999999999997
 70
   192
  0
VERTEX
  5
878
  8
ODPAD
 10
37.50000000000011
 20
-19.99999999999999
 30
-354.4999999999997
 70
   192
  0
VERTEX
  5
879
  8
ODPAD
 10
37.50000000000011
 20
-19.99999999999999
 30
-345.4999999999997
 70
   192
  0
VERTEX
  5
87A
  8
ODPAD
 10
-20.99999999999971
 20
-19.99999999999999
 30
-328.9999999999997
 70
   192
  0
VERTEX
  5
87B
  8
ODPAD
 10
-20.99999999999971
 20
-19.99999999999999
 30
-337.9999999999997
 70
   192
  0
VERTEX
  5
87C
  8
ODPAD
 10
-11.99999999999972
 20
-19.99999999999999
 30
-337.9999999999997
 70
   192
  0
VERTEX
  5
87D
  8
ODPAD
 10
-11.99999999999972
 20
-19.99999999999999
 30
-328.9999999999997
 70
   192
  0
VERTEX
  5
87E
  8
ODPAD
 10
-4.499999999999712
 20
-19.99999999999999
 30
-328.9999999999997
 70
   192
  0
VERTEX
  5
87F
  8
ODPAD
 10
-4.499999999999712
 20
-19.99999999999999
 30
-337.9999999999997
 70
   192
  0
VERTEX
  5
880
  8
ODPAD
 10
4.500000000000282
 20
-19.99999999999999
 30
-337.9999999999997
 70
   192
  0
VERTEX
  5
881
  8
ODPAD
 10
4.500000000000282
 20
-19.99999999999999
 30
-328.9999999999997
 70
   192
  0
VERTEX
  5
882
  8
ODPAD
 10
12.00000000000029
 20
-19.99999999999999
 30
-328.9999999999997
 70
   192
  0
VERTEX
  5
883
  8
ODPAD
 10
12.00000000000029
 20
-19.99999999999999
 30
-337.9999999999997
 70
   192
  0
VERTEX
  5
884
  8
ODPAD
 10
21.00000000000029
 20
-19.99999999999999
 30
-337.9999999999997
 70
   192
  0
VERTEX
  5
885
  8
ODPAD
 10
21.00000000000029
 20
-19.99999999999999
 30
-328.9999999999997
 70
   192
  0
VERTEX
  5
886
  8
ODPAD
 10
28.50000000000027
 20
-19.99999999999999
 30
-328.9999999999997
 70
   192
  0
VERTEX
  5
887
  8
ODPAD
 10
28.50000000000027
 20
-19.99999999999999
 30
-337.9999999999997
 70
   192
  0
VERTEX
  5
888
  8
ODPAD
 10
37.50000000000028
 20
-19.99999999999999
 30
-337.9999999999997
 70
   192
  0
VERTEX
  5
889
  8
ODPAD
 10
37.50000000000028
 20
-19.99999999999999
 30
-328.9999999999997
 70
   192
  0
VERTEX
  5
88A
  8
ODPAD
 10
-20.99999999999955
 20
-19.99999999999999
 30
-312.4999999999997
 70
   192
  0
VERTEX
  5
88B
  8
ODPAD
 10
-20.99999999999955
 20
-19.99999999999999
 30
-321.4999999999997
 70
   192
  0
VERTEX
  5
88C
  8
ODPAD
 10
-11.99999999999954
 20
-19.99999999999999
 30
-321.4999999999997
 70
   192
  0
VERTEX
  5
88D
  8
ODPAD
 10
-11.99999999999954
 20
-19.99999999999999
 30
-312.4999999999997
 70
   192
  0
VERTEX
  5
88E
  8
ODPAD
 10
-4.499999999999532
 20
-19.99999999999999
 30
-312.4999999999997
 70
   192
  0
VERTEX
  5
88F
  8
ODPAD
 10
-4.499999999999532
 20
-19.99999999999999
 30
-321.4999999999997
 70
   192
  0
VERTEX
  5
890
  8
ODPAD
 10
4.500000000000462
 20
-19.99999999999999
 30
-321.4999999999997
 70
   192
  0
VERTEX
  5
891
  8
ODPAD
 10
4.500000000000462
 20
-19.99999999999999
 30
-312.4999999999997
 70
   192
  0
VERTEX
  5
892
  8
ODPAD
 10
12.00000000000045
 20
-19.99999999999999
 30
-312.4999999999997
 70
   192
  0
VERTEX
  5
893
  8
ODPAD
 10
12.00000000000045
 20
-19.99999999999999
 30
-321.4999999999997
 70
   192
  0
VERTEX
  5
894
  8
ODPAD
 10
21.00000000000046
 20
-19.99999999999999
 30
-321.4999999999997
 70
   192
  0
VERTEX
  5
895
  8
ODPAD
 10
21.00000000000046
 20
-19.99999999999999
 30
-312.4999999999997
 70
   192
  0
VERTEX
  5
896
  8
ODPAD
 10
28.50000000000047
 20
-19.99999999999999
 30
-312.4999999999997
 70
   192
  0
VERTEX
  5
897
  8
ODPAD
 10
28.50000000000047
 20
-19.99999999999999
 30
-321.4999999999997
 70
   192
  0
VERTEX
  5
898
  8
ODPAD
 10
37.50000000000048
 20
-19.99999999999999
 30
-321.4999999999997
 70
   192
  0
VERTEX
  5
899
  8
ODPAD
 10
37.50000000000048
 20
-19.99999999999999
 30
-312.4999999999997
 70
   192
  0
VERTEX
  5
89A
  8
ODPAD
 10
-37.50000000000006
 20
-19.99999999999999
 30
-361.9999999999997
 70
   192
  0
VERTEX
  5
89B
  8
ODPAD
 10
-37.50000000000006
 20
-19.99999999999999
 30
-370.9999999999997
 70
   192
  0
VERTEX
  5
89C
  8
ODPAD
 10
-28.50000000000007
 20
-19.99999999999999
 30
-370.9999999999997
 70
   192
  0
VERTEX
  5
89D
  8
ODPAD
 10
-28.50000000000007
 20
-19.99999999999999
 30
-361.9999999999997
 70
   192
  0
VERTEX
  5
89E
  8
ODPAD
 10
-37.49999999999989
 20
-19.99999999999999
 30
-345.4999999999997
 70
   192
  0
VERTEX
  5
89F
  8
ODPAD
 10
-37.49999999999989
 20
-19.99999999999999
 30
-354.4999999999997
 70
   192
  0
VERTEX
  5
8A0
  8
ODPAD
 10
-28.49999999999989
 20
-19.99999999999999
 30
-354.4999999999997
 70
   192
  0
VERTEX
  5
8A1
  8
ODPAD
 10
-28.49999999999989
 20
-19.99999999999999
 30
-345.4999999999997
 70
   192
  0
VERTEX
  5
8A2
  8
ODPAD
 10
-37.49999999999972
 20
-19.99999999999999
 30
-328.9999999999997
 70
   192
  0
VERTEX
  5
8A3
  8
ODPAD
 10
-37.49999999999972
 20
-19.99999999999999
 30
-337.9999999999997
 70
   192
  0
VERTEX
  5
8A4
  8
ODPAD
 10
-28.49999999999972
 20
-19.99999999999999
 30
-337.9999999999997
 70
   192
  0
VERTEX
  5
8A5
  8
ODPAD
 10
-28.49999999999972
 20
-19.99999999999999
 30
-328.9999999999997
 70
   192
  0
VERTEX
  5
8A6
  8
ODPAD
 10
-37.49999999999953
 20
-19.99999999999999
 30
-312.4999999999997
 70
   192
  0
VERTEX
  5
8A7
  8
ODPAD
 10
-37.49999999999953
 20
-19.99999999999999
 30
-321.4999999999997
 70
   192
  0
VERTEX
  5
8A8
  8
ODPAD
 10
-28.49999999999955
 20
-19.99999999999999
 30
-321.4999999999997
 70
   192
  0
VERTEX
  5
8A9
  8
ODPAD
 10
-28.49999999999955
 20
-19.99999999999999
 30
-312.4999999999997
 70
   192
  0
VERTEX
  5
8AA
  8
ODPAD
 10
-37.50000000000023
 20
-19.99999999999999
 30
-378.4999999999997
 70
   192
  0
VERTEX
  5
8AB
  8
ODPAD
 10
-37.50000000000023
 20
-19.99999999999999
 30
-387.4999999999997
 70
   192
  0
VERTEX
  5
8AC
  8
ODPAD
 10
-28.50000000000023
 20
-19.99999999999999
 30
-387.4999999999997
 70
   192
  0
VERTEX
  5
8AD
  8
ODPAD
 10
-28.50000000000023
 20
-19.99999999999999
 30
-378.4999999999997
 70
   192
  0
VERTEX
  5
8AE
  8
ODPAD
 10
-21.00000000000024
 20
-19.99999999999999
 30
-378.4999999999997
 70
   192
  0
VERTEX
  5
8AF
  8
ODPAD
 10
-21.00000000000024
 20
-19.99999999999999
 30
-387.4999999999997
 70
   192
  0
VERTEX
  5
8B0
  8
ODPAD
 10
-12.00000000000023
 20
-19.99999999999999
 30
-387.4999999999997
 70
   192
  0
VERTEX
  5
8B1
  8
ODPAD
 10
-12.00000000000023
 20
-19.99999999999999
 30
-378.4999999999997
 70
   192
  0
VERTEX
  5
8B2
  8
ODPAD
 10
0.0
 20
0.0
 30
0.0
 70
   128
 71
   -97
 72
    81
 73
   -82
  0
VERTEX
  5
8B3
  8
ODPAD
 10
0.0
 20
0.0
 30
0.0
 70
   128
 71
    -1
 72
   -81
 73
   -97
  0
VERTEX
  5
8B4
  8
ODPAD
 10
0.0
 20
0.0
 30
0.0
 70
   128
 71
    97
 72
   -98
 73
    -1
  0
VERTEX
  5
8B5
  8
ODPAD
 10
0.0
 20
0.0
 30
0.0
 70
   128
 71
    98
 72
   -99
 73
    -1
  0
VERTEX
  5
8B6
  8
ODPAD
 10
0.0
 20
0.0
 30
0.0
 70
   128
 71
   -20
 72
    21
 73
   -22
  0
VERTEX
  5
8B7
  8
ODPAD
 10
0.0
 20
0.0
 30
0.0
 70
   128
 71
    19
 72
   -20
 73
   -22
  0
VERTEX
  5
8B8
  8
ODPAD
 10
0.0
 20
0.0
 30
0.0
 70
   128
 71
   -22
 72
    -5
 73
   -19
  0
VERTEX
  5
8B9
  8
ODPAD
 10
0.0
 20
0.0
 30
0.0
 70
   128
 71
   -23
 72
     8
 73
    -5
  0
VERTEX
  5
8BA
  8
ODPAD
 10
0.0
 20
0.0
 30
0.0
 70
   128
 71
    22
 72
   -23
 73
    -5
  0
VERTEX
  5
8BB
  8
ODPAD
 10
0.0
 20
0.0
 30
0.0
 70
   128
 71
   -20
 72
   -35
 73
   -21
  0
VERTEX
  5
8BC
  8
ODPAD
 10
0.0
 20
0.0
 30
0.0
 70
   128
 71
   -36
 72
    37
 73
   -38
  0
VERTEX
  5
8BD
  8
ODPAD
 10
0.0
 20
0.0
 30
0.0
 70
   128
 71
    35
 72
   -36
 73
   -38
  0
VERTEX
  5
8BE
  8
ODPAD
 10
0.0
 20
0.0
 30
0.0
 70
   128
 71
   -21
 72
   -35
 73
   -38
  0
VERTEX
  5
8BF
  8
ODPAD
 10
0.0
 20
0.0
 30
0.0
 70
   128
 71
   -39
 72
    24
 73
   -21
  0
VERTEX
  5
8C0
  8
ODPAD
 10
0.0
 20
0.0
 30
0.0
 70
   128
 71
    38
 72
   -39
 73
   -21
  0
VERTEX
  5
8C1
  8
ODPAD
 10
0.0
 20
0.0
 30
0.0
 70
   128
 71
   -52
 72
    53
 73
   -54
  0
VERTEX
  5
8C2
  8
ODPAD
 10
0.0
 20
0.0
 30
0.0
 70
   128
 71
    51
 72
   -52
 73
   -54
  0
VERTEX
  5
8C3
  8
ODPAD
 10
0.0
 20
0.0
 30
0.0
 70
   128
 71
   -54
 72
   -37
 73
   -51
  0
VERTEX
  5
8C4
  8
ODPAD
 10
0.0
 20
0.0
 30
0.0
 70
   128
 71
   -55
 72
    40
 73
   -37
  0
VERTEX
  5
8C5
  8
ODPAD
 10
0.0
 20
0.0
 30
0.0
 70
   128
 71
    54
 72
   -55
 73
   -37
  0
VERTEX
  5
8C6
  8
ODPAD
 10
0.0
 20
0.0
 30
0.0
 70
   128
 71
   -52
 72
   -67
 73
   -53
  0
VERTEX
  5
8C7
  8
ODPAD
 10
0.0
 20
0.0
 30
0.0
 70
   128
 71
   -58
 72
   -40
 73
   -55
  0
VERTEX
  5
8C8
  8
ODPAD
 10
0.0
 20
0.0
 30
0.0
 70
   128
 71
   -62
 72
    59
 73
   -60
  0
VERTEX
  5
8C9
  8
ODPAD
 10
0.0
 20
0.0
 30
0.0
 70
   128
 71
    61
 72
   -62
 73
   -60
  0
VERTEX
  5
8CA
  8
ODPAD
 10
0.0
 20
0.0
 30
0.0
 70
   128
 71
   -75
 72
   -61
 73
   -60
  0
VERTEX
  5
8CB
  8
ODPAD
 10
0.0
 20
0.0
 30
0.0
 70
   128
 71
   -57
 72
    74
 73
   -75
  0
VERTEX
  5
8CC
  8
ODPAD
 10
0.0
 20
0.0
 30
0.0
 70
   128
 71
    60
 72
   -57
 73
   -75
  0
VERTEX
  5
8CD
  8
ODPAD
 10
0.0
 20
0.0
 30
0.0
 70
   128
 71
   -56
 72
   -74
 73
   -57
  0
VERTEX
  5
8CE
  8
ODPAD
 10
0.0
 20
0.0
 30
0.0
 70
   128
 71
   -58
 72
    55
 73
   -56
  0
VERTEX
  5
8CF
  8
ODPAD
 10
0.0
 20
0.0
 30
0.0
 70
   128
 71
    57
 72
   -58
 73
   -56
  0
VERTEX
  5
8D0
  8
ODPAD
 10
0.0
 20
0.0
 30
0.0
 70
   128
 71
   -45
 72
   -59
 73
   -62
  0
VERTEX
  5
8D1
  8
ODPAD
 10
0.0
 20
0.0
 30
0.0
 70
   128
 71
   -63
 72
    48
 73
   -45
  0
VERTEX
  5
8D2
  8
ODPAD
 10
0.0
 20
0.0
 30
0.0
 70
   128
 71
    62
 72
   -63
 73
   -45
  0
VERTEX
  5
8D3
  8
ODPAD
 10
0.0
 20
0.0
 30
0.0
 70
   128
 71
   -42
 72
   -24
 73
   -39
  0
VERTEX
  5
8D4
  8
ODPAD
 10
0.0
 20
0.0
 30
0.0
 70
   128
 71
   -46
 72
    43
 73
   -44
  0
VERTEX
  5
8D5
  8
ODPAD
 10
0.0
 20
0.0
 30
0.0
 70
   128
 71
    45
 72
   -46
 73
   -44
  0
VERTEX
  5
8D6
  8
ODPAD
 10
0.0
 20
0.0
 30
0.0
 70
   128
 71
   -44
 72
   -59
 73
   -45
  0
VERTEX
  5
8D7
  8
ODPAD
 10
0.0
 20
0.0
 30
0.0
 70
   128
 71
   -41
 72
    58
 73
   -59
  0
VERTEX
  5
8D8
  8
ODPAD
 10
0.0
 20
0.0
 30
0.0
 70
   128
 71
    44
 72
   -41
 73
   -59
  0
VERTEX
  5
8D9
  8
ODPAD
 10
0.0
 20
0.0
 30
0.0
 70
   128
 71
   -40
 72
   -58
 73
   -41
  0
VERTEX
  5
8DA
  8
ODPAD
 10
0.0
 20
0.0
 30
0.0
 70
   128
 71
   -42
 72
    39
 73
   -40
  0
VERTEX
  5
8DB
  8
ODPAD
 10
0.0
 20
0.0
 30
0.0
 70
   128
 71
    41
 72
   -42
 73
   -40
  0
VERTEX
  5
8DC
  8
ODPAD
 10
0.0
 20
0.0
 30
0.0
 70
   128
 71
   -46
 72
   -29
 73
   -43
  0
VERTEX
  5
8DD
  8
ODPAD
 10
0.0
 20
0.0
 30
0.0
 70
   128
 71
   -26
 72
    -8
 73
   -23
  0
VERTEX
  5
8DE
  8
ODPAD
 10
0.0
 20
0.0
 30
0.0
 70
   128
 71
   -30
 72
    27
 73
   -28
  0
VERTEX
  5
8DF
  8
ODPAD
 10
0.0
 20
0.0
 30
0.0
 70
   128
 71
    29
 72
   -30
 73
   -28
  0
VERTEX
  5
8E0
  8
ODPAD
 10
0.0
 20
0.0
 30
0.0
 70
   128
 71
   -28
 72
   -43
 73
   -29
  0
VERTEX
  5
8E1
  8
ODPAD
 10
0.0
 20
0.0
 30
0.0
 70
   128
 71
   -25
 72
    42
 73
   -43
  0
VERTEX
  5
8E2
  8
ODPAD
 10
0.0
 20
0.0
 30
0.0
 70
   128
 71
    28
 72
   -25
 73
   -43
  0
VERTEX
  5
8E3
  8
ODPAD
 10
0.0
 20
0.0
 30
0.0
 70
   128
 71
   -24
 72
   -42
 73
   -25
  0
VERTEX
  5
8E4
  8
ODPAD
 10
0.0
 20
0.0
 30
0.0
 70
   128
 71
   -26
 72
    23
 73
   -24
  0
VERTEX
  5
8E5
  8
ODPAD
 10
0.0
 20
0.0
 30
0.0
 70
   128
 71
    25
 72
   -26
 73
   -24
  0
VERTEX
  5
8E6
  8
ODPAD
 10
0.0
 20
0.0
 30
0.0
 70
   128
 71
   -30
 72
   -13
 73
   -27
  0
VERTEX
  5
8E7
  8
ODPAD
 10
0.0
 20
0.0
 30
0.0
 70
   128
 71
   -14
 72
    11
 73
   -12
  0
VERTEX
  5
8E8
  8
ODPAD
 10
0.0
 20
0.0
 30
0.0
 70
   128
 71
    13
 72
   -14
 73
   -12
  0
VERTEX
  5
8E9
  8
ODPAD
 10
0.0
 20
0.0
 30
0.0
 70
   128
 71
   -12
 72
   -27
 73
   -13
  0
VERTEX
  5
8EA
  8
ODPAD
 10
0.0
 20
0.0
 30
0.0
 70
   128
 71
    -9
 72
    26
 73
   -27
  0
VERTEX
  5
8EB
  8
ODPAD
 10
0.0
 20
0.0
 30
0.0
 70
   128
 71
    12
 72
    -9
 73
   -27
  0
VERTEX
  5
8EC
  8
ODPAD
 10
0.0
 20
0.0
 30
0.0
 70
   128
 71
    -8
 72
   -26
 73
    -9
  0
VERTEX
  5
8ED
  8
ODPAD
 10
0.0
 20
0.0
 30
0.0
 70
   128
 71
   -10
 72
     7
 73
    -8
  0
VERTEX
  5
8EE
  8
ODPAD
 10
0.0
 20
0.0
 30
0.0
 70
   128
 71
     9
 72
   -10
 73
    -8
  0
VERTEX
  5
8EF
  8
ODPAD
 10
0.0
 20
0.0
 30
0.0
 70
   128
 71
    -4
 72
    -7
 73
   -10
  0
VERTEX
  5
8F0
  8
ODPAD
 10
0.0
 20
0.0
 30
0.0
 70
   128
 71
    10
 72
   -11
 73
    -4
  0
VERTEX
  5
8F1
  8
ODPAD
 10
0.0
 20
0.0
 30
0.0
 70
   128
 71
    -4
 72
   -11
 73
   -14
  0
VERTEX
  5
8F2
  8
ODPAD
 10
0.0
 20
0.0
 30
0.0
 70
   128
 71
    14
 72
   -15
 73
    -4
  0
VERTEX
  5
8F3
  8
ODPAD
 10
0.0
 20
0.0
 30
0.0
 70
   128
 71
    15
 72
   -16
 73
    -4
  0
VERTEX
  5
8F4
  8
ODPAD
 10
0.0
 20
0.0
 30
0.0
 70
   128
 71
   -16
 72
   -31
 73
    -4
  0
VERTEX
  5
8F5
  8
ODPAD
 10
0.0
 20
0.0
 30
0.0
 70
   128
 71
   -13
 72
    30
 73
   -31
  0
VERTEX
  5
8F6
  8
ODPAD
 10
0.0
 20
0.0
 30
0.0
 70
   128
 71
    16
 72
   -13
 73
   -31
  0
VERTEX
  5
8F7
  8
ODPAD
 10
0.0
 20
0.0
 30
0.0
 70
   128
 71
    31
 72
   -32
 73
    -4
  0
VERTEX
  5
8F8
  8
ODPAD
 10
0.0
 20
0.0
 30
0.0
 70
   128
 71
   -32
 72
   -47
 73
    -4
  0
VERTEX
  5
8F9
  8
ODPAD
 10
0.0
 20
0.0
 30
0.0
 70
   128
 71
   -29
 72
    46
 73
   -47
  0
VERTEX
  5
8FA
  8
ODPAD
 10
0.0
 20
0.0
 30
0.0
 70
   128
 71
    32
 72
   -29
 73
   -47
  0
VERTEX
  5
8FB
  8
ODPAD
 10
0.0
 20
0.0
 30
0.0
 70
   128
 71
   -48
 72
     3
 73
    -4
  0
VERTEX
  5
8FC
  8
ODPAD
 10
0.0
 20
0.0
 30
0.0
 70
   128
 71
    47
 72
   -48
 73
    -4
  0
VERTEX
  5
8FD
  8
ODPAD
 10
0.0
 20
0.0
 30
0.0
 70
   128
 71
   -48
 72
   -63
 73
    -3
  0
VERTEX
  5
8FE
  8
ODPAD
 10
0.0
 20
0.0
 30
0.0
 70
   128
 71
    63
 72
   -64
 73
    -3
  0
VERTEX
  5
8FF
  8
ODPAD
 10
0.0
 20
0.0
 30
0.0
 70
   128
 71
   -76
 72
    -3
 73
   -77
  0
VERTEX
  5
900
  8
ODPAD
 10
0.0
 20
0.0
 30
0.0
 70
   128
 71
   -78
 72
    75
 73
   -76
  0
VERTEX
  5
901
  8
ODPAD
 10
0.0
 20
0.0
 30
0.0
 70
   128
 71
    77
 72
   -78
 73
   -76
  0
VERTEX
  5
902
  8
ODPAD
 10
0.0
 20
0.0
 30
0.0
 70
   128
 71
   -78
 72
   -61
 73
   -75
  0
VERTEX
  5
903
  8
ODPAD
 10
0.0
 20
0.0
 30
0.0
 70
   128
 71
   -79
 72
    64
 73
   -61
  0
VERTEX
  5
904
  8
ODPAD
 10
0.0
 20
0.0
 30
0.0
 70
   128
 71
    78
 72
   -79
 73
   -61
  0
VERTEX
  5
905
  8
ODPAD
 10
0.0
 20
0.0
 30
0.0
 70
   128
 71
    -3
 72
   -64
 73
   -79
  0
VERTEX
  5
906
  8
ODPAD
 10
0.0
 20
0.0
 30
0.0
 70
   128
 71
    79
 72
   -80
 73
    -3
  0
VERTEX
  5
907
  8
ODPAD
 10
0.0
 20
0.0
 30
0.0
 70
   128
 71
    80
 72
   -77
 73
    -3
  0
VERTEX
  5
908
  8
ODPAD
 10
0.0
 20
0.0
 30
0.0
 70
   128
 71
    76
 72
   -73
 73
    -3
  0
VERTEX
  5
909
  8
ODPAD
 10
0.0
 20
0.0
 30
0.0
 70
   128
 71
   -68
 72
    69
 73
   -70
  0
VERTEX
  5
90A
  8
ODPAD
 10
0.0
 20
0.0
 30
0.0
 70
   128
 71
    67
 72
   -68
 73
   -70
  0
VERTEX
  5
90B
  8
ODPAD
 10
0.0
 20
0.0
 30
0.0
 70
   128
 71
   -70
 72
   -53
 73
   -67
  0
VERTEX
  5
90C
  8
ODPAD
 10
0.0
 20
0.0
 30
0.0
 70
   128
 71
   -71
 72
    56
 73
   -53
  0
VERTEX
  5
90D
  8
ODPAD
 10
0.0
 20
0.0
 30
0.0
 70
   128
 71
    70
 72
   -71
 73
   -53
  0
VERTEX
  5
90E
  8
ODPAD
 10
0.0
 20
0.0
 30
0.0
 70
   128
 71
   -71
 72
   -74
 73
   -56
  0
VERTEX
  5
90F
  8
ODPAD
 10
0.0
 20
0.0
 30
0.0
 70
   128
 71
   -72
 72
    -3
 73
   -73
  0
VERTEX
  5
910
  8
ODPAD
 10
0.0
 20
0.0
 30
0.0
 70
   128
 71
   -74
 72
    71
 73
   -72
  0
VERTEX
  5
911
  8
ODPAD
 10
0.0
 20
0.0
 30
0.0
 70
   128
 71
    73
 72
   -74
 73
   -72
  0
VERTEX
  5
912
  8
ODPAD
 10
0.0
 20
0.0
 30
0.0
 70
   128
 71
   -69
 72
     2
 73
    -3
  0
VERTEX
  5
913
  8
ODPAD
 10
0.0
 20
0.0
 30
0.0
 70
   128
 71
    72
 72
   -69
 73
    -3
  0
VERTEX
  5
914
  8
ODPAD
 10
0.0
 20
0.0
 30
0.0
 70
   128
 71
    -2
 72
   -69
 73
   -68
  0
VERTEX
  5
915
  8
ODPAD
 10
0.0
 20
0.0
 30
0.0
 70
   128
 71
    68
 72
   -65
 73
    -2
  0
VERTEX
  5
916
  8
ODPAD
 10
0.0
 20
0.0
 30
0.0
 70
   128
 71
   -66
 72
    95
 73
   -96
  0
VERTEX
  5
917
  8
ODPAD
 10
0.0
 20
0.0
 30
0.0
 70
   128
 71
    65
 72
   -66
 73
   -96
  0
VERTEX
  5
918
  8
ODPAD
 10
0.0
 20
0.0
 30
0.0
 70
   128
 71
    -2
 72
   -65
 73
   -96
  0
VERTEX
  5
919
  8
ODPAD
 10
0.0
 20
0.0
 30
0.0
 70
   128
 71
    96
 72
   -93
 73
    -2
  0
VERTEX
  5
91A
  8
ODPAD
 10
0.0
 20
0.0
 30
0.0
 70
   128
 71
   -66
 72
   -49
 73
   -95
  0
VERTEX
  5
91B
  8
ODPAD
 10
0.0
 20
0.0
 30
0.0
 70
   128
 71
   -67
 72
    52
 73
   -49
  0
VERTEX
  5
91C
  8
ODPAD
 10
0.0
 20
0.0
 30
0.0
 70
   128
 71
    66
 72
   -67
 73
   -49
  0
VERTEX
  5
91D
  8
ODPAD
 10
0.0
 20
0.0
 30
0.0
 70
   128
 71
    -2
 72
    93
 73
   -94
  0
VERTEX
  5
91E
  8
ODPAD
 10
0.0
 20
0.0
 30
0.0
 70
   128
 71
   -50
 72
    91
 73
   -92
  0
VERTEX
  5
91F
  8
ODPAD
 10
0.0
 20
0.0
 30
0.0
 70
   128
 71
    49
 72
   -50
 73
   -92
  0
VERTEX
  5
920
  8
ODPAD
 10
0.0
 20
0.0
 30
0.0
 70
   128
 71
   -92
 72
   -95
 73
   -49
  0
VERTEX
  5
921
  8
ODPAD
 10
0.0
 20
0.0
 30
0.0
 70
   128
 71
   -89
 72
    94
 73
   -95
  0
VERTEX
  5
922
  8
ODPAD
 10
0.0
 20
0.0
 30
0.0
 70
   128
 71
    92
 72
   -89
 73
   -95
  0
VERTEX
  5
923
  8
ODPAD
 10
0.0
 20
0.0
 30
0.0
 70
   128
 71
    -2
 72
   -94
 73
   -89
  0
VERTEX
  5
924
  8
ODPAD
 10
0.0
 20
0.0
 30
0.0
 70
   128
 71
   -89
 72
   -85
 73
    -2
  0
VERTEX
  5
925
  8
ODPAD
 10
0.0
 20
0.0
 30
0.0
 70
   128
 71
   -50
 72
   -33
 73
   -91
  0
VERTEX
  5
926
  8
ODPAD
 10
0.0
 20
0.0
 30
0.0
 70
   128
 71
   -51
 72
   -37
 73
   -36
  0
VERTEX
  5
927
  8
ODPAD
 10
0.0
 20
0.0
 30
0.0
 70
   128
 71
   -33
 72
    50
 73
   -51
  0
VERTEX
  5
928
  8
ODPAD
 10
0.0
 20
0.0
 30
0.0
 70
   128
 71
    36
 72
   -33
 73
   -51
  0
VERTEX
  5
929
  8
ODPAD
 10
0.0
 20
0.0
 30
0.0
 70
   128
 71
   -85
 72
    89
 73
   -90
  0
VERTEX
  5
92A
  8
ODPAD
 10
0.0
 20
0.0
 30
0.0
 70
   128
 71
   -34
 72
    87
 73
   -88
  0
VERTEX
  5
92B
  8
ODPAD
 10
0.0
 20
0.0
 30
0.0
 70
   128
 71
    33
 72
   -34
 73
   -88
  0
VERTEX
  5
92C
  8
ODPAD
 10
0.0
 20
0.0
 30
0.0
 70
   128
 71
   -88
 72
   -91
 73
   -33
  0
VERTEX
  5
92D
  8
ODPAD
 10
0.0
 20
0.0
 30
0.0
 70
   128
 71
   -85
 72
    90
 73
   -91
  0
VERTEX
  5
92E
  8
ODPAD
 10
0.0
 20
0.0
 30
0.0
 70
   128
 71
    88
 72
   -85
 73
   -91
  0
VERTEX
  5
92F
  8
ODPAD
 10
0.0
 20
0.0
 30
0.0
 70
   128
 71
   -34
 72
   -17
 73
   -87
  0
VERTEX
  5
930
  8
ODPAD
 10
0.0
 20
0.0
 30
0.0
 70
   128
 71
   -35
 72
    20
 73
   -17
  0
VERTEX
  5
931
  8
ODPAD
 10
0.0
 20
0.0
 30
0.0
 70
   128
 71
    34
 72
   -35
 73
   -17
  0
VERTEX
  5
932
  8
ODPAD
 10
0.0
 20
0.0
 30
0.0
 70
   128
 71
    -2
 72
    85
 73
   -86
  0
VERTEX
  5
933
  8
ODPAD
 10
0.0
 20
0.0
 30
0.0
 70
   128
 71
     1
 72
    -2
 73
   -86
  0
VERTEX
  5
934
  8
ODPAD
 10
0.0
 20
0.0
 30
0.0
 70
   128
 71
   -18
 72
    83
 73
   -84
  0
VERTEX
  5
935
  8
ODPAD
 10
0.0
 20
0.0
 30
0.0
 70
   128
 71
    17
 72
   -18
 73
   -84
  0
VERTEX
  5
936
  8
ODPAD
 10
0.0
 20
0.0
 30
0.0
 70
   128
 71
   -84
 72
   -87
 73
   -17
  0
VERTEX
  5
937
  8
ODPAD
 10
0.0
 20
0.0
 30
0.0
 70
   128
 71
   -81
 72
    86
 73
   -87
  0
VERTEX
  5
938
  8
ODPAD
 10
0.0
 20
0.0
 30
0.0
 70
   128
 71
    84
 72
   -81
 73
   -87
  0
VERTEX
  5
939
  8
ODPAD
 10
0.0
 20
0.0
 30
0.0
 70
   128
 71
   -81
 72
    -1
 73
   -86
  0
VERTEX
  5
93A
  8
ODPAD
 10
0.0
 20
0.0
 30
0.0
 70
   128
 71
   -18
 72
  -101
 73
   -83
  0
VERTEX
  5
93B
  8
ODPAD
 10
0.0
 20
0.0
 30
0.0
 70
   128
 71
  -102
 72
    -1
 73
   -99
  0
VERTEX
  5
93C
  8
ODPAD
 10
0.0
 20
0.0
 30
0.0
 70
   128
 71
  -100
 72
   101
 73
  -102
  0
VERTEX
  5
93D
  8
ODPAD
 10
0.0
 20
0.0
 30
0.0
 70
   128
 71
    99
 72
  -100
 73
  -102
  0
VERTEX
  5
93E
  8
ODPAD
 10
0.0
 20
0.0
 30
0.0
 70
   128
 71
  -100
 72
   -83
 73
  -101
  0
VERTEX
  5
93F
  8
ODPAD
 10
0.0
 20
0.0
 30
0.0
 70
   128
 71
   102
 72
  -103
 73
    -1
  0
VERTEX
  5
940
  8
ODPAD
 10
0.0
 20
0.0
 30
0.0
 70
   128
 71
  -103
 72
    -6
 73
    -1
  0
VERTEX
  5
941
  8
ODPAD
 10
0.0
 20
0.0
 30
0.0
 70
   128
 71
  -104
 72
     5
 73
    -6
  0
VERTEX
  5
942
  8
ODPAD
 10
0.0
 20
0.0
 30
0.0
 70
   128
 71
   103
 72
  -104
 73
    -6
  0
VERTEX
  5
943
  8
ODPAD
 10
0.0
 20
0.0
 30
0.0
 70
   128
 71
  -104
 72
   -19
 73
    -5
  0
VERTEX
  5
944
  8
ODPAD
 10
0.0
 20
0.0
 30
0.0
 70
   128
 71
  -101
 72
    18
 73
   -19
  0
VERTEX
  5
945
  8
ODPAD
 10
0.0
 20
0.0
 30
0.0
 70
   128
 71
   104
 72
  -101
 73
   -19
  0
VERTEX
  5
946
  8
ODPAD
 10
0.0
 20
0.0
 30
0.0
 70
   128
 71
    -7
 72
     4
 73
    -1
  0
VERTEX
  5
947
  8
ODPAD
 10
0.0
 20
0.0
 30
0.0
 70
   128
 71
     6
 72
    -7
 73
    -1
  0
VERTEX
  5
948
  8
ODPAD
 10
0.0
 20
0.0
 30
0.0
 70
   128
 71
   -97
 72
    82
 73
   -83
  0
VERTEX
  5
949
  8
ODPAD
 10
0.0
 20
0.0
 30
0.0
 70
   128
 71
   100
 72
   -97
 73
   -83
  0
SEQEND
  5
D23
  8
ODPAD
  0
POLYLINE
  5
94A
  8
ODPAD
 66
     1
 10
0.0
 20
0.0
 30
0.0
 70
    64
 71
   104
 72
   152
  0
VERTEX
  5
94B
  8
ODPAD
 10
-61.99999999999989
 20
-20.99999999999999
 30
-287.9999999999997
 70
   192
  0
VERTEX
  5
94C
  8
ODPAD
 10
62.00000000000011
 20
-20.99999999999999
 30
-287.9999999999997
 70
   192
  0
VERTEX
  5
94D
  8
ODPAD
 10
62.00000000000011
 20
-20.99999999999999
 30
-411.9999999999997
 70
   192
  0
VERTEX
  5
94E
  8
ODPAD
 10
-61.99999999999989
 20
-20.99999999999999
 30
-411.9999999999997
 70
   192
  0
VERTEX
  5
94F
  8
ODPAD
 10
4.499999999999768
 20
-20.99999999999999
 30
-387.4999999999997
 70
   192
  0
VERTEX
  5
950
  8
ODPAD
 10
4.499999999999768
 20
-20.99999999999999
 30
-378.4999999999997
 70
   192
  0
VERTEX
  5
951
  8
ODPAD
 10
-4.500000000000226
 20
-20.99999999999999
 30
-378.4999999999997
 70
   192
  0
VERTEX
  5
952
  8
ODPAD
 10
-4.500000000000225
 20
-20.99999999999999
 30
-387.4999999999997
 70
   192
  0
VERTEX
  5
953
  8
ODPAD
 10
20.99999999999977
 20
-20.99999999999999
 30
-387.4999999999997
 70
   192
  0
VERTEX
  5
954
  8
ODPAD
 10
20.99999999999977
 20
-20.99999999999999
 30
-378.4999999999997
 70
   192
  0
VERTEX
  5
955
  8
ODPAD
 10
11.99999999999976
 20
-20.99999999999999
 30
-378.4999999999997
 70
   192
  0
VERTEX
  5
956
  8
ODPAD
 10
11.99999999999976
 20
-20.99999999999999
 30
-387.4999999999997
 70
   192
  0
VERTEX
  5
957
  8
ODPAD
 10
37.49999999999976
 20
-20.99999999999999
 30
-387.4999999999997
 70
   192
  0
VERTEX
  5
958
  8
ODPAD
 10
37.49999999999976
 20
-20.99999999999999
 30
-378.4999999999997
 70
   192
  0
VERTEX
  5
959
  8
ODPAD
 10
28.49999999999978
 20
-20.99999999999999
 30
-378.4999999999997
 70
   192
  0
VERTEX
  5
95A
  8
ODPAD
 10
28.49999999999978
 20
-20.99999999999999
 30
-387.4999999999997
 70
   192
  0
VERTEX
  5
95B
  8
ODPAD
 10
-12.00000000000007
 20
-20.99999999999999
 30
-370.9999999999997
 70
   192
  0
VERTEX
  5
95C
  8
ODPAD
 10
-12.00000000000007
 20
-20.99999999999999
 30
-361.9999999999997
 70
   192
  0
VERTEX
  5
95D
  8
ODPAD
 10
-21.00000000000006
 20
-20.99999999999999
 30
-361.9999999999997
 70
   192
  0
VERTEX
  5
95E
  8
ODPAD
 10
-21.00000000000006
 20
-20.99999999999999
 30
-370.9999999999997
 70
   192
  0
VERTEX
  5
95F
  8
ODPAD
 10
4.499999999999934
 20
-20.99999999999999
 30
-370.9999999999997
 70
   192
  0
VERTEX
  5
960
  8
ODPAD
 10
4.499999999999934
 20
-20.99999999999999
 30
-361.9999999999997
 70
   192
  0
VERTEX
  5
961
  8
ODPAD
 10
-4.50000000000006
 20
-20.99999999999999
 30
-361.9999999999997
 70
   192
  0
VERTEX
  5
962
  8
ODPAD
 10
-4.500000000000059
 20
-20.99999999999999
 30
-370.9999999999997
 70
   192
  0
VERTEX
  5
963
  8
ODPAD
 10
20.99999999999994
 20
-20.99999999999999
 30
-370.9999999999997
 70
   192
  0
VERTEX
  5
964
  8
ODPAD
 10
20.99999999999994
 20
-20.99999999999999
 30
-361.9999999999997
 70
   192
  0
VERTEX
  5
965
  8
ODPAD
 10
11.99999999999996
 20
-20.99999999999999
 30
-361.9999999999997
 70
   192
  0
VERTEX
  5
966
  8
ODPAD
 10
11.99999999999996
 20
-20.99999999999999
 30
-370.9999999999997
 70
   192
  0
VERTEX
  5
967
  8
ODPAD
 10
37.49999999999992
 20
-20.99999999999999
 30
-370.9999999999997
 70
   192
  0
VERTEX
  5
968
  8
ODPAD
 10
37.49999999999992
 20
-20.99999999999999
 30
-361.9999999999997
 70
   192
  0
VERTEX
  5
969
  8
ODPAD
 10
28.49999999999994
 20
-20.99999999999999
 30
-361.9999999999997
 70
   192
  0
VERTEX
  5
96A
  8
ODPAD
 10
28.49999999999994
 20
-20.99999999999999
 30
-370.9999999999997
 70
   192
  0
VERTEX
  5
96B
  8
ODPAD
 10
-11.99999999999989
 20
-20.99999999999999
 30
-354.4999999999997
 70
   192
  0
VERTEX
  5
96C
  8
ODPAD
 10
-11.99999999999989
 20
-20.99999999999999
 30
-345.4999999999997
 70
   192
  0
VERTEX
  5
96D
  8
ODPAD
 10
-20.99999999999988
 20
-20.99999999999999
 30
-345.4999999999997
 70
   192
  0
VERTEX
  5
96E
  8
ODPAD
 10
-20.99999999999988
 20
-20.99999999999999
 30
-354.4999999999997
 70
   192
  0
VERTEX
  5
96F
  8
ODPAD
 10
4.500000000000116
 20
-20.99999999999999
 30
-354.4999999999997
 70
   192
  0
VERTEX
  5
970
  8
ODPAD
 10
4.500000000000115
 20
-20.99999999999999
 30
-345.4999999999997
 70
   192
  0
VERTEX
  5
971
  8
ODPAD
 10
-4.499999999999893
 20
-20.99999999999999
 30
-345.4999999999997
 70
   192
  0
VERTEX
  5
972
  8
ODPAD
 10
-4.499999999999893
 20
-20.99999999999999
 30
-354.4999999999997
 70
   192
  0
VERTEX
  5
973
  8
ODPAD
 10
21.0000000000001
 20
-20.99999999999999
 30
-354.4999999999997
 70
   192
  0
VERTEX
  5
974
  8
ODPAD
 10
21.0000000000001
 20
-20.99999999999999
 30
-345.4999999999997
 70
   192
  0
VERTEX
  5
975
  8
ODPAD
 10
12.00000000000012
 20
-20.99999999999999
 30
-345.4999999999997
 70
   192
  0
VERTEX
  5
976
  8
ODPAD
 10
12.00000000000012
 20
-20.99999999999999
 30
-354.4999999999997
 70
   192
  0
VERTEX
  5
977
  8
ODPAD
 10
37.50000000000011
 20
-20.99999999999999
 30
-354.4999999999997
 70
   192
  0
VERTEX
  5
978
  8
ODPAD
 10
37.50000000000011
 20
-20.99999999999999
 30
-345.4999999999997
 70
   192
  0
VERTEX
  5
979
  8
ODPAD
 10
28.50000000000011
 20
-20.99999999999999
 30
-345.4999999999997
 70
   192
  0
VERTEX
  5
97A
  8
ODPAD
 10
28.50000000000011
 20
-20.99999999999999
 30
-354.4999999999997
 70
   192
  0
VERTEX
  5
97B
  8
ODPAD
 10
-11.99999999999972
 20
-20.99999999999999
 30
-337.9999999999997
 70
   192
  0
VERTEX
  5
97C
  8
ODPAD
 10
-11.99999999999972
 20
-20.99999999999999
 30
-328.9999999999997
 70
   192
  0
VERTEX
  5
97D
  8
ODPAD
 10
-20.99999999999971
 20
-20.99999999999999
 30
-328.9999999999997
 70
   192
  0
VERTEX
  5
97E
  8
ODPAD
 10
-20.99999999999971
 20
-20.99999999999999
 30
-337.9999999999997
 70
   192
  0
VERTEX
  5
97F
  8
ODPAD
 10
4.500000000000282
 20
-20.99999999999999
 30
-337.9999999999997
 70
   192
  0
VERTEX
  5
980
  8
ODPAD
 10
4.500000000000282
 20
-20.99999999999999
 30
-328.9999999999997
 70
   192
  0
VERTEX
  5
981
  8
ODPAD
 10
-4.499999999999712
 20
-20.99999999999999
 30
-328.9999999999997
 70
   192
  0
VERTEX
  5
982
  8
ODPAD
 10
-4.499999999999711
 20
-20.99999999999999
 30
-337.9999999999997
 70
   192
  0
VERTEX
  5
983
  8
ODPAD
 10
21.00000000000029
 20
-20.99999999999999
 30
-337.9999999999997
 70
   192
  0
VERTEX
  5
984
  8
ODPAD
 10
21.00000000000029
 20
-20.99999999999999
 30
-328.9999999999997
 70
   192
  0
VERTEX
  5
985
  8
ODPAD
 10
12.00000000000029
 20
-20.99999999999999
 30
-328.9999999999997
 70
   192
  0
VERTEX
  5
986
  8
ODPAD
 10
12.00000000000029
 20
-20.99999999999999
 30
-337.9999999999997
 70
   192
  0
VERTEX
  5
987
  8
ODPAD
 10
37.50000000000028
 20
-20.99999999999999
 30
-337.9999999999997
 70
   192
  0
VERTEX
  5
988
  8
ODPAD
 10
37.50000000000028
 20
-20.99999999999999
 30
-328.9999999999997
 70
   192
  0
VERTEX
  5
989
  8
ODPAD
 10
28.50000000000027
 20
-20.99999999999999
 30
-328.9999999999997
 70
   192
  0
VERTEX
  5
98A
  8
ODPAD
 10
28.50000000000027
 20
-20.99999999999999
 30
-337.9999999999997
 70
   192
  0
VERTEX
  5
98B
  8
ODPAD
 10
-11.99999999999954
 20
-20.99999999999999
 30
-321.4999999999997
 70
   192
  0
VERTEX
  5
98C
  8
ODPAD
 10
-11.99999999999954
 20
-20.99999999999999
 30
-312.4999999999997
 70
   192
  0
VERTEX
  5
98D
  8
ODPAD
 10
-20.99999999999955
 20
-20.99999999999999
 30
-312.4999999999997
 70
   192
  0
VERTEX
  5
98E
  8
ODPAD
 10
-20.99999999999955
 20
-20.99999999999999
 30
-321.4999999999997
 70
   192
  0
VERTEX
  5
98F
  8
ODPAD
 10
4.500000000000462
 20
-20.99999999999999
 30
-321.4999999999997
 70
   192
  0
VERTEX
  5
990
  8
ODPAD
 10
4.500000000000462
 20
-20.99999999999999
 30
-312.4999999999997
 70
   192
  0
VERTEX
  5
991
  8
ODPAD
 10
-4.499999999999532
 20
-20.99999999999999
 30
-312.4999999999997
 70
   192
  0
VERTEX
  5
992
  8
ODPAD
 10
-4.499999999999531
 20
-20.99999999999999
 30
-321.4999999999997
 70
   192
  0
VERTEX
  5
993
  8
ODPAD
 10
21.00000000000046
 20
-20.99999999999999
 30
-321.4999999999997
 70
   192
  0
VERTEX
  5
994
  8
ODPAD
 10
21.00000000000046
 20
-20.99999999999999
 30
-312.4999999999997
 70
   192
  0
VERTEX
  5
995
  8
ODPAD
 10
12.00000000000045
 20
-20.99999999999999
 30
-312.4999999999997
 70
   192
  0
VERTEX
  5
996
  8
ODPAD
 10
12.00000000000045
 20
-20.99999999999999
 30
-321.4999999999997
 70
   192
  0
VERTEX
  5
997
  8
ODPAD
 10
37.50000000000048
 20
-20.99999999999999
 30
-321.4999999999997
 70
   192
  0
VERTEX
  5
998
  8
ODPAD
 10
37.50000000000048
 20
-20.99999999999999
 30
-312.4999999999997
 70
   192
  0
VERTEX
  5
999
  8
ODPAD
 10
28.50000000000047
 20
-20.99999999999999
 30
-312.4999999999997
 70
   192
  0
VERTEX
  5
99A
  8
ODPAD
 10
28.50000000000047
 20
-20.99999999999999
 30
-321.4999999999997
 70
   192
  0
VERTEX
  5
99B
  8
ODPAD
 10
-28.50000000000007
 20
-20.99999999999999
 30
-370.9999999999997
 70
   192
  0
VERTEX
  5
99C
  8
ODPAD
 10
-28.50000000000007
 20
-20.99999999999999
 30
-361.9999999999997
 70
   192
  0
VERTEX
  5
99D
  8
ODPAD
 10
-37.50000000000006
 20
-20.99999999999999
 30
-361.9999999999997
 70
   192
  0
VERTEX
  5
99E
  8
ODPAD
 10
-37.50000000000006
 20
-20.99999999999999
 30
-370.9999999999997
 70
   192
  0
VERTEX
  5
99F
  8
ODPAD
 10
-28.49999999999989
 20
-20.99999999999999
 30
-354.4999999999997
 70
   192
  0
VERTEX
  5
9A0
  8
ODPAD
 10
-28.49999999999989
 20
-20.99999999999999
 30
-345.4999999999997
 70
   192
  0
VERTEX
  5
9A1
  8
ODPAD
 10
-37.49999999999989
 20
-20.99999999999999
 30
-345.4999999999997
 70
   192
  0
VERTEX
  5
9A2
  8
ODPAD
 10
-37.49999999999989
 20
-20.99999999999999
 30
-354.4999999999997
 70
   192
  0
VERTEX
  5
9A3
  8
ODPAD
 10
-28.49999999999972
 20
-20.99999999999999
 30
-337.9999999999997
 70
   192
  0
VERTEX
  5
9A4
  8
ODPAD
 10
-28.49999999999972
 20
-20.99999999999999
 30
-328.9999999999997
 70
   192
  0
VERTEX
  5
9A5
  8
ODPAD
 10
-37.49999999999972
 20
-20.99999999999999
 30
-328.9999999999997
 70
   192
  0
VERTEX
  5
9A6
  8
ODPAD
 10
-37.49999999999972
 20
-20.99999999999999
 30
-337.9999999999997
 70
   192
  0
VERTEX
  5
9A7
  8
ODPAD
 10
-28.49999999999955
 20
-20.99999999999999
 30
-321.4999999999997
 70
   192
  0
VERTEX
  5
9A8
  8
ODPAD
 10
-28.49999999999955
 20
-20.99999999999999
 30
-312.4999999999997
 70
   192
  0
VERTEX
  5
9A9
  8
ODPAD
 10
-37.49999999999953
 20
-20.99999999999999
 30
-312.4999999999997
 70
   192
  0
VERTEX
  5
9AA
  8
ODPAD
 10
-37.49999999999953
 20
-20.99999999999999
 30
-321.4999999999997
 70
   192
  0
VERTEX
  5
9AB
  8
ODPAD
 10
-28.50000000000023
 20
-20.99999999999999
 30
-387.4999999999997
 70
   192
  0
VERTEX
  5
9AC
  8
ODPAD
 10
-28.50000000000023
 20
-20.99999999999999
 30
-378.4999999999997
 70
   192
  0
VERTEX
  5
9AD
  8
ODPAD
 10
-37.50000000000023
 20
-20.99999999999999
 30
-378.4999999999997
 70
   192
  0
VERTEX
  5
9AE
  8
ODPAD
 10
-37.50000000000023
 20
-20.99999999999999
 30
-387.4999999999997
 70
   192
  0
VERTEX
  5
9AF
  8
ODPAD
 10
-12.00000000000023
 20
-20.99999999999999
 30
-387.4999999999997
 70
   192
  0
VERTEX
  5
9B0
  8
ODPAD
 10
-12.00000000000023
 20
-20.99999999999999
 30
-378.4999999999997
 70
   192
  0
VERTEX
  5
9B1
  8
ODPAD
 10
-21.00000000000024
 20
-20.99999999999999
 30
-378.4999999999997
 70
   192
  0
VERTEX
  5
9B2
  8
ODPAD
 10
-21.00000000000024
 20
-20.99999999999999
 30
-387.4999999999997
 70
   192
  0
VERTEX
  5
9B3
  8
ODPAD
 10
0.0
 20
0.0
 30
0.0
 70
   128
 71
    12
 72
   -11
 73
    -6
  0
VERTEX
  5
9B4
  8
ODPAD
 10
0.0
 20
0.0
 30
0.0
 70
   128
 71
   -12
 72
     6
 73
    -5
  0
VERTEX
  5
9B5
  8
ODPAD
 10
0.0
 20
0.0
 30
0.0
 70
   128
 71
   -12
 72
    -5
 73
    -3
  0
VERTEX
  5
9B6
  8
ODPAD
 10
0.0
 20
0.0
 30
0.0
 70
   128
 71
    -3
 72
     9
 73
   -12
  0
VERTEX
  5
9B7
  8
ODPAD
 10
0.0
 20
0.0
 30
0.0
 70
   128
 71
   -11
 72
   -21
 73
    -6
  0
VERTEX
  5
9B8
  8
ODPAD
 10
0.0
 20
0.0
 30
0.0
 70
   128
 71
    24
 72
   -23
 73
   -18
  0
VERTEX
  5
9B9
  8
ODPAD
 10
0.0
 20
0.0
 30
0.0
 70
   128
 71
   -24
 72
    18
 73
   -17
  0
VERTEX
  5
9BA
  8
ODPAD
 10
0.0
 20
0.0
 30
0.0
 70
   128
 71
   -17
 72
    -7
 73
   -24
  0
VERTEX
  5
9BB
  8
ODPAD
 10
0.0
 20
0.0
 30
0.0
 70
   128
 71
     7
 72
    -6
 73
   -21
  0
VERTEX
  5
9BC
  8
ODPAD
 10
0.0
 20
0.0
 30
0.0
 70
   128
 71
    -7
 72
    21
 73
   -24
  0
VERTEX
  5
9BD
  8
ODPAD
 10
0.0
 20
0.0
 30
0.0
 70
   128
 71
   -23
 72
   -33
 73
   -18
  0
VERTEX
  5
9BE
  8
ODPAD
 10
0.0
 20
0.0
 30
0.0
 70
   128
 71
    36
 72
   -35
 73
   -86
  0
VERTEX
  5
9BF
  8
ODPAD
 10
0.0
 20
0.0
 30
0.0
 70
   128
 71
   -36
 72
    86
 73
   -85
  0
VERTEX
  5
9C0
  8
ODPAD
 10
0.0
 20
0.0
 30
0.0
 70
   128
 71
   -85
 72
   -19
 73
   -36
  0
VERTEX
  5
9C1
  8
ODPAD
 10
0.0
 20
0.0
 30
0.0
 70
   128
 71
    19
 72
   -18
 73
   -33
  0
VERTEX
  5
9C2
  8
ODPAD
 10
0.0
 20
0.0
 30
0.0
 70
   128
 71
   -19
 72
    33
 73
   -36
  0
VERTEX
  5
9C3
  8
ODPAD
 10
0.0
 20
0.0
 30
0.0
 70
   128
 71
   -35
 72
   -89
 73
   -86
  0
VERTEX
  5
9C4
  8
ODPAD
 10
0.0
 20
0.0
 30
0.0
 70
   128
 71
    16
 72
   -15
 73
   -10
  0
VERTEX
  5
9C5
  8
ODPAD
 10
0.0
 20
0.0
 30
0.0
 70
   128
 71
   -16
 72
    10
 73
    -9
  0
VERTEX
  5
9C6
  8
ODPAD
 10
0.0
 20
0.0
 30
0.0
 70
   128
 71
   -16
 72
    -9
 73
    -3
  0
VERTEX
  5
9C7
  8
ODPAD
 10
0.0
 20
0.0
 30
0.0
 70
   128
 71
    -3
 72
    13
 73
   -16
  0
VERTEX
  5
9C8
  8
ODPAD
 10
0.0
 20
0.0
 30
0.0
 70
   128
 71
   -15
 72
   -25
 73
   -10
  0
VERTEX
  5
9C9
  8
ODPAD
 10
0.0
 20
0.0
 30
0.0
 70
   128
 71
    28
 72
   -27
 73
   -22
  0
VERTEX
  5
9CA
  8
ODPAD
 10
0.0
 20
0.0
 30
0.0
 70
   128
 71
   -28
 72
    22
 73
   -21
  0
VERTEX
  5
9CB
  8
ODPAD
 10
0.0
 20
0.0
 30
0.0
 70
   128
 71
   -21
 72
   -11
 73
   -28
  0
VERTEX
  5
9CC
  8
ODPAD
 10
0.0
 20
0.0
 30
0.0
 70
   128
 71
    11
 72
   -10
 73
   -25
  0
VERTEX
  5
9CD
  8
ODPAD
 10
0.0
 20
0.0
 30
0.0
 70
   128
 71
   -11
 72
    25
 73
   -28
  0
VERTEX
  5
9CE
  8
ODPAD
 10
0.0
 20
0.0
 30
0.0
 70
   128
 71
   -27
 72
   -37
 73
   -22
  0
VERTEX
  5
9CF
  8
ODPAD
 10
0.0
 20
0.0
 30
0.0
 70
   128
 71
    40
 72
   -39
 73
   -34
  0
VERTEX
  5
9D0
  8
ODPAD
 10
0.0
 20
0.0
 30
0.0
 70
   128
 71
   -40
 72
    34
 73
   -33
  0
VERTEX
  5
9D1
  8
ODPAD
 10
0.0
 20
0.0
 30
0.0
 70
   128
 71
   -40
 72
   -33
 73
   -23
  0
VERTEX
  5
9D2
  8
ODPAD
 10
0.0
 20
0.0
 30
0.0
 70
   128
 71
    23
 72
   -22
 73
   -37
  0
VERTEX
  5
9D3
  8
ODPAD
 10
0.0
 20
0.0
 30
0.0
 70
   128
 71
   -23
 72
    37
 73
   -40
  0
VERTEX
  5
9D4
  8
ODPAD
 10
0.0
 20
0.0
 30
0.0
 70
   128
 71
    52
 72
   -51
 73
   -90
  0
VERTEX
  5
9D5
  8
ODPAD
 10
0.0
 20
0.0
 30
0.0
 70
   128
 71
   -52
 72
    90
 73
   -89
  0
VERTEX
  5
9D6
  8
ODPAD
 10
0.0
 20
0.0
 30
0.0
 70
   128
 71
   -89
 72
   -35
 73
   -52
  0
VERTEX
  5
9D7
  8
ODPAD
 10
0.0
 20
0.0
 30
0.0
 70
   128
 71
   -34
 72
   -39
 73
   -49
  0
VERTEX
  5
9D8
  8
ODPAD
 10
0.0
 20
0.0
 30
0.0
 70
   128
 71
    49
 72
   -52
 73
   -35
  0
VERTEX
  5
9D9
  8
ODPAD
 10
0.0
 20
0.0
 30
0.0
 70
   128
 71
   -49
 72
    35
 73
   -34
  0
VERTEX
  5
9DA
  8
ODPAD
 10
0.0
 20
0.0
 30
0.0
 70
   128
 71
   -51
 72
   -93
 73
   -90
  0
VERTEX
  5
9DB
  8
ODPAD
 10
0.0
 20
0.0
 30
0.0
 70
   128
 71
    14
 72
   -13
 73
    -3
  0
VERTEX
  5
9DC
  8
ODPAD
 10
0.0
 20
0.0
 30
0.0
 70
   128
 71
    -3
 72
   -29
 73
   -14
  0
VERTEX
  5
9DD
  8
ODPAD
 10
0.0
 20
0.0
 30
0.0
 70
   128
 71
    32
 72
   -31
 73
   -26
  0
VERTEX
  5
9DE
  8
ODPAD
 10
0.0
 20
0.0
 30
0.0
 70
   128
 71
   -32
 72
    26
 73
   -25
  0
VERTEX
  5
9DF
  8
ODPAD
 10
0.0
 20
0.0
 30
0.0
 70
   128
 71
   -25
 72
   -15
 73
   -32
  0
VERTEX
  5
9E0
  8
ODPAD
 10
0.0
 20
0.0
 30
0.0
 70
   128
 71
    15
 72
   -14
 73
   -29
  0
VERTEX
  5
9E1
  8
ODPAD
 10
0.0
 20
0.0
 30
0.0
 70
   128
 71
   -15
 72
    29
 73
   -32
  0
VERTEX
  5
9E2
  8
ODPAD
 10
0.0
 20
0.0
 30
0.0
 70
   128
 71
   -31
 72
   -41
 73
   -26
  0
VERTEX
  5
9E3
  8
ODPAD
 10
0.0
 20
0.0
 30
0.0
 70
   128
 71
    44
 72
   -43
 73
   -38
  0
VERTEX
  5
9E4
  8
ODPAD
 10
0.0
 20
0.0
 30
0.0
 70
   128
 71
   -44
 72
    38
 73
   -37
  0
VERTEX
  5
9E5
  8
ODPAD
 10
0.0
 20
0.0
 30
0.0
 70
   128
 71
   -37
 72
   -27
 73
   -44
  0
VERTEX
  5
9E6
  8
ODPAD
 10
0.0
 20
0.0
 30
0.0
 70
   128
 71
    27
 72
   -26
 73
   -41
  0
VERTEX
  5
9E7
  8
ODPAD
 10
0.0
 20
0.0
 30
0.0
 70
   128
 71
   -27
 72
    41
 73
   -44
  0
VERTEX
  5
9E8
  8
ODPAD
 10
0.0
 20
0.0
 30
0.0
 70
   128
 71
   -43
 72
   -53
 73
   -38
  0
VERTEX
  5
9E9
  8
ODPAD
 10
0.0
 20
0.0
 30
0.0
 70
   128
 71
    56
 72
   -55
 73
   -50
  0
VERTEX
  5
9EA
  8
ODPAD
 10
0.0
 20
0.0
 30
0.0
 70
   128
 71
   -56
 72
    50
 73
   -49
  0
VERTEX
  5
9EB
  8
ODPAD
 10
0.0
 20
0.0
 30
0.0
 70
   128
 71
   -49
 72
   -39
 73
   -56
  0
VERTEX
  5
9EC
  8
ODPAD
 10
0.0
 20
0.0
 30
0.0
 70
   128
 71
    39
 72
   -38
 73
   -53
  0
VERTEX
  5
9ED
  8
ODPAD
 10
0.0
 20
0.0
 30
0.0
 70
   128
 71
   -39
 72
    53
 73
   -56
  0
VERTEX
  5
9EE
  8
ODPAD
 10
0.0
 20
0.0
 30
0.0
 70
   128
 71
   -55
 72
   -65
 73
   -50
  0
VERTEX
  5
9EF
  8
ODPAD
 10
0.0
 20
0.0
 30
0.0
 70
   128
 71
    68
 72
   -67
 73
   -94
  0
VERTEX
  5
9F0
  8
ODPAD
 10
0.0
 20
0.0
 30
0.0
 70
   128
 71
   -68
 72
    94
 73
   -93
  0
VERTEX
  5
9F1
  8
ODPAD
 10
0.0
 20
0.0
 30
0.0
 70
   128
 71
   -93
 72
   -51
 73
   -68
  0
VERTEX
  5
9F2
  8
ODPAD
 10
0.0
 20
0.0
 30
0.0
 70
   128
 71
    51
 72
   -50
 73
   -65
  0
VERTEX
  5
9F3
  8
ODPAD
 10
0.0
 20
0.0
 30
0.0
 70
   128
 71
   -51
 72
    65
 73
   -68
  0
VERTEX
  5
9F4
  8
ODPAD
 10
0.0
 20
0.0
 30
0.0
 70
   128
 71
    30
 72
   -29
 73
    -3
  0
VERTEX
  5
9F5
  8
ODPAD
 10
0.0
 20
0.0
 30
0.0
 70
   128
 71
    -3
 72
   -45
 73
   -30
  0
VERTEX
  5
9F6
  8
ODPAD
 10
0.0
 20
0.0
 30
0.0
 70
   128
 71
    48
 72
   -47
 73
   -42
  0
VERTEX
  5
9F7
  8
ODPAD
 10
0.0
 20
0.0
 30
0.0
 70
   128
 71
   -48
 72
    42
 73
   -41
  0
VERTEX
  5
9F8
  8
ODPAD
 10
0.0
 20
0.0
 30
0.0
 70
   128
 71
   -41
 72
   -31
 73
   -48
  0
VERTEX
  5
9F9
  8
ODPAD
 10
0.0
 20
0.0
 30
0.0
 70
   128
 71
    31
 72
   -30
 73
   -45
  0
VERTEX
  5
9FA
  8
ODPAD
 10
0.0
 20
0.0
 30
0.0
 70
   128
 71
   -31
 72
    45
 73
   -48
  0
VERTEX
  5
9FB
  8
ODPAD
 10
0.0
 20
0.0
 30
0.0
 70
   128
 71
   -47
 72
   -57
 73
   -42
  0
VERTEX
  5
9FC
  8
ODPAD
 10
0.0
 20
0.0
 30
0.0
 70
   128
 71
    60
 72
   -59
 73
   -54
  0
VERTEX
  5
9FD
  8
ODPAD
 10
0.0
 20
0.0
 30
0.0
 70
   128
 71
   -60
 72
    54
 73
   -53
  0
VERTEX
  5
9FE
  8
ODPAD
 10
0.0
 20
0.0
 30
0.0
 70
   128
 71
   -53
 72
   -43
 73
   -60
  0
VERTEX
  5
9FF
  8
ODPAD
 10
0.0
 20
0.0
 30
0.0
 70
   128
 71
    43
 72
   -42
 73
   -57
  0
VERTEX
  5
A00
  8
ODPAD
 10
0.0
 20
0.0
 30
0.0
 70
   128
 71
   -43
 72
    57
 73
   -60
  0
VERTEX
  5
A01
  8
ODPAD
 10
0.0
 20
0.0
 30
0.0
 70
   128
 71
   -59
 72
   -69
 73
   -54
  0
VERTEX
  5
A02
  8
ODPAD
 10
0.0
 20
0.0
 30
0.0
 70
   128
 71
    72
 72
   -71
 73
   -66
  0
VERTEX
  5
A03
  8
ODPAD
 10
0.0
 20
0.0
 30
0.0
 70
   128
 71
   -72
 72
    66
 73
   -65
  0
VERTEX
  5
A04
  8
ODPAD
 10
0.0
 20
0.0
 30
0.0
 70
   128
 71
   -65
 72
   -55
 73
   -72
  0
VERTEX
  5
A05
  8
ODPAD
 10
0.0
 20
0.0
 30
0.0
 70
   128
 71
    55
 72
   -54
 73
   -69
  0
VERTEX
  5
A06
  8
ODPAD
 10
0.0
 20
0.0
 30
0.0
 70
   128
 71
   -55
 72
    69
 73
   -72
  0
VERTEX
  5
A07
  8
ODPAD
 10
0.0
 20
0.0
 30
0.0
 70
   128
 71
    46
 72
   -45
 73
    -3
  0
VERTEX
  5
A08
  8
ODPAD
 10
0.0
 20
0.0
 30
0.0
 70
   128
 71
   -46
 72
     3
 73
    -2
  0
VERTEX
  5
A09
  8
ODPAD
 10
0.0
 20
0.0
 30
0.0
 70
   128
 71
    64
 72
   -63
 73
   -58
  0
VERTEX
  5
A0A
  8
ODPAD
 10
0.0
 20
0.0
 30
0.0
 70
   128
 71
   -64
 72
    58
 73
   -57
  0
VERTEX
  5
A0B
  8
ODPAD
 10
0.0
 20
0.0
 30
0.0
 70
   128
 71
   -64
 72
   -57
 73
   -47
  0
VERTEX
  5
A0C
  8
ODPAD
 10
0.0
 20
0.0
 30
0.0
 70
   128
 71
    47
 72
   -46
 73
   -61
  0
VERTEX
  5
A0D
  8
ODPAD
 10
0.0
 20
0.0
 30
0.0
 70
   128
 71
   -47
 72
    61
 73
   -64
  0
VERTEX
  5
A0E
  8
ODPAD
 10
0.0
 20
0.0
 30
0.0
 70
   128
 71
   -46
 72
    -2
 73
   -61
  0
VERTEX
  5
A0F
  8
ODPAD
 10
0.0
 20
0.0
 30
0.0
 70
   128
 71
    62
 72
   -61
 73
   -77
  0
VERTEX
  5
A10
  8
ODPAD
 10
0.0
 20
0.0
 30
0.0
 70
   128
 71
   -77
 72
   -61
 73
    -2
  0
VERTEX
  5
A11
  8
ODPAD
 10
0.0
 20
0.0
 30
0.0
 70
   128
 71
    -2
 72
    78
 73
   -77
  0
VERTEX
  5
A12
  8
ODPAD
 10
0.0
 20
0.0
 30
0.0
 70
   128
 71
    -2
 72
    79
 73
   -78
  0
VERTEX
  5
A13
  8
ODPAD
 10
0.0
 20
0.0
 30
0.0
 70
   128
 71
    -2
 72
   -74
 73
   -79
  0
VERTEX
  5
A14
  8
ODPAD
 10
0.0
 20
0.0
 30
0.0
 70
   128
 71
    74
 72
   -73
 73
   -80
  0
VERTEX
  5
A15
  8
ODPAD
 10
0.0
 20
0.0
 30
0.0
 70
   128
 71
   -74
 72
    80
 73
   -79
  0
VERTEX
  5
A16
  8
ODPAD
 10
0.0
 20
0.0
 30
0.0
 70
   128
 71
   -73
 72
   -63
 73
   -80
  0
VERTEX
  5
A17
  8
ODPAD
 10
0.0
 20
0.0
 30
0.0
 70
   128
 71
    63
 72
   -62
 73
   -77
  0
VERTEX
  5
A18
  8
ODPAD
 10
0.0
 20
0.0
 30
0.0
 70
   128
 71
   -63
 72
    77
 73
   -80
  0
VERTEX
  5
A19
  8
ODPAD
 10
0.0
 20
0.0
 30
0.0
 70
   128
 71
    -2
 72
    75
 73
   -74
  0
VERTEX
  5
A1A
  8
ODPAD
 10
0.0
 20
0.0
 30
0.0
 70
   128
 71
    -2
 72
   -70
 73
   -75
  0
VERTEX
  5
A1B
  8
ODPAD
 10
0.0
 20
0.0
 30
0.0
 70
   128
 71
    70
 72
   -69
 73
   -76
  0
VERTEX
  5
A1C
  8
ODPAD
 10
0.0
 20
0.0
 30
0.0
 70
   128
 71
   -70
 72
    76
 73
   -75
  0
VERTEX
  5
A1D
  8
ODPAD
 10
0.0
 20
0.0
 30
0.0
 70
   128
 71
   -58
 72
   -63
 73
   -73
  0
VERTEX
  5
A1E
  8
ODPAD
 10
0.0
 20
0.0
 30
0.0
 70
   128
 71
   -76
 72
   -69
 73
   -59
  0
VERTEX
  5
A1F
  8
ODPAD
 10
0.0
 20
0.0
 30
0.0
 70
   128
 71
    59
 72
   -58
 73
   -73
  0
VERTEX
  5
A20
  8
ODPAD
 10
0.0
 20
0.0
 30
0.0
 70
   128
 71
   -59
 72
    73
 73
   -76
  0
VERTEX
  5
A21
  8
ODPAD
 10
0.0
 20
0.0
 30
0.0
 70
   128
 71
     2
 72
    -1
 73
   -71
  0
VERTEX
  5
A22
  8
ODPAD
 10
0.0
 20
0.0
 30
0.0
 70
   128
 71
    -2
 72
    71
 73
   -70
  0
VERTEX
  5
A23
  8
ODPAD
 10
0.0
 20
0.0
 30
0.0
 70
   128
 71
    -1
 72
   -66
 73
   -71
  0
VERTEX
  5
A24
  8
ODPAD
 10
0.0
 20
0.0
 30
0.0
 70
   128
 71
    -1
 72
    67
 73
   -66
  0
VERTEX
  5
A25
  8
ODPAD
 10
0.0
 20
0.0
 30
0.0
 70
   128
 71
    -1
 72
   -94
 73
   -67
  0
VERTEX
  5
A26
  8
ODPAD
 10
0.0
 20
0.0
 30
0.0
 70
   128
 71
    -1
 72
    95
 73
   -94
  0
VERTEX
  5
A27
  8
ODPAD
 10
0.0
 20
0.0
 30
0.0
 70
   128
 71
    -1
 72
    96
 73
   -95
  0
VERTEX
  5
A28
  8
ODPAD
 10
0.0
 20
0.0
 30
0.0
 70
   128
 71
    -1
 72
   -91
 73
   -96
  0
VERTEX
  5
A29
  8
ODPAD
 10
0.0
 20
0.0
 30
0.0
 70
   128
 71
    91
 72
   -90
 73
   -93
  0
VERTEX
  5
A2A
  8
ODPAD
 10
0.0
 20
0.0
 30
0.0
 70
   128
 71
   -91
 72
    93
 73
   -96
  0
VERTEX
  5
A2B
  8
ODPAD
 10
0.0
 20
0.0
 30
0.0
 70
   128
 71
    -1
 72
    92
 73
   -91
  0
VERTEX
  5
A2C
  8
ODPAD
 10
0.0
 20
0.0
 30
0.0
 70
   128
 71
    -1
 72
   -87
 73
   -92
  0
VERTEX
  5
A2D
  8
ODPAD
 10
0.0
 20
0.0
 30
0.0
 70
   128
 71
    87
 72
   -86
 73
   -89
  0
VERTEX
  5
A2E
  8
ODPAD
 10
0.0
 20
0.0
 30
0.0
 70
   128
 71
   -87
 72
    89
 73
   -92
  0
VERTEX
  5
A2F
  8
ODPAD
 10
0.0
 20
0.0
 30
0.0
 70
   128
 71
     1
 72
    -4
 73
   -88
  0
VERTEX
  5
A30
  8
ODPAD
 10
0.0
 20
0.0
 30
0.0
 70
   128
 71
    -1
 72
    88
 73
   -87
  0
VERTEX
  5
A31
  8
ODPAD
 10
0.0
 20
0.0
 30
0.0
 70
   128
 71
    82
 72
   -81
 73
   -20
  0
VERTEX
  5
A32
  8
ODPAD
 10
0.0
 20
0.0
 30
0.0
 70
   128
 71
   -82
 72
    20
 73
   -19
  0
VERTEX
  5
A33
  8
ODPAD
 10
0.0
 20
0.0
 30
0.0
 70
   128
 71
   -19
 72
   -85
 73
   -82
  0
VERTEX
  5
A34
  8
ODPAD
 10
0.0
 20
0.0
 30
0.0
 70
   128
 71
    85
 72
   -88
 73
   -83
  0
VERTEX
  5
A35
  8
ODPAD
 10
0.0
 20
0.0
 30
0.0
 70
   128
 71
   -85
 72
    83
 73
   -82
  0
VERTEX
  5
A36
  8
ODPAD
 10
0.0
 20
0.0
 30
0.0
 70
   128
 71
   -83
 72
   -88
 73
    -4
  0
VERTEX
  5
A37
  8
ODPAD
 10
0.0
 20
0.0
 30
0.0
 70
   128
 71
    -4
 72
    84
 73
   -83
  0
VERTEX
  5
A38
  8
ODPAD
 10
0.0
 20
0.0
 30
0.0
 70
   128
 71
   -81
 72
  -103
 73
   -20
  0
VERTEX
  5
A39
  8
ODPAD
 10
0.0
 20
0.0
 30
0.0
 70
   128
 71
   -97
 72
    -4
 73
  -104
  0
VERTEX
  5
A3A
  8
ODPAD
 10
0.0
 20
0.0
 30
0.0
 70
   128
 71
   104
 72
  -103
 73
   -98
  0
VERTEX
  5
A3B
  8
ODPAD
 10
0.0
 20
0.0
 30
0.0
 70
   128
 71
  -104
 72
    98
 73
   -97
  0
VERTEX
  5
A3C
  8
ODPAD
 10
0.0
 20
0.0
 30
0.0
 70
   128
 71
  -103
 72
   -81
 73
   -98
  0
VERTEX
  5
A3D
  8
ODPAD
 10
0.0
 20
0.0
 30
0.0
 70
   128
 71
    81
 72
   -84
 73
   -99
  0
VERTEX
  5
A3E
  8
ODPAD
 10
0.0
 20
0.0
 30
0.0
 70
   128
 71
   -81
 72
    99
 73
   -98
  0
VERTEX
  5
A3F
  8
ODPAD
 10
0.0
 20
0.0
 30
0.0
 70
   128
 71
   -99
 72
   -84
 73
    -4
  0
VERTEX
  5
A40
  8
ODPAD
 10
0.0
 20
0.0
 30
0.0
 70
   128
 71
    -4
 72
   100
 73
   -99
  0
VERTEX
  5
A41
  8
ODPAD
 10
0.0
 20
0.0
 30
0.0
 70
   128
 71
    -4
 72
    97
 73
  -100
  0
VERTEX
  5
A42
  8
ODPAD
 10
0.0
 20
0.0
 30
0.0
 70
   128
 71
    -4
 72
   101
 73
  -104
  0
VERTEX
  5
A43
  8
ODPAD
 10
0.0
 20
0.0
 30
0.0
 70
   128
 71
    -4
 72
    -8
 73
  -101
  0
VERTEX
  5
A44
  8
ODPAD
 10
0.0
 20
0.0
 30
0.0
 70
   128
 71
     8
 72
    -7
 73
  -102
  0
VERTEX
  5
A45
  8
ODPAD
 10
0.0
 20
0.0
 30
0.0
 70
   128
 71
    -8
 72
   102
 73
  -101
  0
VERTEX
  5
A46
  8
ODPAD
 10
0.0
 20
0.0
 30
0.0
 70
   128
 71
    -7
 72
   -17
 73
  -102
  0
VERTEX
  5
A47
  8
ODPAD
 10
0.0
 20
0.0
 30
0.0
 70
   128
 71
    17
 72
   -20
 73
  -103
  0
VERTEX
  5
A48
  8
ODPAD
 10
0.0
 20
0.0
 30
0.0
 70
   128
 71
   -17
 72
   103
 73
  -102
  0
VERTEX
  5
A49
  8
ODPAD
 10
0.0
 20
0.0
 30
0.0
 70
   128
 71
     4
 72
    -3
 73
    -5
  0
VERTEX
  5
A4A
  8
ODPAD
 10
0.0
 20
0.0
 30
0.0
 70
   128
 71
    -4
 72
     5
 73
    -8
  0
SEQEND
  5
D24
  8
ODPAD
  0
POLYLINE
  5
A4B
  8
ODPAD
 66
     1
 10
0.0
 20
0.0
 30
0.0
 70
    64
 71
     4
 72
     2
  0
VERTEX
  5
A4C
  8
ODPAD
 10
-37.50000000000023
 20
-20.99999999999999
 30
-378.4999999999997
 70
   192
  0
VERTEX
  5
A4D
  8
ODPAD
 10
-37.50000000000023
 20
-19.99999999999999
 30
-378.4999999999997
 70
   192
  0
VERTEX
  5
A4E
  8
ODPAD
 10
-37.50000000000023
 20
-19.99999999999999
 30
-387.4999999999997
 70
   192
  0
VERTEX
  5
A4F
  8
ODPAD
 10
-37.50000000000023
 20
-20.99999999999999
 30
-387.4999999999997
 70
   192
  0
VERTEX
  5
A50
  8
ODPAD
 10
0.0
 20
0.0
 30
0.0
 70
   128
 71
     1
 72
     4
 73
    -3
  0
VERTEX
  5
A51
  8
ODPAD
 10
0.0
 20
0.0
 30
0.0
 70
   128
 71
    -1
 72
     3
 73
     2
  0
SEQEND
  5
D25
  8
ODPAD
  0
POLYLINE
  5
A52
  8
ODPAD
 66
     1
 10
0.0
 20
0.0
 30
0.0
 70
    64
 71
     4
 72
     2
  0
VERTEX
  5
A53
  8
ODPAD
 10
-37.50000000000023
 20
-20.99999999999999
 30
-387.4999999999997
 70
   192
  0
VERTEX
  5
A54
  8
ODPAD
 10
-37.50000000000023
 20
-19.99999999999999
 30
-387.4999999999997
 70
   192
  0
VERTEX
  5
A55
  8
ODPAD
 10
-28.50000000000023
 20
-19.99999999999999
 30
-387.4999999999997
 70
   192
  0
VERTEX
  5
A56
  8
ODPAD
 10
-28.50000000000023
 20
-20.99999999999999
 30
-387.4999999999997
 70
   192
  0
VERTEX
  5
A57
  8
ODPAD
 10
0.0
 20
0.0
 30
0.0
 70
   128
 71
     1
 72
     4
 73
    -3
  0
VERTEX
  5
A58
  8
ODPAD
 10
0.0
 20
0.0
 30
0.0
 70
   128
 71
    -1
 72
     3
 73
     2
  0
SEQEND
  5
D26
  8
ODPAD
  0
POLYLINE
  5
A59
  8
ODPAD
 66
     1
 10
0.0
 20
0.0
 30
0.0
 70
    64
 71
     4
 72
     2
  0
VERTEX
  5
A5A
  8
ODPAD
 10
-28.50000000000023
 20
-20.99999999999999
 30
-387.4999999999997
 70
   192
  0
VERTEX
  5
A5B
  8
ODPAD
 10
-28.50000000000023
 20
-19.99999999999999
 30
-387.4999999999997
 70
   192
  0
VERTEX
  5
A5C
  8
ODPAD
 10
-28.50000000000023
 20
-19.99999999999999
 30
-378.4999999999997
 70
   192
  0
VERTEX
  5
A5D
  8
ODPAD
 10
-28.50000000000023
 20
-20.99999999999999
 30
-378.4999999999997
 70
   192
  0
VERTEX
  5
A5E
  8
ODPAD
 10
0.0
 20
0.0
 30
0.0
 70
   128
 71
     1
 72
     4
 73
    -3
  0
VERTEX
  5
A5F
  8
ODPAD
 10
0.0
 20
0.0
 30
0.0
 70
   128
 71
    -1
 72
     3
 73
     2
  0
SEQEND
  5
D27
  8
ODPAD
  0
POLYLINE
  5
A60
  8
ODPAD
 66
     1
 10
0.0
 20
0.0
 30
0.0
 70
    64
 71
     4
 72
     2
  0
VERTEX
  5
A61
  8
ODPAD
 10
-28.50000000000023
 20
-20.99999999999999
 30
-378.4999999999997
 70
   192
  0
VERTEX
  5
A62
  8
ODPAD
 10
-28.50000000000023
 20
-19.99999999999999
 30
-378.4999999999997
 70
   192
  0
VERTEX
  5
A63
  8
ODPAD
 10
-37.50000000000023
 20
-19.99999999999999
 30
-378.4999999999997
 70
   192
  0
VERTEX
  5
A64
  8
ODPAD
 10
-37.50000000000023
 20
-20.99999999999999
 30
-378.4999999999997
 70
   192
  0
VERTEX
  5
A65
  8
ODPAD
 10
0.0
 20
0.0
 30
0.0
 70
   128
 71
     1
 72
     4
 73
    -3
  0
VERTEX
  5
A66
  8
ODPAD
 10
0.0
 20
0.0
 30
0.0
 70
   128
 71
    -1
 72
     3
 73
     2
  0
SEQEND
  5
D28
  8
ODPAD
  0
POLYLINE
  5
A67
  8
ODPAD
 66
     1
 10
0.0
 20
0.0
 30
0.0
 70
    64
 71
     4
 72
     2
  0
VERTEX
  5
A68
  8
ODPAD
 10
-37.49999999999953
 20
-20.99999999999999
 30
-312.4999999999997
 70
   192
  0
VERTEX
  5
A69
  8
ODPAD
 10
-37.49999999999953
 20
-19.99999999999999
 30
-312.4999999999997
 70
   192
  0
VERTEX
  5
A6A
  8
ODPAD
 10
-37.49999999999953
 20
-19.99999999999999
 30
-321.4999999999997
 70
   192
  0
VERTEX
  5
A6B
  8
ODPAD
 10
-37.49999999999953
 20
-20.99999999999999
 30
-321.4999999999997
 70
   192
  0
VERTEX
  5
A6C
  8
ODPAD
 10
0.0
 20
0.0
 30
0.0
 70
   128
 71
     1
 72
     4
 73
    -3
  0
VERTEX
  5
A6D
  8
ODPAD
 10
0.0
 20
0.0
 30
0.0
 70
   128
 71
    -1
 72
     3
 73
     2
  0
SEQEND
  5
D29
  8
ODPAD
  0
POLYLINE
  5
A6E
  8
ODPAD
 66
     1
 10
0.0
 20
0.0
 30
0.0
 70
    64
 71
     4
 72
     2
  0
VERTEX
  5
A6F
  8
ODPAD
 10
-37.49999999999953
 20
-20.99999999999999
 30
-321.4999999999997
 70
   192
  0
VERTEX
  5
A70
  8
ODPAD
 10
-37.49999999999953
 20
-19.99999999999999
 30
-321.4999999999997
 70
   192
  0
VERTEX
  5
A71
  8
ODPAD
 10
-28.49999999999955
 20
-19.99999999999999
 30
-321.4999999999997
 70
   192
  0
VERTEX
  5
A72
  8
ODPAD
 10
-28.49999999999955
 20
-20.99999999999999
 30
-321.4999999999997
 70
   192
  0
VERTEX
  5
A73
  8
ODPAD
 10
0.0
 20
0.0
 30
0.0
 70
   128
 71
     1
 72
     4
 73
    -3
  0
VERTEX
  5
A74
  8
ODPAD
 10
0.0
 20
0.0
 30
0.0
 70
   128
 71
    -1
 72
     3
 73
     2
  0
SEQEND
  5
D2A
  8
ODPAD
  0
POLYLINE
  5
A75
  8
ODPAD
 66
     1
 10
0.0
 20
0.0
 30
0.0
 70
    64
 71
     4
 72
     2
  0
VERTEX
  5
A76
  8
ODPAD
 10
-28.49999999999955
 20
-20.99999999999999
 30
-321.4999999999997
 70
   192
  0
VERTEX
  5
A77
  8
ODPAD
 10
-28.49999999999955
 20
-19.99999999999999
 30
-321.4999999999997
 70
   192
  0
VERTEX
  5
A78
  8
ODPAD
 10
-28.49999999999955
 20
-19.99999999999999
 30
-312.4999999999997
 70
   192
  0
VERTEX
  5
A79
  8
ODPAD
 10
-28.49999999999955
 20
-20.99999999999999
 30
-312.4999999999997
 70
   192
  0
VERTEX
  5
A7A
  8
ODPAD
 10
0.0
 20
0.0
 30
0.0
 70
   128
 71
     1
 72
     4
 73
    -3
  0
VERTEX
  5
A7B
  8
ODPAD
 10
0.0
 20
0.0
 30
0.0
 70
   128
 71
    -1
 72
     3
 73
     2
  0
SEQEND
  5
D2B
  8
ODPAD
  0
POLYLINE
  5
A7C
  8
ODPAD
 66
     1
 10
0.0
 20
0.0
 30
0.0
 70
    64
 71
     4
 72
     2
  0
VERTEX
  5
A7D
  8
ODPAD
 10
-28.49999999999955
 20
-20.99999999999999
 30
-312.4999999999997
 70
   192
  0
VERTEX
  5
A7E
  8
ODPAD
 10
-28.49999999999955
 20
-19.99999999999999
 30
-312.4999999999997
 70
   192
  0
VERTEX
  5
A7F
  8
ODPAD
 10
-37.49999999999953
 20
-19.99999999999999
 30
-312.4999999999997
 70
   192
  0
VERTEX
  5
A80
  8
ODPAD
 10
-37.49999999999953
 20
-20.99999999999999
 30
-312.4999999999997
 70
   192
  0
VERTEX
  5
A81
  8
ODPAD
 10
0.0
 20
0.0
 30
0.0
 70
   128
 71
     1
 72
     4
 73
    -3
  0
VERTEX
  5
A82
  8
ODPAD
 10
0.0
 20
0.0
 30
0.0
 70
   128
 71
    -1
 72
     3
 73
     2
  0
SEQEND
  5
D2C
  8
ODPAD
  0
POLYLINE
  5
A83
  8
ODPAD
 66
     1
 10
0.0
 20
0.0
 30
0.0
 70
    64
 71
     4
 72
     2
  0
VERTEX
  5
A84
  8
ODPAD
 10
-37.49999999999972
 20
-20.99999999999999
 30
-328.9999999999997
 70
   192
  0
VERTEX
  5
A85
  8
ODPAD
 10
-37.49999999999972
 20
-19.99999999999999
 30
-328.9999999999997
 70
   192
  0
VERTEX
  5
A86
  8
ODPAD
 10
-37.49999999999972
 20
-19.99999999999999
 30
-337.9999999999997
 70
   192
  0
VERTEX
  5
A87
  8
ODPAD
 10
-37.49999999999972
 20
-20.99999999999999
 30
-337.9999999999997
 70
   192
  0
VERTEX
  5
A88
  8
ODPAD
 10
0.0
 20
0.0
 30
0.0
 70
   128
 71
     1
 72
     4
 73
    -3
  0
VERTEX
  5
A89
  8
ODPAD
 10
0.0
 20
0.0
 30
0.0
 70
   128
 71
    -1
 72
     3
 73
     2
  0
SEQEND
  5
D2D
  8
ODPAD
  0
POLYLINE
  5
A8A
  8
ODPAD
 66
     1
 10
0.0
 20
0.0
 30
0.0
 70
    64
 71
     4
 72
     2
  0
VERTEX
  5
A8B
  8
ODPAD
 10
-37.49999999999972
 20
-20.99999999999999
 30
-337.9999999999997
 70
   192
  0
VERTEX
  5
A8C
  8
ODPAD
 10
-37.49999999999972
 20
-19.99999999999999
 30
-337.9999999999997
 70
   192
  0
VERTEX
  5
A8D
  8
ODPAD
 10
-28.49999999999972
 20
-19.99999999999999
 30
-337.9999999999997
 70
   192
  0
VERTEX
  5
A8E
  8
ODPAD
 10
-28.49999999999972
 20
-20.99999999999999
 30
-337.9999999999997
 70
   192
  0
VERTEX
  5
A8F
  8
ODPAD
 10
0.0
 20
0.0
 30
0.0
 70
   128
 71
     1
 72
     4
 73
    -3
  0
VERTEX
  5
A90
  8
ODPAD
 10
0.0
 20
0.0
 30
0.0
 70
   128
 71
    -1
 72
     3
 73
     2
  0
SEQEND
  5
D2E
  8
ODPAD
  0
POLYLINE
  5
A91
  8
ODPAD
 66
     1
 10
0.0
 20
0.0
 30
0.0
 70
    64
 71
     4
 72
     2
  0
VERTEX
  5
A92
  8
ODPAD
 10
-28.49999999999972
 20
-20.99999999999999
 30
-337.9999999999997
 70
   192
  0
VERTEX
  5
A93
  8
ODPAD
 10
-28.49999999999972
 20
-19.99999999999999
 30
-337.9999999999997
 70
   192
  0
VERTEX
  5
A94
  8
ODPAD
 10
-28.49999999999972
 20
-19.99999999999999
 30
-328.9999999999997
 70
   192
  0
VERTEX
  5
A95
  8
ODPAD
 10
-28.49999999999972
 20
-20.99999999999999
 30
-328.9999999999997
 70
   192
  0
VERTEX
  5
A96
  8
ODPAD
 10
0.0
 20
0.0
 30
0.0
 70
   128
 71
     1
 72
     4
 73
    -3
  0
VERTEX
  5
A97
  8
ODPAD
 10
0.0
 20
0.0
 30
0.0
 70
   128
 71
    -1
 72
     3
 73
     2
  0
SEQEND
  5
D2F
  8
ODPAD
  0
POLYLINE
  5
A98
  8
ODPAD
 66
     1
 10
0.0
 20
0.0
 30
0.0
 70
    64
 71
     4
 72
     2
  0
VERTEX
  5
A99
  8
ODPAD
 10
-28.49999999999972
 20
-20.99999999999999
 30
-328.9999999999997
 70
   192
  0
VERTEX
  5
A9A
  8
ODPAD
 10
-28.49999999999972
 20
-19.99999999999999
 30
-328.9999999999997
 70
   192
  0
VERTEX
  5
A9B
  8
ODPAD
 10
-37.49999999999972
 20
-19.99999999999999
 30
-328.9999999999997
 70
   192
  0
VERTEX
  5
A9C
  8
ODPAD
 10
-37.49999999999972
 20
-20.99999999999999
 30
-328.9999999999997
 70
   192
  0
VERTEX
  5
A9D
  8
ODPAD
 10
0.0
 20
0.0
 30
0.0
 70
   128
 71
     1
 72
     4
 73
    -3
  0
VERTEX
  5
A9E
  8
ODPAD
 10
0.0
 20
0.0
 30
0.0
 70
   128
 71
    -1
 72
     3
 73
     2
  0
SEQEND
  5
D30
  8
ODPAD
  0
POLYLINE
  5
A9F
  8
ODPAD
 66
     1
 10
0.0
 20
0.0
 30
0.0
 70
    64
 71
     4
 72
     2
  0
VERTEX
  5
AA0
  8
ODPAD
 10
-37.49999999999989
 20
-20.99999999999999
 30
-345.4999999999997
 70
   192
  0
VERTEX
  5
AA1
  8
ODPAD
 10
-37.49999999999989
 20
-19.99999999999999
 30
-345.4999999999997
 70
   192
  0
VERTEX
  5
AA2
  8
ODPAD
 10
-37.49999999999989
 20
-19.99999999999999
 30
-354.4999999999997
 70
   192
  0
VERTEX
  5
AA3
  8
ODPAD
 10
-37.49999999999989
 20
-20.99999999999999
 30
-354.4999999999997
 70
   192
  0
VERTEX
  5
AA4
  8
ODPAD
 10
0.0
 20
0.0
 30
0.0
 70
   128
 71
     1
 72
     4
 73
    -3
  0
VERTEX
  5
AA5
  8
ODPAD
 10
0.0
 20
0.0
 30
0.0
 70
   128
 71
    -1
 72
     3
 73
     2
  0
SEQEND
  5
D31
  8
ODPAD
  0
POLYLINE
  5
AA6
  8
ODPAD
 66
     1
 10
0.0
 20
0.0
 30
0.0
 70
    64
 71
     4
 72
     2
  0
VERTEX
  5
AA7
  8
ODPAD
 10
-37.49999999999989
 20
-20.99999999999999
 30
-354.4999999999997
 70
   192
  0
VERTEX
  5
AA8
  8
ODPAD
 10
-37.49999999999989
 20
-19.99999999999999
 30
-354.4999999999997
 70
   192
  0
VERTEX
  5
AA9
  8
ODPAD
 10
-28.49999999999989
 20
-19.99999999999999
 30
-354.4999999999997
 70
   192
  0
VERTEX
  5
AAA
  8
ODPAD
 10
-28.49999999999989
 20
-20.99999999999999
 30
-354.4999999999997
 70
   192
  0
VERTEX
  5
AAB
  8
ODPAD
 10
0.0
 20
0.0
 30
0.0
 70
   128
 71
     1
 72
     4
 73
    -3
  0
VERTEX
  5
AAC
  8
ODPAD
 10
0.0
 20
0.0
 30
0.0
 70
   128
 71
    -1
 72
     3
 73
     2
  0
SEQEND
  5
D32
  8
ODPAD
  0
POLYLINE
  5
AAD
  8
ODPAD
 66
     1
 10
0.0
 20
0.0
 30
0.0
 70
    64
 71
     4
 72
     2
  0
VERTEX
  5
AAE
  8
ODPAD
 10
-28.49999999999989
 20
-20.99999999999999
 30
-354.4999999999997
 70
   192
  0
VERTEX
  5
AAF
  8
ODPAD
 10
-28.49999999999989
 20
-19.99999999999999
 30
-354.4999999999997
 70
   192
  0
VERTEX
  5
AB0
  8
ODPAD
 10
-28.49999999999989
 20
-19.99999999999999
 30
-345.4999999999997
 70
   192
  0
VERTEX
  5
AB1
  8
ODPAD
 10
-28.49999999999989
 20
-20.99999999999999
 30
-345.4999999999997
 70
   192
  0
VERTEX
  5
AB2
  8
ODPAD
 10
0.0
 20
0.0
 30
0.0
 70
   128
 71
     1
 72
     4
 73
    -3
  0
VERTEX
  5
AB3
  8
ODPAD
 10
0.0
 20
0.0
 30
0.0
 70
   128
 71
    -1
 72
     3
 73
     2
  0
SEQEND
  5
D33
  8
ODPAD
  0
POLYLINE
  5
AB4
  8
ODPAD
 66
     1
 10
0.0
 20
0.0
 30
0.0
 70
    64
 71
     4
 72
     2
  0
VERTEX
  5
AB5
  8
ODPAD
 10
-28.49999999999989
 20
-20.99999999999999
 30
-345.4999999999997
 70
   192
  0
VERTEX
  5
AB6
  8
ODPAD
 10
-28.49999999999989
 20
-19.99999999999999
 30
-345.4999999999997
 70
   192
  0
VERTEX
  5
AB7
  8
ODPAD
 10
-37.49999999999989
 20
-19.99999999999999
 30
-345.4999999999997
 70
   192
  0
VERTEX
  5
AB8
  8
ODPAD
 10
-37.49999999999989
 20
-20.99999999999999
 30
-345.4999999999997
 70
   192
  0
VERTEX
  5
AB9
  8
ODPAD
 10
0.0
 20
0.0
 30
0.0
 70
   128
 71
     1
 72
     4
 73
    -3
  0
VERTEX
  5
ABA
  8
ODPAD
 10
0.0
 20
0.0
 30
0.0
 70
   128
 71
    -1
 72
     3
 73
     2
  0
SEQEND
  5
D34
  8
ODPAD
  0
POLYLINE
  5
ABB
  8
ODPAD
 66
     1
 10
0.0
 20
0.0
 30
0.0
 70
    64
 71
     4
 72
     2
  0
VERTEX
  5
ABC
  8
ODPAD
 10
-37.50000000000006
 20
-20.99999999999999
 30
-361.9999999999997
 70
   192
  0
VERTEX
  5
ABD
  8
ODPAD
 10
-37.50000000000006
 20
-19.99999999999999
 30
-361.9999999999997
 70
   192
  0
VERTEX
  5
ABE
  8
ODPAD
 10
-37.50000000000006
 20
-19.99999999999999
 30
-370.9999999999997
 70
   192
  0
VERTEX
  5
ABF
  8
ODPAD
 10
-37.50000000000006
 20
-20.99999999999999
 30
-370.9999999999997
 70
   192
  0
VERTEX
  5
AC0
  8
ODPAD
 10
0.0
 20
0.0
 30
0.0
 70
   128
 71
     1
 72
     4
 73
    -3
  0
VERTEX
  5
AC1
  8
ODPAD
 10
0.0
 20
0.0
 30
0.0
 70
   128
 71
    -1
 72
     3
 73
     2
  0
SEQEND
  5
D35
  8
ODPAD
  0
POLYLINE
  5
AC2
  8
ODPAD
 66
     1
 10
0.0
 20
0.0
 30
0.0
 70
    64
 71
     4
 72
     2
  0
VERTEX
  5
AC3
  8
ODPAD
 10
-37.50000000000006
 20
-20.99999999999999
 30
-370.9999999999997
 70
   192
  0
VERTEX
  5
AC4
  8
ODPAD
 10
-37.50000000000006
 20
-19.99999999999999
 30
-370.9999999999997
 70
   192
  0
VERTEX
  5
AC5
  8
ODPAD
 10
-28.50000000000007
 20
-19.99999999999999
 30
-370.9999999999997
 70
   192
  0
VERTEX
  5
AC6
  8
ODPAD
 10
-28.50000000000007
 20
-20.99999999999999
 30
-370.9999999999997
 70
   192
  0
VERTEX
  5
AC7
  8
ODPAD
 10
0.0
 20
0.0
 30
0.0
 70
   128
 71
     1
 72
     4
 73
    -3
  0
VERTEX
  5
AC8
  8
ODPAD
 10
0.0
 20
0.0
 30
0.0
 70
   128
 71
    -1
 72
     3
 73
     2
  0
SEQEND
  5
D36
  8
ODPAD
  0
POLYLINE
  5
AC9
  8
ODPAD
 66
     1
 10
0.0
 20
0.0
 30
0.0
 70
    64
 71
     4
 72
     2
  0
VERTEX
  5
ACA
  8
ODPAD
 10
-28.50000000000007
 20
-20.99999999999999
 30
-370.9999999999997
 70
   192
  0
VERTEX
  5
ACB
  8
ODPAD
 10
-28.50000000000007
 20
-19.99999999999999
 30
-370.9999999999997
 70
   192
  0
VERTEX
  5
ACC
  8
ODPAD
 10
-28.50000000000007
 20
-19.99999999999999
 30
-361.9999999999997
 70
   192
  0
VERTEX
  5
ACD
  8
ODPAD
 10
-28.50000000000007
 20
-20.99999999999999
 30
-361.9999999999997
 70
   192
  0
VERTEX
  5
ACE
  8
ODPAD
 10
0.0
 20
0.0
 30
0.0
 70
   128
 71
     1
 72
     4
 73
    -3
  0
VERTEX
  5
ACF
  8
ODPAD
 10
0.0
 20
0.0
 30
0.0
 70
   128
 71
    -1
 72
     3
 73
     2
  0
SEQEND
  5
D37
  8
ODPAD
  0
POLYLINE
  5
AD0
  8
ODPAD
 66
     1
 10
0.0
 20
0.0
 30
0.0
 70
    64
 71
     4
 72
     2
  0
VERTEX
  5
AD1
  8
ODPAD
 10
-28.50000000000007
 20
-20.99999999999999
 30
-361.9999999999997
 70
   192
  0
VERTEX
  5
AD2
  8
ODPAD
 10
-28.50000000000007
 20
-19.99999999999999
 30
-361.9999999999997
 70
   192
  0
VERTEX
  5
AD3
  8
ODPAD
 10
-37.50000000000006
 20
-19.99999999999999
 30
-361.9999999999997
 70
   192
  0
VERTEX
  5
AD4
  8
ODPAD
 10
-37.50000000000006
 20
-20.99999999999999
 30
-361.9999999999997
 70
   192
  0
VERTEX
  5
AD5
  8
ODPAD
 10
0.0
 20
0.0
 30
0.0
 70
   128
 71
     1
 72
     4
 73
    -3
  0
VERTEX
  5
AD6
  8
ODPAD
 10
0.0
 20
0.0
 30
0.0
 70
   128
 71
    -1
 72
     3
 73
     2
  0
SEQEND
  5
D38
  8
ODPAD
  0
POLYLINE
  5
AD7
  8
ODPAD
 66
     1
 10
0.0
 20
0.0
 30
0.0
 70
    64
 71
     4
 72
     2
  0
VERTEX
  5
AD8
  8
ODPAD
 10
28.50000000000047
 20
-20.99999999999999
 30
-312.4999999999997
 70
   192
  0
VERTEX
  5
AD9
  8
ODPAD
 10
28.50000000000047
 20
-19.99999999999999
 30
-312.4999999999997
 70
   192
  0
VERTEX
  5
ADA
  8
ODPAD
 10
28.50000000000047
 20
-19.99999999999999
 30
-321.4999999999997
 70
   192
  0
VERTEX
  5
ADB
  8
ODPAD
 10
28.50000000000047
 20
-20.99999999999999
 30
-321.4999999999997
 70
   192
  0
VERTEX
  5
ADC
  8
ODPAD
 10
0.0
 20
0.0
 30
0.0
 70
   128
 71
     1
 72
     4
 73
    -3
  0
VERTEX
  5
ADD
  8
ODPAD
 10
0.0
 20
0.0
 30
0.0
 70
   128
 71
    -1
 72
     3
 73
     2
  0
SEQEND
  5
D39
  8
ODPAD
  0
POLYLINE
  5
ADE
  8
ODPAD
 66
     1
 10
0.0
 20
0.0
 30
0.0
 70
    64
 71
     4
 72
     2
  0
VERTEX
  5
ADF
  8
ODPAD
 10
28.50000000000047
 20
-20.99999999999999
 30
-321.4999999999997
 70
   192
  0
VERTEX
  5
AE0
  8
ODPAD
 10
28.50000000000047
 20
-19.99999999999999
 30
-321.4999999999997
 70
   192
  0
VERTEX
  5
AE1
  8
ODPAD
 10
37.50000000000048
 20
-19.99999999999999
 30
-321.4999999999997
 70
   192
  0
VERTEX
  5
AE2
  8
ODPAD
 10
37.50000000000048
 20
-20.99999999999999
 30
-321.4999999999997
 70
   192
  0
VERTEX
  5
AE3
  8
ODPAD
 10
0.0
 20
0.0
 30
0.0
 70
   128
 71
     1
 72
     4
 73
    -3
  0
VERTEX
  5
AE4
  8
ODPAD
 10
0.0
 20
0.0
 30
0.0
 70
   128
 71
    -1
 72
     3
 73
     2
  0
SEQEND
  5
D3A
  8
ODPAD
  0
POLYLINE
  5
AE5
  8
ODPAD
 66
     1
 10
0.0
 20
0.0
 30
0.0
 70
    64
 71
     4
 72
     2
  0
VERTEX
  5
AE6
  8
ODPAD
 10
37.50000000000048
 20
-20.99999999999999
 30
-321.4999999999997
 70
   192
  0
VERTEX
  5
AE7
  8
ODPAD
 10
37.50000000000048
 20
-19.99999999999999
 30
-321.4999999999997
 70
   192
  0
VERTEX
  5
AE8
  8
ODPAD
 10
37.50000000000048
 20
-19.99999999999999
 30
-312.4999999999997
 70
   192
  0
VERTEX
  5
AE9
  8
ODPAD
 10
37.50000000000048
 20
-20.99999999999999
 30
-312.4999999999997
 70
   192
  0
VERTEX
  5
AEA
  8
ODPAD
 10
0.0
 20
0.0
 30
0.0
 70
   128
 71
     1
 72
     4
 73
    -3
  0
VERTEX
  5
AEB
  8
ODPAD
 10
0.0
 20
0.0
 30
0.0
 70
   128
 71
    -1
 72
     3
 73
     2
  0
SEQEND
  5
D3B
  8
ODPAD
  0
POLYLINE
  5
AEC
  8
ODPAD
 66
     1
 10
0.0
 20
0.0
 30
0.0
 70
    64
 71
     4
 72
     2
  0
VERTEX
  5
AED
  8
ODPAD
 10
37.50000000000048
 20
-20.99999999999999
 30
-312.4999999999997
 70
   192
  0
VERTEX
  5
AEE
  8
ODPAD
 10
37.50000000000048
 20
-19.99999999999999
 30
-312.4999999999997
 70
   192
  0
VERTEX
  5
AEF
  8
ODPAD
 10
28.50000000000047
 20
-19.99999999999999
 30
-312.4999999999997
 70
   192
  0
VERTEX
  5
AF0
  8
ODPAD
 10
28.50000000000047
 20
-20.99999999999999
 30
-312.4999999999997
 70
   192
  0
VERTEX
  5
AF1
  8
ODPAD
 10
0.0
 20
0.0
 30
0.0
 70
   128
 71
     1
 72
     4
 73
    -3
  0
VERTEX
  5
AF2
  8
ODPAD
 10
0.0
 20
0.0
 30
0.0
 70
   128
 71
    -1
 72
     3
 73
     2
  0
SEQEND
  5
D3C
  8
ODPAD
  0
POLYLINE
  5
AF3
  8
ODPAD
 66
     1
 10
0.0
 20
0.0
 30
0.0
 70
    64
 71
     4
 72
     2
  0
VERTEX
  5
AF4
  8
ODPAD
 10
12.00000000000045
 20
-20.99999999999999
 30
-312.4999999999997
 70
   192
  0
VERTEX
  5
AF5
  8
ODPAD
 10
12.00000000000045
 20
-19.99999999999999
 30
-312.4999999999997
 70
   192
  0
VERTEX
  5
AF6
  8
ODPAD
 10
12.00000000000045
 20
-19.99999999999999
 30
-321.4999999999997
 70
   192
  0
VERTEX
  5
AF7
  8
ODPAD
 10
12.00000000000045
 20
-20.99999999999999
 30
-321.4999999999997
 70
   192
  0
VERTEX
  5
AF8
  8
ODPAD
 10
0.0
 20
0.0
 30
0.0
 70
   128
 71
     1
 72
     4
 73
    -3
  0
VERTEX
  5
AF9
  8
ODPAD
 10
0.0
 20
0.0
 30
0.0
 70
   128
 71
    -1
 72
     3
 73
     2
  0
SEQEND
  5
D3D
  8
ODPAD
  0
POLYLINE
  5
AFA
  8
ODPAD
 66
     1
 10
0.0
 20
0.0
 30
0.0
 70
    64
 71
     4
 72
     2
  0
VERTEX
  5
AFB
  8
ODPAD
 10
12.00000000000045
 20
-20.99999999999999
 30
-321.4999999999997
 70
   192
  0
VERTEX
  5
AFC
  8
ODPAD
 10
12.00000000000045
 20
-19.99999999999999
 30
-321.4999999999997
 70
   192
  0
VERTEX
  5
AFD
  8
ODPAD
 10
21.00000000000046
 20
-19.99999999999999
 30
-321.4999999999997
 70
   192
  0
VERTEX
  5
AFE
  8
ODPAD
 10
21.00000000000046
 20
-20.99999999999999
 30
-321.4999999999997
 70
   192
  0
VERTEX
  5
AFF
  8
ODPAD
 10
0.0
 20
0.0
 30
0.0
 70
   128
 71
     1
 72
     4
 73
    -3
  0
VERTEX
  5
B00
  8
ODPAD
 10
0.0
 20
0.0
 30
0.0
 70
   128
 71
    -1
 72
     3
 73
     2
  0
SEQEND
  5
D3E
  8
ODPAD
  0
POLYLINE
  5
B01
  8
ODPAD
 66
     1
 10
0.0
 20
0.0
 30
0.0
 70
    64
 71
     4
 72
     2
  0
VERTEX
  5
B02
  8
ODPAD
 10
21.00000000000046
 20
-20.99999999999999
 30
-321.4999999999997
 70
   192
  0
VERTEX
  5
B03
  8
ODPAD
 10
21.00000000000046
 20
-19.99999999999999
 30
-321.4999999999997
 70
   192
  0
VERTEX
  5
B04
  8
ODPAD
 10
21.00000000000046
 20
-19.99999999999999
 30
-312.4999999999997
 70
   192
  0
VERTEX
  5
B05
  8
ODPAD
 10
21.00000000000046
 20
-20.99999999999999
 30
-312.4999999999997
 70
   192
  0
VERTEX
  5
B06
  8
ODPAD
 10
0.0
 20
0.0
 30
0.0
 70
   128
 71
     1
 72
     4
 73
    -3
  0
VERTEX
  5
B07
  8
ODPAD
 10
0.0
 20
0.0
 30
0.0
 70
   128
 71
    -1
 72
     3
 73
     2
  0
SEQEND
  5
D3F
  8
ODPAD
  0
POLYLINE
  5
B08
  8
ODPAD
 66
     1
 10
0.0
 20
0.0
 30
0.0
 70
    64
 71
     4
 72
     2
  0
VERTEX
  5
B09
  8
ODPAD
 10
21.00000000000046
 20
-20.99999999999999
 30
-312.4999999999997
 70
   192
  0
VERTEX
  5
B0A
  8
ODPAD
 10
21.00000000000046
 20
-19.99999999999999
 30
-312.4999999999997
 70
   192
  0
VERTEX
  5
B0B
  8
ODPAD
 10
12.00000000000045
 20
-19.99999999999999
 30
-312.4999999999997
 70
   192
  0
VERTEX
  5
B0C
  8
ODPAD
 10
12.00000000000045
 20
-20.99999999999999
 30
-312.4999999999997
 70
   192
  0
VERTEX
  5
B0D
  8
ODPAD
 10
0.0
 20
0.0
 30
0.0
 70
   128
 71
     1
 72
     4
 73
    -3
  0
VERTEX
  5
B0E
  8
ODPAD
 10
0.0
 20
0.0
 30
0.0
 70
   128
 71
    -1
 72
     3
 73
     2
  0
SEQEND
  5
D40
  8
ODPAD
  0
POLYLINE
  5
B0F
  8
ODPAD
 66
     1
 10
0.0
 20
0.0
 30
0.0
 70
    64
 71
     4
 72
     2
  0
VERTEX
  5
B10
  8
ODPAD
 10
-4.499999999999532
 20
-20.99999999999999
 30
-312.4999999999997
 70
   192
  0
VERTEX
  5
B11
  8
ODPAD
 10
-4.499999999999532
 20
-19.99999999999999
 30
-312.4999999999997
 70
   192
  0
VERTEX
  5
B12
  8
ODPAD
 10
-4.499999999999532
 20
-19.99999999999999
 30
-321.4999999999997
 70
   192
  0
VERTEX
  5
B13
  8
ODPAD
 10
-4.499999999999532
 20
-20.99999999999999
 30
-321.4999999999997
 70
   192
  0
VERTEX
  5
B14
  8
ODPAD
 10
0.0
 20
0.0
 30
0.0
 70
   128
 71
     1
 72
     4
 73
    -3
  0
VERTEX
  5
B15
  8
ODPAD
 10
0.0
 20
0.0
 30
0.0
 70
   128
 71
    -1
 72
     3
 73
     2
  0
SEQEND
  5
D41
  8
ODPAD
  0
POLYLINE
  5
B16
  8
ODPAD
 66
     1
 10
0.0
 20
0.0
 30
0.0
 70
    64
 71
     4
 72
     2
  0
VERTEX
  5
B17
  8
ODPAD
 10
-4.499999999999532
 20
-20.99999999999999
 30
-321.4999999999997
 70
   192
  0
VERTEX
  5
B18
  8
ODPAD
 10
-4.499999999999531
 20
-19.99999999999999
 30
-321.4999999999997
 70
   192
  0
VERTEX
  5
B19
  8
ODPAD
 10
4.500000000000462
 20
-19.99999999999999
 30
-321.4999999999997
 70
   192
  0
VERTEX
  5
B1A
  8
ODPAD
 10
4.500000000000462
 20
-20.99999999999999
 30
-321.4999999999997
 70
   192
  0
VERTEX
  5
B1B
  8
ODPAD
 10
0.0
 20
0.0
 30
0.0
 70
   128
 71
     1
 72
     4
 73
    -3
  0
VERTEX
  5
B1C
  8
ODPAD
 10
0.0
 20
0.0
 30
0.0
 70
   128
 71
    -1
 72
     3
 73
     2
  0
SEQEND
  5
D42
  8
ODPAD
  0
POLYLINE
  5
B1D
  8
ODPAD
 66
     1
 10
0.0
 20
0.0
 30
0.0
 70
    64
 71
     4
 72
     2
  0
VERTEX
  5
B1E
  8
ODPAD
 10
4.500000000000462
 20
-20.99999999999999
 30
-321.4999999999997
 70
   192
  0
VERTEX
  5
B1F
  8
ODPAD
 10
4.500000000000462
 20
-19.99999999999999
 30
-321.4999999999997
 70
   192
  0
VERTEX
  5
B20
  8
ODPAD
 10
4.500000000000462
 20
-19.99999999999999
 30
-312.4999999999997
 70
   192
  0
VERTEX
  5
B21
  8
ODPAD
 10
4.500000000000462
 20
-20.99999999999999
 30
-312.4999999999997
 70
   192
  0
VERTEX
  5
B22
  8
ODPAD
 10
0.0
 20
0.0
 30
0.0
 70
   128
 71
     1
 72
     4
 73
    -3
  0
VERTEX
  5
B23
  8
ODPAD
 10
0.0
 20
0.0
 30
0.0
 70
   128
 71
    -1
 72
     3
 73
     2
  0
SEQEND
  5
D43
  8
ODPAD
  0
POLYLINE
  5
B24
  8
ODPAD
 66
     1
 10
0.0
 20
0.0
 30
0.0
 70
    64
 71
     4
 72
     2
  0
VERTEX
  5
B25
  8
ODPAD
 10
4.500000000000462
 20
-20.99999999999999
 30
-312.4999999999997
 70
   192
  0
VERTEX
  5
B26
  8
ODPAD
 10
4.500000000000462
 20
-19.99999999999999
 30
-312.4999999999997
 70
   192
  0
VERTEX
  5
B27
  8
ODPAD
 10
-4.499999999999532
 20
-19.99999999999999
 30
-312.4999999999997
 70
   192
  0
VERTEX
  5
B28
  8
ODPAD
 10
-4.499999999999531
 20
-20.99999999999999
 30
-312.4999999999997
 70
   192
  0
VERTEX
  5
B29
  8
ODPAD
 10
0.0
 20
0.0
 30
0.0
 70
   128
 71
     1
 72
     4
 73
    -3
  0
VERTEX
  5
B2A
  8
ODPAD
 10
0.0
 20
0.0
 30
0.0
 70
   128
 71
    -1
 72
     3
 73
     2
  0
SEQEND
  5
D44
  8
ODPAD
  0
POLYLINE
  5
B2B
  8
ODPAD
 66
     1
 10
0.0
 20
0.0
 30
0.0
 70
    64
 71
     4
 72
     2
  0
VERTEX
  5
B2C
  8
ODPAD
 10
-20.99999999999955
 20
-20.99999999999999
 30
-312.4999999999997
 70
   192
  0
VERTEX
  5
B2D
  8
ODPAD
 10
-20.99999999999955
 20
-19.99999999999999
 30
-312.4999999999997
 70
   192
  0
VERTEX
  5
B2E
  8
ODPAD
 10
-20.99999999999955
 20
-19.99999999999999
 30
-321.4999999999997
 70
   192
  0
VERTEX
  5
B2F
  8
ODPAD
 10
-20.99999999999955
 20
-20.99999999999999
 30
-321.4999999999997
 70
   192
  0
VERTEX
  5
B30
  8
ODPAD
 10
0.0
 20
0.0
 30
0.0
 70
   128
 71
     1
 72
     4
 73
    -3
  0
VERTEX
  5
B31
  8
ODPAD
 10
0.0
 20
0.0
 30
0.0
 70
   128
 71
    -1
 72
     3
 73
     2
  0
SEQEND
  5
D45
  8
ODPAD
  0
POLYLINE
  5
B32
  8
ODPAD
 66
     1
 10
0.0
 20
0.0
 30
0.0
 70
    64
 71
     4
 72
     2
  0
VERTEX
  5
B33
  8
ODPAD
 10
-20.99999999999955
 20
-20.99999999999999
 30
-321.4999999999997
 70
   192
  0
VERTEX
  5
B34
  8
ODPAD
 10
-20.99999999999955
 20
-19.99999999999999
 30
-321.4999999999997
 70
   192
  0
VERTEX
  5
B35
  8
ODPAD
 10
-11.99999999999954
 20
-19.99999999999999
 30
-321.4999999999997
 70
   192
  0
VERTEX
  5
B36
  8
ODPAD
 10
-11.99999999999954
 20
-20.99999999999999
 30
-321.4999999999997
 70
   192
  0
VERTEX
  5
B37
  8
ODPAD
 10
0.0
 20
0.0
 30
0.0
 70
   128
 71
     1
 72
     4
 73
    -3
  0
VERTEX
  5
B38
  8
ODPAD
 10
0.0
 20
0.0
 30
0.0
 70
   128
 71
    -1
 72
     3
 73
     2
  0
SEQEND
  5
D46
  8
ODPAD
  0
POLYLINE
  5
B39
  8
ODPAD
 66
     1
 10
0.0
 20
0.0
 30
0.0
 70
    64
 71
     4
 72
     2
  0
VERTEX
  5
B3A
  8
ODPAD
 10
-11.99999999999954
 20
-20.99999999999999
 30
-321.4999999999997
 70
   192
  0
VERTEX
  5
B3B
  8
ODPAD
 10
-11.99999999999954
 20
-19.99999999999999
 30
-321.4999999999997
 70
   192
  0
VERTEX
  5
B3C
  8
ODPAD
 10
-11.99999999999954
 20
-19.99999999999999
 30
-312.4999999999997
 70
   192
  0
VERTEX
  5
B3D
  8
ODPAD
 10
-11.99999999999954
 20
-20.99999999999999
 30
-312.4999999999997
 70
   192
  0
VERTEX
  5
B3E
  8
ODPAD
 10
0.0
 20
0.0
 30
0.0
 70
   128
 71
     1
 72
     4
 73
    -3
  0
VERTEX
  5
B3F
  8
ODPAD
 10
0.0
 20
0.0
 30
0.0
 70
   128
 71
    -1
 72
     3
 73
     2
  0
SEQEND
  5
D47
  8
ODPAD
  0
POLYLINE
  5
B40
  8
ODPAD
 66
     1
 10
0.0
 20
0.0
 30
0.0
 70
    64
 71
     4
 72
     2
  0
VERTEX
  5
B41
  8
ODPAD
 10
-11.99999999999954
 20
-20.99999999999999
 30
-312.4999999999997
 70
   192
  0
VERTEX
  5
B42
  8
ODPAD
 10
-11.99999999999954
 20
-19.99999999999999
 30
-312.4999999999997
 70
   192
  0
VERTEX
  5
B43
  8
ODPAD
 10
-20.99999999999955
 20
-19.99999999999999
 30
-312.4999999999997
 70
   192
  0
VERTEX
  5
B44
  8
ODPAD
 10
-20.99999999999955
 20
-20.99999999999999
 30
-312.4999999999997
 70
   192
  0
VERTEX
  5
B45
  8
ODPAD
 10
0.0
 20
0.0
 30
0.0
 70
   128
 71
     1
 72
     4
 73
    -3
  0
VERTEX
  5
B46
  8
ODPAD
 10
0.0
 20
0.0
 30
0.0
 70
   128
 71
    -1
 72
     3
 73
     2
  0
SEQEND
  5
D48
  8
ODPAD
  0
POLYLINE
  5
B47
  8
ODPAD
 66
     1
 10
0.0
 20
0.0
 30
0.0
 70
    64
 71
     4
 72
     2
  0
VERTEX
  5
B48
  8
ODPAD
 10
28.50000000000027
 20
-20.99999999999999
 30
-328.9999999999997
 70
   192
  0
VERTEX
  5
B49
  8
ODPAD
 10
28.50000000000027
 20
-19.99999999999999
 30
-328.9999999999997
 70
   192
  0
VERTEX
  5
B4A
  8
ODPAD
 10
28.50000000000027
 20
-19.99999999999999
 30
-337.9999999999997
 70
   192
  0
VERTEX
  5
B4B
  8
ODPAD
 10
28.50000000000027
 20
-20.99999999999999
 30
-337.9999999999997
 70
   192
  0
VERTEX
  5
B4C
  8
ODPAD
 10
0.0
 20
0.0
 30
0.0
 70
   128
 71
     1
 72
     4
 73
    -3
  0
VERTEX
  5
B4D
  8
ODPAD
 10
0.0
 20
0.0
 30
0.0
 70
   128
 71
    -1
 72
     3
 73
     2
  0
SEQEND
  5
D49
  8
ODPAD
  0
POLYLINE
  5
B4E
  8
ODPAD
 66
     1
 10
0.0
 20
0.0
 30
0.0
 70
    64
 71
     4
 72
     2
  0
VERTEX
  5
B4F
  8
ODPAD
 10
28.50000000000027
 20
-20.99999999999999
 30
-337.9999999999997
 70
   192
  0
VERTEX
  5
B50
  8
ODPAD
 10
28.50000000000027
 20
-19.99999999999999
 30
-337.9999999999997
 70
   192
  0
VERTEX
  5
B51
  8
ODPAD
 10
37.50000000000028
 20
-19.99999999999999
 30
-337.9999999999997
 70
   192
  0
VERTEX
  5
B52
  8
ODPAD
 10
37.50000000000028
 20
-20.99999999999999
 30
-337.9999999999997
 70
   192
  0
VERTEX
  5
B53
  8
ODPAD
 10
0.0
 20
0.0
 30
0.0
 70
   128
 71
     1
 72
     4
 73
    -3
  0
VERTEX
  5
B54
  8
ODPAD
 10
0.0
 20
0.0
 30
0.0
 70
   128
 71
    -1
 72
     3
 73
     2
  0
SEQEND
  5
D4A
  8
ODPAD
  0
POLYLINE
  5
B55
  8
ODPAD
 66
     1
 10
0.0
 20
0.0
 30
0.0
 70
    64
 71
     4
 72
     2
  0
VERTEX
  5
B56
  8
ODPAD
 10
37.50000000000028
 20
-20.99999999999999
 30
-337.9999999999997
 70
   192
  0
VERTEX
  5
B57
  8
ODPAD
 10
37.50000000000028
 20
-19.99999999999999
 30
-337.9999999999997
 70
   192
  0
VERTEX
  5
B58
  8
ODPAD
 10
37.50000000000028
 20
-19.99999999999999
 30
-328.9999999999997
 70
   192
  0
VERTEX
  5
B59
  8
ODPAD
 10
37.50000000000028
 20
-20.99999999999999
 30
-328.9999999999997
 70
   192
  0
VERTEX
  5
B5A
  8
ODPAD
 10
0.0
 20
0.0
 30
0.0
 70
   128
 71
     1
 72
     4
 73
    -3
  0
VERTEX
  5
B5B
  8
ODPAD
 10
0.0
 20
0.0
 30
0.0
 70
   128
 71
    -1
 72
     3
 73
     2
  0
SEQEND
  5
D4B
  8
ODPAD
  0
POLYLINE
  5
B5C
  8
ODPAD
 66
     1
 10
0.0
 20
0.0
 30
0.0
 70
    64
 71
     4
 72
     2
  0
VERTEX
  5
B5D
  8
ODPAD
 10
37.50000000000028
 20
-20.99999999999999
 30
-328.9999999999997
 70
   192
  0
VERTEX
  5
B5E
  8
ODPAD
 10
37.50000000000028
 20
-19.99999999999999
 30
-328.9999999999997
 70
   192
  0
VERTEX
  5
B5F
  8
ODPAD
 10
28.50000000000027
 20
-19.99999999999999
 30
-328.9999999999997
 70
   192
  0
VERTEX
  5
B60
  8
ODPAD
 10
28.50000000000027
 20
-20.99999999999999
 30
-328.9999999999997
 70
   192
  0
VERTEX
  5
B61
  8
ODPAD
 10
0.0
 20
0.0
 30
0.0
 70
   128
 71
     1
 72
     4
 73
    -3
  0
VERTEX
  5
B62
  8
ODPAD
 10
0.0
 20
0.0
 30
0.0
 70
   128
 71
    -1
 72
     3
 73
     2
  0
SEQEND
  5
D4C
  8
ODPAD
  0
POLYLINE
  5
B63
  8
ODPAD
 66
     1
 10
0.0
 20
0.0
 30
0.0
 70
    64
 71
     4
 72
     2
  0
VERTEX
  5
B64
  8
ODPAD
 10
12.00000000000029
 20
-20.99999999999999
 30
-328.9999999999997
 70
   192
  0
VERTEX
  5
B65
  8
ODPAD
 10
12.00000000000029
 20
-19.99999999999999
 30
-328.9999999999997
 70
   192
  0
VERTEX
  5
B66
  8
ODPAD
 10
12.00000000000029
 20
-19.99999999999999
 30
-337.9999999999997
 70
   192
  0
VERTEX
  5
B67
  8
ODPAD
 10
12.00000000000029
 20
-20.99999999999999
 30
-337.9999999999997
 70
   192
  0
VERTEX
  5
B68
  8
ODPAD
 10
0.0
 20
0.0
 30
0.0
 70
   128
 71
     1
 72
     4
 73
    -3
  0
VERTEX
  5
B69
  8
ODPAD
 10
0.0
 20
0.0
 30
0.0
 70
   128
 71
    -1
 72
     3
 73
     2
  0
SEQEND
  5
D4D
  8
ODPAD
  0
POLYLINE
  5
B6A
  8
ODPAD
 66
     1
 10
0.0
 20
0.0
 30
0.0
 70
    64
 71
     4
 72
     2
  0
VERTEX
  5
B6B
  8
ODPAD
 10
12.00000000000029
 20
-20.99999999999999
 30
-337.9999999999997
 70
   192
  0
VERTEX
  5
B6C
  8
ODPAD
 10
12.00000000000029
 20
-19.99999999999999
 30
-337.9999999999997
 70
   192
  0
VERTEX
  5
B6D
  8
ODPAD
 10
21.00000000000029
 20
-19.99999999999999
 30
-337.9999999999997
 70
   192
  0
VERTEX
  5
B6E
  8
ODPAD
 10
21.00000000000029
 20
-20.99999999999999
 30
-337.9999999999997
 70
   192
  0
VERTEX
  5
B6F
  8
ODPAD
 10
0.0
 20
0.0
 30
0.0
 70
   128
 71
     1
 72
     4
 73
    -3
  0
VERTEX
  5
B70
  8
ODPAD
 10
0.0
 20
0.0
 30
0.0
 70
   128
 71
    -1
 72
     3
 73
     2
  0
SEQEND
  5
D4E
  8
ODPAD
  0
POLYLINE
  5
B71
  8
ODPAD
 66
     1
 10
0.0
 20
0.0
 30
0.0
 70
    64
 71
     4
 72
     2
  0
VERTEX
  5
B72
  8
ODPAD
 10
21.00000000000029
 20
-20.99999999999999
 30
-337.9999999999997
 70
   192
  0
VERTEX
  5
B73
  8
ODPAD
 10
21.00000000000029
 20
-19.99999999999999
 30
-337.9999999999997
 70
   192
  0
VERTEX
  5
B74
  8
ODPAD
 10
21.00000000000029
 20
-19.99999999999999
 30
-328.9999999999997
 70
   192
  0
VERTEX
  5
B75
  8
ODPAD
 10
21.00000000000029
 20
-20.99999999999999
 30
-328.9999999999997
 70
   192
  0
VERTEX
  5
B76
  8
ODPAD
 10
0.0
 20
0.0
 30
0.0
 70
   128
 71
     1
 72
     4
 73
    -3
  0
VERTEX
  5
B77
  8
ODPAD
 10
0.0
 20
0.0
 30
0.0
 70
   128
 71
    -1
 72
     3
 73
     2
  0
SEQEND
  5
D4F
  8
ODPAD
  0
POLYLINE
  5
B78
  8
ODPAD
 66
     1
 10
0.0
 20
0.0
 30
0.0
 70
    64
 71
     4
 72
     2
  0
VERTEX
  5
B79
  8
ODPAD
 10
21.00000000000029
 20
-20.99999999999999
 30
-328.9999999999997
 70
   192
  0
VERTEX
  5
B7A
  8
ODPAD
 10
21.00000000000029
 20
-19.99999999999999
 30
-328.9999999999997
 70
   192
  0
VERTEX
  5
B7B
  8
ODPAD
 10
12.00000000000029
 20
-19.99999999999999
 30
-328.9999999999997
 70
   192
  0
VERTEX
  5
B7C
  8
ODPAD
 10
12.00000000000029
 20
-20.99999999999999
 30
-328.9999999999997
 70
   192
  0
VERTEX
  5
B7D
  8
ODPAD
 10
0.0
 20
0.0
 30
0.0
 70
   128
 71
     1
 72
     4
 73
    -3
  0
VERTEX
  5
B7E
  8
ODPAD
 10
0.0
 20
0.0
 30
0.0
 70
   128
 71
    -1
 72
     3
 73
     2
  0
SEQEND
  5
D50
  8
ODPAD
  0
POLYLINE
  5
B7F
  8
ODPAD
 66
     1
 10
0.0
 20
0.0
 30
0.0
 70
    64
 71
     4
 72
     2
  0
VERTEX
  5
B80
  8
ODPAD
 10
-4.499999999999712
 20
-20.99999999999999
 30
-328.9999999999997
 70
   192
  0
VERTEX
  5
B81
  8
ODPAD
 10
-4.499999999999712
 20
-19.99999999999999
 30
-328.9999999999997
 70
   192
  0
VERTEX
  5
B82
  8
ODPAD
 10
-4.499999999999712
 20
-19.99999999999999
 30
-337.9999999999997
 70
   192
  0
VERTEX
  5
B83
  8
ODPAD
 10
-4.499999999999712
 20
-20.99999999999999
 30
-337.9999999999997
 70
   192
  0
VERTEX
  5
B84
  8
ODPAD
 10
0.0
 20
0.0
 30
0.0
 70
   128
 71
     1
 72
     4
 73
    -3
  0
VERTEX
  5
B85
  8
ODPAD
 10
0.0
 20
0.0
 30
0.0
 70
   128
 71
    -1
 72
     3
 73
     2
  0
SEQEND
  5
D51
  8
ODPAD
  0
POLYLINE
  5
B86
  8
ODPAD
 66
     1
 10
0.0
 20
0.0
 30
0.0
 70
    64
 71
     4
 72
     2
  0
VERTEX
  5
B87
  8
ODPAD
 10
-4.499999999999712
 20
-20.99999999999999
 30
-337.9999999999997
 70
   192
  0
VERTEX
  5
B88
  8
ODPAD
 10
-4.499999999999711
 20
-19.99999999999999
 30
-337.9999999999997
 70
   192
  0
VERTEX
  5
B89
  8
ODPAD
 10
4.500000000000282
 20
-19.99999999999999
 30
-337.9999999999997
 70
   192
  0
VERTEX
  5
B8A
  8
ODPAD
 10
4.500000000000282
 20
-20.99999999999999
 30
-337.9999999999997
 70
   192
  0
VERTEX
  5
B8B
  8
ODPAD
 10
0.0
 20
0.0
 30
0.0
 70
   128
 71
     1
 72
     4
 73
    -3
  0
VERTEX
  5
B8C
  8
ODPAD
 10
0.0
 20
0.0
 30
0.0
 70
   128
 71
    -1
 72
     3
 73
     2
  0
SEQEND
  5
D52
  8
ODPAD
  0
POLYLINE
  5
B8D
  8
ODPAD
 66
     1
 10
0.0
 20
0.0
 30
0.0
 70
    64
 71
     4
 72
     2
  0
VERTEX
  5
B8E
  8
ODPAD
 10
4.500000000000282
 20
-20.99999999999999
 30
-337.9999999999997
 70
   192
  0
VERTEX
  5
B8F
  8
ODPAD
 10
4.500000000000282
 20
-19.99999999999999
 30
-337.9999999999997
 70
   192
  0
VERTEX
  5
B90
  8
ODPAD
 10
4.500000000000282
 20
-19.99999999999999
 30
-328.9999999999997
 70
   192
  0
VERTEX
  5
B91
  8
ODPAD
 10
4.500000000000282
 20
-20.99999999999999
 30
-328.9999999999997
 70
   192
  0
VERTEX
  5
B92
  8
ODPAD
 10
0.0
 20
0.0
 30
0.0
 70
   128
 71
     1
 72
     4
 73
    -3
  0
VERTEX
  5
B93
  8
ODPAD
 10
0.0
 20
0.0
 30
0.0
 70
   128
 71
    -1
 72
     3
 73
     2
  0
SEQEND
  5
D53
  8
ODPAD
  0
POLYLINE
  5
B94
  8
ODPAD
 66
     1
 10
0.0
 20
0.0
 30
0.0
 70
    64
 71
     4
 72
     2
  0
VERTEX
  5
B95
  8
ODPAD
 10
4.500000000000282
 20
-20.99999999999999
 30
-328.9999999999997
 70
   192
  0
VERTEX
  5
B96
  8
ODPAD
 10
4.500000000000282
 20
-19.99999999999999
 30
-328.9999999999997
 70
   192
  0
VERTEX
  5
B97
  8
ODPAD
 10
-4.499999999999712
 20
-19.99999999999999
 30
-328.9999999999997
 70
   192
  0
VERTEX
  5
B98
  8
ODPAD
 10
-4.499999999999711
 20
-20.99999999999999
 30
-328.9999999999997
 70
   192
  0
VERTEX
  5
B99
  8
ODPAD
 10
0.0
 20
0.0
 30
0.0
 70
   128
 71
     1
 72
     4
 73
    -3
  0
VERTEX
  5
B9A
  8
ODPAD
 10
0.0
 20
0.0
 30
0.0
 70
   128
 71
    -1
 72
     3
 73
     2
  0
SEQEND
  5
D54
  8
ODPAD
  0
POLYLINE
  5
B9B
  8
ODPAD
 66
     1
 10
0.0
 20
0.0
 30
0.0
 70
    64
 71
     4
 72
     2
  0
VERTEX
  5
B9C
  8
ODPAD
 10
-20.99999999999971
 20
-20.99999999999999
 30
-328.9999999999997
 70
   192
  0
VERTEX
  5
B9D
  8
ODPAD
 10
-20.99999999999971
 20
-19.99999999999999
 30
-328.9999999999997
 70
   192
  0
VERTEX
  5
B9E
  8
ODPAD
 10
-20.99999999999971
 20
-19.99999999999999
 30
-337.9999999999997
 70
   192
  0
VERTEX
  5
B9F
  8
ODPAD
 10
-20.99999999999971
 20
-20.99999999999999
 30
-337.9999999999997
 70
   192
  0
VERTEX
  5
BA0
  8
ODPAD
 10
0.0
 20
0.0
 30
0.0
 70
   128
 71
     1
 72
     4
 73
    -3
  0
VERTEX
  5
BA1
  8
ODPAD
 10
0.0
 20
0.0
 30
0.0
 70
   128
 71
    -1
 72
     3
 73
     2
  0
SEQEND
  5
D55
  8
ODPAD
  0
POLYLINE
  5
BA2
  8
ODPAD
 66
     1
 10
0.0
 20
0.0
 30
0.0
 70
    64
 71
     4
 72
     2
  0
VERTEX
  5
BA3
  8
ODPAD
 10
-20.99999999999971
 20
-20.99999999999999
 30
-337.9999999999997
 70
   192
  0
VERTEX
  5
BA4
  8
ODPAD
 10
-20.99999999999971
 20
-19.99999999999999
 30
-337.9999999999997
 70
   192
  0
VERTEX
  5
BA5
  8
ODPAD
 10
-11.99999999999972
 20
-19.99999999999999
 30
-337.9999999999997
 70
   192
  0
VERTEX
  5
BA6
  8
ODPAD
 10
-11.99999999999972
 20
-20.99999999999999
 30
-337.9999999999997
 70
   192
  0
VERTEX
  5
BA7
  8
ODPAD
 10
0.0
 20
0.0
 30
0.0
 70
   128
 71
     1
 72
     4
 73
    -3
  0
VERTEX
  5
BA8
  8
ODPAD
 10
0.0
 20
0.0
 30
0.0
 70
   128
 71
    -1
 72
     3
 73
     2
  0
SEQEND
  5
D56
  8
ODPAD
  0
POLYLINE
  5
BA9
  8
ODPAD
 66
     1
 10
0.0
 20
0.0
 30
0.0
 70
    64
 71
     4
 72
     2
  0
VERTEX
  5
BAA
  8
ODPAD
 10
-11.99999999999972
 20
-20.99999999999999
 30
-337.9999999999997
 70
   192
  0
VERTEX
  5
BAB
  8
ODPAD
 10
-11.99999999999972
 20
-19.99999999999999
 30
-337.9999999999997
 70
   192
  0
VERTEX
  5
BAC
  8
ODPAD
 10
-11.99999999999972
 20
-19.99999999999999
 30
-328.9999999999997
 70
   192
  0
VERTEX
  5
BAD
  8
ODPAD
 10
-11.99999999999972
 20
-20.99999999999999
 30
-328.9999999999997
 70
   192
  0
VERTEX
  5
BAE
  8
ODPAD
 10
0.0
 20
0.0
 30
0.0
 70
   128
 71
     1
 72
     4
 73
    -3
  0
VERTEX
  5
BAF
  8
ODPAD
 10
0.0
 20
0.0
 30
0.0
 70
   128
 71
    -1
 72
     3
 73
     2
  0
SEQEND
  5
D57
  8
ODPAD
  0
POLYLINE
  5
BB0
  8
ODPAD
 66
     1
 10
0.0
 20
0.0
 30
0.0
 70
    64
 71
     4
 72
     2
  0
VERTEX
  5
BB1
  8
ODPAD
 10
-11.99999999999972
 20
-20.99999999999999
 30
-328.9999999999997
 70
   192
  0
VERTEX
  5
BB2
  8
ODPAD
 10
-11.99999999999972
 20
-19.99999999999999
 30
-328.9999999999997
 70
   192
  0
VERTEX
  5
BB3
  8
ODPAD
 10
-20.99999999999971
 20
-19.99999999999999
 30
-328.9999999999997
 70
   192
  0
VERTEX
  5
BB4
  8
ODPAD
 10
-20.99999999999971
 20
-20.99999999999999
 30
-328.9999999999997
 70
   192
  0
VERTEX
  5
BB5
  8
ODPAD
 10
0.0
 20
0.0
 30
0.0
 70
   128
 71
     1
 72
     4
 73
    -3
  0
VERTEX
  5
BB6
  8
ODPAD
 10
0.0
 20
0.0
 30
0.0
 70
   128
 71
    -1
 72
     3
 73
     2
  0
SEQEND
  5
D58
  8
ODPAD
  0
POLYLINE
  5
BB7
  8
ODPAD
 66
     1
 10
0.0
 20
0.0
 30
0.0
 70
    64
 71
     4
 72
     2
  0
VERTEX
  5
BB8
  8
ODPAD
 10
28.50000000000011
 20
-20.99999999999999
 30
-345.4999999999997
 70
   192
  0
VERTEX
  5
BB9
  8
ODPAD
 10
28.50000000000011
 20
-19.99999999999999
 30
-345.4999999999997
 70
   192
  0
VERTEX
  5
BBA
  8
ODPAD
 10
28.50000000000011
 20
-19.99999999999999
 30
-354.4999999999997
 70
   192
  0
VERTEX
  5
BBB
  8
ODPAD
 10
28.50000000000011
 20
-20.99999999999999
 30
-354.4999999999997
 70
   192
  0
VERTEX
  5
BBC
  8
ODPAD
 10
0.0
 20
0.0
 30
0.0
 70
   128
 71
     1
 72
     4
 73
    -3
  0
VERTEX
  5
BBD
  8
ODPAD
 10
0.0
 20
0.0
 30
0.0
 70
   128
 71
    -1
 72
     3
 73
     2
  0
SEQEND
  5
D59
  8
ODPAD
  0
POLYLINE
  5
BBE
  8
ODPAD
 66
     1
 10
0.0
 20
0.0
 30
0.0
 70
    64
 71
     4
 72
     2
  0
VERTEX
  5
BBF
  8
ODPAD
 10
28.50000000000011
 20
-20.99999999999999
 30
-354.4999999999997
 70
   192
  0
VERTEX
  5
BC0
  8
ODPAD
 10
28.50000000000011
 20
-19.99999999999999
 30
-354.4999999999997
 70
   192
  0
VERTEX
  5
BC1
  8
ODPAD
 10
37.50000000000011
 20
-19.99999999999999
 30
-354.4999999999997
 70
   192
  0
VERTEX
  5
BC2
  8
ODPAD
 10
37.50000000000011
 20
-20.99999999999999
 30
-354.4999999999997
 70
   192
  0
VERTEX
  5
BC3
  8
ODPAD
 10
0.0
 20
0.0
 30
0.0
 70
   128
 71
     1
 72
     4
 73
    -3
  0
VERTEX
  5
BC4
  8
ODPAD
 10
0.0
 20
0.0
 30
0.0
 70
   128
 71
    -1
 72
     3
 73
     2
  0
SEQEND
  5
D5A
  8
ODPAD
  0
POLYLINE
  5
BC5
  8
ODPAD
 66
     1
 10
0.0
 20
0.0
 30
0.0
 70
    64
 71
     4
 72
     2
  0
VERTEX
  5
BC6
  8
ODPAD
 10
37.50000000000011
 20
-20.99999999999999
 30
-354.4999999999997
 70
   192
  0
VERTEX
  5
BC7
  8
ODPAD
 10
37.50000000000011
 20
-19.99999999999999
 30
-354.4999999999997
 70
   192
  0
VERTEX
  5
BC8
  8
ODPAD
 10
37.50000000000011
 20
-19.99999999999999
 30
-345.4999999999997
 70
   192
  0
VERTEX
  5
BC9
  8
ODPAD
 10
37.50000000000011
 20
-20.99999999999999
 30
-345.4999999999997
 70
   192
  0
VERTEX
  5
BCA
  8
ODPAD
 10
0.0
 20
0.0
 30
0.0
 70
   128
 71
     1
 72
     4
 73
    -3
  0
VERTEX
  5
BCB
  8
ODPAD
 10
0.0
 20
0.0
 30
0.0
 70
   128
 71
    -1
 72
     3
 73
     2
  0
SEQEND
  5
D5B
  8
ODPAD
  0
POLYLINE
  5
BCC
  8
ODPAD
 66
     1
 10
0.0
 20
0.0
 30
0.0
 70
    64
 71
     4
 72
     2
  0
VERTEX
  5
BCD
  8
ODPAD
 10
37.50000000000011
 20
-20.99999999999999
 30
-345.4999999999997
 70
   192
  0
VERTEX
  5
BCE
  8
ODPAD
 10
37.50000000000011
 20
-19.99999999999999
 30
-345.4999999999997
 70
   192
  0
VERTEX
  5
BCF
  8
ODPAD
 10
28.50000000000011
 20
-19.99999999999999
 30
-345.4999999999997
 70
   192
  0
VERTEX
  5
BD0
  8
ODPAD
 10
28.50000000000011
 20
-20.99999999999999
 30
-345.4999999999997
 70
   192
  0
VERTEX
  5
BD1
  8
ODPAD
 10
0.0
 20
0.0
 30
0.0
 70
   128
 71
     1
 72
     4
 73
    -3
  0
VERTEX
  5
BD2
  8
ODPAD
 10
0.0
 20
0.0
 30
0.0
 70
   128
 71
    -1
 72
     3
 73
     2
  0
SEQEND
  5
D5C
  8
ODPAD
  0
POLYLINE
  5
BD3
  8
ODPAD
 66
     1
 10
0.0
 20
0.0
 30
0.0
 70
    64
 71
     4
 72
     2
  0
VERTEX
  5
BD4
  8
ODPAD
 10
12.00000000000012
 20
-20.99999999999999
 30
-345.4999999999997
 70
   192
  0
VERTEX
  5
BD5
  8
ODPAD
 10
12.00000000000012
 20
-19.99999999999999
 30
-345.4999999999997
 70
   192
  0
VERTEX
  5
BD6
  8
ODPAD
 10
12.00000000000012
 20
-19.99999999999999
 30
-354.4999999999997
 70
   192
  0
VERTEX
  5
BD7
  8
ODPAD
 10
12.00000000000012
 20
-20.99999999999999
 30
-354.4999999999997
 70
   192
  0
VERTEX
  5
BD8
  8
ODPAD
 10
0.0
 20
0.0
 30
0.0
 70
   128
 71
     1
 72
     4
 73
    -3
  0
VERTEX
  5
BD9
  8
ODPAD
 10
0.0
 20
0.0
 30
0.0
 70
   128
 71
    -1
 72
     3
 73
     2
  0
SEQEND
  5
D5D
  8
ODPAD
  0
POLYLINE
  5
BDA
  8
ODPAD
 66
     1
 10
0.0
 20
0.0
 30
0.0
 70
    64
 71
     4
 72
     2
  0
VERTEX
  5
BDB
  8
ODPAD
 10
12.00000000000012
 20
-20.99999999999999
 30
-354.4999999999997
 70
   192
  0
VERTEX
  5
BDC
  8
ODPAD
 10
12.00000000000012
 20
-19.99999999999999
 30
-354.4999999999997
 70
   192
  0
VERTEX
  5
BDD
  8
ODPAD
 10
21.0000000000001
 20
-19.99999999999999
 30
-354.4999999999997
 70
   192
  0
VERTEX
  5
BDE
  8
ODPAD
 10
21.0000000000001
 20
-20.99999999999999
 30
-354.4999999999997
 70
   192
  0
VERTEX
  5
BDF
  8
ODPAD
 10
0.0
 20
0.0
 30
0.0
 70
   128
 71
     1
 72
     4
 73
    -3
  0
VERTEX
  5
BE0
  8
ODPAD
 10
0.0
 20
0.0
 30
0.0
 70
   128
 71
    -1
 72
     3
 73
     2
  0
SEQEND
  5
D5E
  8
ODPAD
  0
POLYLINE
  5
BE1
  8
ODPAD
 66
     1
 10
0.0
 20
0.0
 30
0.0
 70
    64
 71
     4
 72
     2
  0
VERTEX
  5
BE2
  8
ODPAD
 10
21.0000000000001
 20
-20.99999999999999
 30
-354.4999999999997
 70
   192
  0
VERTEX
  5
BE3
  8
ODPAD
 10
21.0000000000001
 20
-19.99999999999999
 30
-354.4999999999997
 70
   192
  0
VERTEX
  5
BE4
  8
ODPAD
 10
21.0000000000001
 20
-19.99999999999999
 30
-345.4999999999997
 70
   192
  0
VERTEX
  5
BE5
  8
ODPAD
 10
21.0000000000001
 20
-20.99999999999999
 30
-345.4999999999997
 70
   192
  0
VERTEX
  5
BE6
  8
ODPAD
 10
0.0
 20
0.0
 30
0.0
 70
   128
 71
     1
 72
     4
 73
    -3
  0
VERTEX
  5
BE7
  8
ODPAD
 10
0.0
 20
0.0
 30
0.0
 70
   128
 71
    -1
 72
     3
 73
     2
  0
SEQEND
  5
D5F
  8
ODPAD
  0
POLYLINE
  5
BE8
  8
ODPAD
 66
     1
 10
0.0
 20
0.0
 30
0.0
 70
    64
 71
     4
 72
     2
  0
VERTEX
  5
BE9
  8
ODPAD
 10
21.0000000000001
 20
-20.99999999999999
 30
-345.4999999999997
 70
   192
  0
VERTEX
  5
BEA
  8
ODPAD
 10
21.0000000000001
 20
-19.99999999999999
 30
-345.4999999999997
 70
   192
  0
VERTEX
  5
BEB
  8
ODPAD
 10
12.00000000000012
 20
-19.99999999999999
 30
-345.4999999999997
 70
   192
  0
VERTEX
  5
BEC
  8
ODPAD
 10
12.00000000000012
 20
-20.99999999999999
 30
-345.4999999999997
 70
   192
  0
VERTEX
  5
BED
  8
ODPAD
 10
0.0
 20
0.0
 30
0.0
 70
   128
 71
     1
 72
     4
 73
    -3
  0
VERTEX
  5
BEE
  8
ODPAD
 10
0.0
 20
0.0
 30
0.0
 70
   128
 71
    -1
 72
     3
 73
     2
  0
SEQEND
  5
D60
  8
ODPAD
  0
POLYLINE
  5
BEF
  8
ODPAD
 66
     1
 10
0.0
 20
0.0
 30
0.0
 70
    64
 71
     4
 72
     2
  0
VERTEX
  5
BF0
  8
ODPAD
 10
-4.499999999999893
 20
-20.99999999999999
 30
-345.4999999999997
 70
   192
  0
VERTEX
  5
BF1
  8
ODPAD
 10
-4.499999999999893
 20
-19.99999999999999
 30
-345.4999999999997
 70
   192
  0
VERTEX
  5
BF2
  8
ODPAD
 10
-4.499999999999893
 20
-19.99999999999999
 30
-354.4999999999997
 70
   192
  0
VERTEX
  5
BF3
  8
ODPAD
 10
-4.499999999999896
 20
-20.99999999999999
 30
-354.4999999999997
 70
   192
  0
VERTEX
  5
BF4
  8
ODPAD
 10
0.0
 20
0.0
 30
0.0
 70
   128
 71
     1
 72
     4
 73
    -3
  0
VERTEX
  5
BF5
  8
ODPAD
 10
0.0
 20
0.0
 30
0.0
 70
   128
 71
    -1
 72
     3
 73
     2
  0
SEQEND
  5
D61
  8
ODPAD
  0
POLYLINE
  5
BF6
  8
ODPAD
 66
     1
 10
0.0
 20
0.0
 30
0.0
 70
    64
 71
     4
 72
     2
  0
VERTEX
  5
BF7
  8
ODPAD
 10
-4.499999999999893
 20
-20.99999999999999
 30
-354.4999999999997
 70
   192
  0
VERTEX
  5
BF8
  8
ODPAD
 10
-4.499999999999893
 20
-19.99999999999999
 30
-354.4999999999997
 70
   192
  0
VERTEX
  5
BF9
  8
ODPAD
 10
4.500000000000115
 20
-19.99999999999999
 30
-354.4999999999997
 70
   192
  0
VERTEX
  5
BFA
  8
ODPAD
 10
4.500000000000115
 20
-20.99999999999999
 30
-354.4999999999997
 70
   192
  0
VERTEX
  5
BFB
  8
ODPAD
 10
0.0
 20
0.0
 30
0.0
 70
   128
 71
     1
 72
     4
 73
    -3
  0
VERTEX
  5
BFC
  8
ODPAD
 10
0.0
 20
0.0
 30
0.0
 70
   128
 71
    -1
 72
     3
 73
     2
  0
SEQEND
  5
D62
  8
ODPAD
  0
POLYLINE
  5
BFD
  8
ODPAD
 66
     1
 10
0.0
 20
0.0
 30
0.0
 70
    64
 71
     4
 72
     2
  0
VERTEX
  5
BFE
  8
ODPAD
 10
4.500000000000115
 20
-20.99999999999999
 30
-354.4999999999997
 70
   192
  0
VERTEX
  5
BFF
  8
ODPAD
 10
4.500000000000116
 20
-19.99999999999999
 30
-354.4999999999997
 70
   192
  0
VERTEX
  5
C00
  8
ODPAD
 10
4.500000000000115
 20
-19.99999999999999
 30
-345.4999999999997
 70
   192
  0
VERTEX
  5
C01
  8
ODPAD
 10
4.500000000000115
 20
-20.99999999999999
 30
-345.4999999999997
 70
   192
  0
VERTEX
  5
C02
  8
ODPAD
 10
0.0
 20
0.0
 30
0.0
 70
   128
 71
     1
 72
     4
 73
    -3
  0
VERTEX
  5
C03
  8
ODPAD
 10
0.0
 20
0.0
 30
0.0
 70
   128
 71
    -1
 72
     3
 73
     2
  0
SEQEND
  5
D63
  8
ODPAD
  0
POLYLINE
  5
C04
  8
ODPAD
 66
     1
 10
0.0
 20
0.0
 30
0.0
 70
    64
 71
     4
 72
     2
  0
VERTEX
  5
C05
  8
ODPAD
 10
4.500000000000115
 20
-20.99999999999999
 30
-345.4999999999997
 70
   192
  0
VERTEX
  5
C06
  8
ODPAD
 10
4.500000000000115
 20
-19.99999999999999
 30
-345.4999999999997
 70
   192
  0
VERTEX
  5
C07
  8
ODPAD
 10
-4.499999999999893
 20
-19.99999999999999
 30
-345.4999999999997
 70
   192
  0
VERTEX
  5
C08
  8
ODPAD
 10
-4.499999999999879
 20
-20.99999999999999
 30
-345.4999999999997
 70
   192
  0
VERTEX
  5
C09
  8
ODPAD
 10
0.0
 20
0.0
 30
0.0
 70
   128
 71
     1
 72
     4
 73
    -3
  0
VERTEX
  5
C0A
  8
ODPAD
 10
0.0
 20
0.0
 30
0.0
 70
   128
 71
    -1
 72
     3
 73
     2
  0
SEQEND
  5
D64
  8
ODPAD
  0
POLYLINE
  5
C0B
  8
ODPAD
 66
     1
 10
0.0
 20
0.0
 30
0.0
 70
    64
 71
     4
 72
     2
  0
VERTEX
  5
C0C
  8
ODPAD
 10
-20.99999999999988
 20
-20.99999999999999
 30
-345.4999999999997
 70
   192
  0
VERTEX
  5
C0D
  8
ODPAD
 10
-20.99999999999988
 20
-19.99999999999999
 30
-345.4999999999997
 70
   192
  0
VERTEX
  5
C0E
  8
ODPAD
 10
-20.99999999999988
 20
-19.99999999999999
 30
-354.4999999999997
 70
   192
  0
VERTEX
  5
C0F
  8
ODPAD
 10
-20.99999999999988
 20
-20.99999999999999
 30
-354.4999999999997
 70
   192
  0
VERTEX
  5
C10
  8
ODPAD
 10
0.0
 20
0.0
 30
0.0
 70
   128
 71
     1
 72
     4
 73
    -3
  0
VERTEX
  5
C11
  8
ODPAD
 10
0.0
 20
0.0
 30
0.0
 70
   128
 71
    -1
 72
     3
 73
     2
  0
SEQEND
  5
D65
  8
ODPAD
  0
POLYLINE
  5
C12
  8
ODPAD
 66
     1
 10
0.0
 20
0.0
 30
0.0
 70
    64
 71
     4
 72
     2
  0
VERTEX
  5
C13
  8
ODPAD
 10
-20.99999999999988
 20
-20.99999999999999
 30
-354.4999999999997
 70
   192
  0
VERTEX
  5
C14
  8
ODPAD
 10
-20.99999999999988
 20
-19.99999999999999
 30
-354.4999999999997
 70
   192
  0
VERTEX
  5
C15
  8
ODPAD
 10
-11.99999999999989
 20
-19.99999999999999
 30
-354.4999999999997
 70
   192
  0
VERTEX
  5
C16
  8
ODPAD
 10
-11.99999999999989
 20
-20.99999999999999
 30
-354.4999999999997
 70
   192
  0
VERTEX
  5
C17
  8
ODPAD
 10
0.0
 20
0.0
 30
0.0
 70
   128
 71
     1
 72
     4
 73
    -3
  0
VERTEX
  5
C18
  8
ODPAD
 10
0.0
 20
0.0
 30
0.0
 70
   128
 71
    -1
 72
     3
 73
     2
  0
SEQEND
  5
D66
  8
ODPAD
  0
POLYLINE
  5
C19
  8
ODPAD
 66
     1
 10
0.0
 20
0.0
 30
0.0
 70
    64
 71
     4
 72
     2
  0
VERTEX
  5
C1A
  8
ODPAD
 10
-11.99999999999989
 20
-20.99999999999999
 30
-354.4999999999997
 70
   192
  0
VERTEX
  5
C1B
  8
ODPAD
 10
-11.99999999999989
 20
-19.99999999999999
 30
-354.4999999999997
 70
   192
  0
VERTEX
  5
C1C
  8
ODPAD
 10
-11.99999999999989
 20
-19.99999999999999
 30
-345.4999999999997
 70
   192
  0
VERTEX
  5
C1D
  8
ODPAD
 10
-11.99999999999989
 20
-20.99999999999999
 30
-345.4999999999997
 70
   192
  0
VERTEX
  5
C1E
  8
ODPAD
 10
0.0
 20
0.0
 30
0.0
 70
   128
 71
     1
 72
     4
 73
    -3
  0
VERTEX
  5
C1F
  8
ODPAD
 10
0.0
 20
0.0
 30
0.0
 70
   128
 71
    -1
 72
     3
 73
     2
  0
SEQEND
  5
D67
  8
ODPAD
  0
POLYLINE
  5
C20
  8
ODPAD
 66
     1
 10
0.0
 20
0.0
 30
0.0
 70
    64
 71
     4
 72
     2
  0
VERTEX
  5
C21
  8
ODPAD
 10
-11.99999999999989
 20
-20.99999999999999
 30
-345.4999999999997
 70
   192
  0
VERTEX
  5
C22
  8
ODPAD
 10
-11.99999999999989
 20
-19.99999999999999
 30
-345.4999999999997
 70
   192
  0
VERTEX
  5
C23
  8
ODPAD
 10
-20.99999999999988
 20
-19.99999999999999
 30
-345.4999999999997
 70
   192
  0
VERTEX
  5
C24
  8
ODPAD
 10
-20.99999999999988
 20
-20.99999999999999
 30
-345.4999999999997
 70
   192
  0
VERTEX
  5
C25
  8
ODPAD
 10
0.0
 20
0.0
 30
0.0
 70
   128
 71
     1
 72
     4
 73
    -3
  0
VERTEX
  5
C26
  8
ODPAD
 10
0.0
 20
0.0
 30
0.0
 70
   128
 71
    -1
 72
     3
 73
     2
  0
SEQEND
  5
D68
  8
ODPAD
  0
POLYLINE
  5
C27
  8
ODPAD
 66
     1
 10
0.0
 20
0.0
 30
0.0
 70
    64
 71
     4
 72
     2
  0
VERTEX
  5
C28
  8
ODPAD
 10
28.49999999999994
 20
-20.99999999999999
 30
-361.9999999999997
 70
   192
  0
VERTEX
  5
C29
  8
ODPAD
 10
28.49999999999994
 20
-19.99999999999999
 30
-361.9999999999997
 70
   192
  0
VERTEX
  5
C2A
  8
ODPAD
 10
28.49999999999994
 20
-19.99999999999999
 30
-370.9999999999997
 70
   192
  0
VERTEX
  5
C2B
  8
ODPAD
 10
28.49999999999994
 20
-20.99999999999999
 30
-370.9999999999997
 70
   192
  0
VERTEX
  5
C2C
  8
ODPAD
 10
0.0
 20
0.0
 30
0.0
 70
   128
 71
     1
 72
     4
 73
    -3
  0
VERTEX
  5
C2D
  8
ODPAD
 10
0.0
 20
0.0
 30
0.0
 70
   128
 71
    -1
 72
     3
 73
     2
  0
SEQEND
  5
D69
  8
ODPAD
  0
POLYLINE
  5
C2E
  8
ODPAD
 66
     1
 10
0.0
 20
0.0
 30
0.0
 70
    64
 71
     4
 72
     2
  0
VERTEX
  5
C2F
  8
ODPAD
 10
28.49999999999994
 20
-20.99999999999999
 30
-370.9999999999997
 70
   192
  0
VERTEX
  5
C30
  8
ODPAD
 10
28.49999999999994
 20
-19.99999999999999
 30
-370.9999999999997
 70
   192
  0
VERTEX
  5
C31
  8
ODPAD
 10
37.49999999999992
 20
-19.99999999999999
 30
-370.9999999999997
 70
   192
  0
VERTEX
  5
C32
  8
ODPAD
 10
37.49999999999992
 20
-20.99999999999999
 30
-370.9999999999997
 70
   192
  0
VERTEX
  5
C33
  8
ODPAD
 10
0.0
 20
0.0
 30
0.0
 70
   128
 71
     1
 72
     4
 73
    -3
  0
VERTEX
  5
C34
  8
ODPAD
 10
0.0
 20
0.0
 30
0.0
 70
   128
 71
    -1
 72
     3
 73
     2
  0
SEQEND
  5
D6A
  8
ODPAD
  0
POLYLINE
  5
C35
  8
ODPAD
 66
     1
 10
0.0
 20
0.0
 30
0.0
 70
    64
 71
     4
 72
     2
  0
VERTEX
  5
C36
  8
ODPAD
 10
37.49999999999992
 20
-20.99999999999999
 30
-370.9999999999997
 70
   192
  0
VERTEX
  5
C37
  8
ODPAD
 10
37.49999999999992
 20
-19.99999999999999
 30
-370.9999999999997
 70
   192
  0
VERTEX
  5
C38
  8
ODPAD
 10
37.49999999999992
 20
-19.99999999999999
 30
-361.9999999999997
 70
   192
  0
VERTEX
  5
C39
  8
ODPAD
 10
37.49999999999992
 20
-20.99999999999999
 30
-361.9999999999997
 70
   192
  0
VERTEX
  5
C3A
  8
ODPAD
 10
0.0
 20
0.0
 30
0.0
 70
   128
 71
     1
 72
     4
 73
    -3
  0
VERTEX
  5
C3B
  8
ODPAD
 10
0.0
 20
0.0
 30
0.0
 70
   128
 71
    -1
 72
     3
 73
     2
  0
SEQEND
  5
D6B
  8
ODPAD
  0
POLYLINE
  5
C3C
  8
ODPAD
 66
     1
 10
0.0
 20
0.0
 30
0.0
 70
    64
 71
     4
 72
     2
  0
VERTEX
  5
C3D
  8
ODPAD
 10
37.49999999999992
 20
-20.99999999999999
 30
-361.9999999999997
 70
   192
  0
VERTEX
  5
C3E
  8
ODPAD
 10
37.49999999999992
 20
-19.99999999999999
 30
-361.9999999999997
 70
   192
  0
VERTEX
  5
C3F
  8
ODPAD
 10
28.49999999999994
 20
-19.99999999999999
 30
-361.9999999999997
 70
   192
  0
VERTEX
  5
C40
  8
ODPAD
 10
28.49999999999994
 20
-20.99999999999999
 30
-361.9999999999997
 70
   192
  0
VERTEX
  5
C41
  8
ODPAD
 10
0.0
 20
0.0
 30
0.0
 70
   128
 71
     1
 72
     4
 73
    -3
  0
VERTEX
  5
C42
  8
ODPAD
 10
0.0
 20
0.0
 30
0.0
 70
   128
 71
    -1
 72
     3
 73
     2
  0
SEQEND
  5
D6C
  8
ODPAD
  0
POLYLINE
  5
C43
  8
ODPAD
 66
     1
 10
0.0
 20
0.0
 30
0.0
 70
    64
 71
     4
 72
     2
  0
VERTEX
  5
C44
  8
ODPAD
 10
11.99999999999996
 20
-20.99999999999999
 30
-361.9999999999997
 70
   192
  0
VERTEX
  5
C45
  8
ODPAD
 10
11.99999999999996
 20
-19.99999999999999
 30
-361.9999999999997
 70
   192
  0
VERTEX
  5
C46
  8
ODPAD
 10
11.99999999999996
 20
-19.99999999999999
 30
-370.9999999999997
 70
   192
  0
VERTEX
  5
C47
  8
ODPAD
 10
11.99999999999996
 20
-20.99999999999999
 30
-370.9999999999997
 70
   192
  0
VERTEX
  5
C48
  8
ODPAD
 10
0.0
 20
0.0
 30
0.0
 70
   128
 71
     1
 72
     4
 73
    -3
  0
VERTEX
  5
C49
  8
ODPAD
 10
0.0
 20
0.0
 30
0.0
 70
   128
 71
    -1
 72
     3
 73
     2
  0
SEQEND
  5
D6D
  8
ODPAD
  0
POLYLINE
  5
C4A
  8
ODPAD
 66
     1
 10
0.0
 20
0.0
 30
0.0
 70
    64
 71
     4
 72
     2
  0
VERTEX
  5
C4B
  8
ODPAD
 10
11.99999999999996
 20
-20.99999999999999
 30
-370.9999999999997
 70
   192
  0
VERTEX
  5
C4C
  8
ODPAD
 10
11.99999999999996
 20
-19.99999999999999
 30
-370.9999999999997
 70
   192
  0
VERTEX
  5
C4D
  8
ODPAD
 10
20.99999999999994
 20
-19.99999999999999
 30
-370.9999999999997
 70
   192
  0
VERTEX
  5
C4E
  8
ODPAD
 10
20.99999999999994
 20
-20.99999999999999
 30
-370.9999999999997
 70
   192
  0
VERTEX
  5
C4F
  8
ODPAD
 10
0.0
 20
0.0
 30
0.0
 70
   128
 71
     1
 72
     4
 73
    -3
  0
VERTEX
  5
C50
  8
ODPAD
 10
0.0
 20
0.0
 30
0.0
 70
   128
 71
    -1
 72
     3
 73
     2
  0
SEQEND
  5
D6E
  8
ODPAD
  0
POLYLINE
  5
C51
  8
ODPAD
 66
     1
 10
0.0
 20
0.0
 30
0.0
 70
    64
 71
     4
 72
     2
  0
VERTEX
  5
C52
  8
ODPAD
 10
20.99999999999994
 20
-20.99999999999999
 30
-370.9999999999997
 70
   192
  0
VERTEX
  5
C53
  8
ODPAD
 10
20.99999999999994
 20
-19.99999999999999
 30
-370.9999999999997
 70
   192
  0
VERTEX
  5
C54
  8
ODPAD
 10
20.99999999999994
 20
-19.99999999999999
 30
-361.9999999999997
 70
   192
  0
VERTEX
  5
C55
  8
ODPAD
 10
20.99999999999994
 20
-20.99999999999999
 30
-361.9999999999997
 70
   192
  0
VERTEX
  5
C56
  8
ODPAD
 10
0.0
 20
0.0
 30
0.0
 70
   128
 71
     1
 72
     4
 73
    -3
  0
VERTEX
  5
C57
  8
ODPAD
 10
0.0
 20
0.0
 30
0.0
 70
   128
 71
    -1
 72
     3
 73
     2
  0
SEQEND
  5
D6F
  8
ODPAD
  0
POLYLINE
  5
C58
  8
ODPAD
 66
     1
 10
0.0
 20
0.0
 30
0.0
 70
    64
 71
     4
 72
     2
  0
VERTEX
  5
C59
  8
ODPAD
 10
20.99999999999994
 20
-20.99999999999999
 30
-361.9999999999997
 70
   192
  0
VERTEX
  5
C5A
  8
ODPAD
 10
20.99999999999994
 20
-19.99999999999999
 30
-361.9999999999997
 70
   192
  0
VERTEX
  5
C5B
  8
ODPAD
 10
11.99999999999996
 20
-19.99999999999999
 30
-361.9999999999997
 70
   192
  0
VERTEX
  5
C5C
  8
ODPAD
 10
11.99999999999996
 20
-20.99999999999999
 30
-361.9999999999997
 70
   192
  0
VERTEX
  5
C5D
  8
ODPAD
 10
0.0
 20
0.0
 30
0.0
 70
   128
 71
     1
 72
     4
 73
    -3
  0
VERTEX
  5
C5E
  8
ODPAD
 10
0.0
 20
0.0
 30
0.0
 70
   128
 71
    -1
 72
     3
 73
     2
  0
SEQEND
  5
D70
  8
ODPAD
  0
POLYLINE
  5
C5F
  8
ODPAD
 66
     1
 10
0.0
 20
0.0
 30
0.0
 70
    64
 71
     4
 72
     2
  0
VERTEX
  5
C60
  8
ODPAD
 10
-4.50000000000006
 20
-20.99999999999999
 30
-361.9999999999997
 70
   192
  0
VERTEX
  5
C61
  8
ODPAD
 10
-4.50000000000006
 20
-19.99999999999999
 30
-361.9999999999997
 70
   192
  0
VERTEX
  5
C62
  8
ODPAD
 10
-4.50000000000006
 20
-19.99999999999999
 30
-370.9999999999997
 70
   192
  0
VERTEX
  5
C63
  8
ODPAD
 10
-4.50000000000006
 20
-20.99999999999999
 30
-370.9999999999997
 70
   192
  0
VERTEX
  5
C64
  8
ODPAD
 10
0.0
 20
0.0
 30
0.0
 70
   128
 71
     1
 72
     4
 73
    -3
  0
VERTEX
  5
C65
  8
ODPAD
 10
0.0
 20
0.0
 30
0.0
 70
   128
 71
    -1
 72
     3
 73
     2
  0
SEQEND
  5
D71
  8
ODPAD
  0
POLYLINE
  5
C66
  8
ODPAD
 66
     1
 10
0.0
 20
0.0
 30
0.0
 70
    64
 71
     4
 72
     2
  0
VERTEX
  5
C67
  8
ODPAD
 10
-4.50000000000006
 20
-20.99999999999999
 30
-370.9999999999997
 70
   192
  0
VERTEX
  5
C68
  8
ODPAD
 10
-4.500000000000059
 20
-19.99999999999999
 30
-370.9999999999997
 70
   192
  0
VERTEX
  5
C69
  8
ODPAD
 10
4.499999999999934
 20
-19.99999999999999
 30
-370.9999999999997
 70
   192
  0
VERTEX
  5
C6A
  8
ODPAD
 10
4.499999999999934
 20
-20.99999999999999
 30
-370.9999999999997
 70
   192
  0
VERTEX
  5
C6B
  8
ODPAD
 10
0.0
 20
0.0
 30
0.0
 70
   128
 71
     1
 72
     4
 73
    -3
  0
VERTEX
  5
C6C
  8
ODPAD
 10
0.0
 20
0.0
 30
0.0
 70
   128
 71
    -1
 72
     3
 73
     2
  0
SEQEND
  5
D72
  8
ODPAD
  0
POLYLINE
  5
C6D
  8
ODPAD
 66
     1
 10
0.0
 20
0.0
 30
0.0
 70
    64
 71
     4
 72
     2
  0
VERTEX
  5
C6E
  8
ODPAD
 10
4.499999999999934
 20
-20.99999999999999
 30
-370.9999999999997
 70
   192
  0
VERTEX
  5
C6F
  8
ODPAD
 10
4.499999999999934
 20
-19.99999999999999
 30
-370.9999999999997
 70
   192
  0
VERTEX
  5
C70
  8
ODPAD
 10
4.499999999999934
 20
-19.99999999999999
 30
-361.9999999999997
 70
   192
  0
VERTEX
  5
C71
  8
ODPAD
 10
4.499999999999934
 20
-20.99999999999999
 30
-361.9999999999997
 70
   192
  0
VERTEX
  5
C72
  8
ODPAD
 10
0.0
 20
0.0
 30
0.0
 70
   128
 71
     1
 72
     4
 73
    -3
  0
VERTEX
  5
C73
  8
ODPAD
 10
0.0
 20
0.0
 30
0.0
 70
   128
 71
    -1
 72
     3
 73
     2
  0
SEQEND
  5
D73
  8
ODPAD
  0
POLYLINE
  5
C74
  8
ODPAD
 66
     1
 10
0.0
 20
0.0
 30
0.0
 70
    64
 71
     4
 72
     2
  0
VERTEX
  5
C75
  8
ODPAD
 10
4.499999999999934
 20
-20.99999999999999
 30
-361.9999999999997
 70
   192
  0
VERTEX
  5
C76
  8
ODPAD
 10
4.499999999999934
 20
-19.99999999999999
 30
-361.9999999999997
 70
   192
  0
VERTEX
  5
C77
  8
ODPAD
 10
-4.50000000000006
 20
-19.99999999999999
 30
-361.9999999999997
 70
   192
  0
VERTEX
  5
C78
  8
ODPAD
 10
-4.500000000000059
 20
-20.99999999999999
 30
-361.9999999999997
 70
   192
  0
VERTEX
  5
C79
  8
ODPAD
 10
0.0
 20
0.0
 30
0.0
 70
   128
 71
     1
 72
     4
 73
    -3
  0
VERTEX
  5
C7A
  8
ODPAD
 10
0.0
 20
0.0
 30
0.0
 70
   128
 71
    -1
 72
     3
 73
     2
  0
SEQEND
  5
D74
  8
ODPAD
  0
POLYLINE
  5
C7B
  8
ODPAD
 66
     1
 10
0.0
 20
0.0
 30
0.0
 70
    64
 71
     4
 72
     2
  0
VERTEX
  5
C7C
  8
ODPAD
 10
-21.00000000000006
 20
-20.99999999999999
 30
-361.9999999999997
 70
   192
  0
VERTEX
  5
C7D
  8
ODPAD
 10
-21.00000000000006
 20
-19.99999999999999
 30
-361.9999999999997
 70
   192
  0
VERTEX
  5
C7E
  8
ODPAD
 10
-21.00000000000006
 20
-19.99999999999999
 30
-370.9999999999997
 70
   192
  0
VERTEX
  5
C7F
  8
ODPAD
 10
-21.00000000000006
 20
-20.99999999999999
 30
-370.9999999999997
 70
   192
  0
VERTEX
  5
C80
  8
ODPAD
 10
0.0
 20
0.0
 30
0.0
 70
   128
 71
     1
 72
     4
 73
    -3
  0
VERTEX
  5
C81
  8
ODPAD
 10
0.0
 20
0.0
 30
0.0
 70
   128
 71
    -1
 72
     3
 73
     2
  0
SEQEND
  5
D75
  8
ODPAD
  0
POLYLINE
  5
C82
  8
ODPAD
 66
     1
 10
0.0
 20
0.0
 30
0.0
 70
    64
 71
     4
 72
     2
  0
VERTEX
  5
C83
  8
ODPAD
 10
-21.00000000000006
 20
-20.99999999999999
 30
-370.9999999999997
 70
   192
  0
VERTEX
  5
C84
  8
ODPAD
 10
-21.00000000000006
 20
-19.99999999999999
 30
-370.9999999999997
 70
   192
  0
VERTEX
  5
C85
  8
ODPAD
 10
-12.00000000000007
 20
-19.99999999999999
 30
-370.9999999999997
 70
   192
  0
VERTEX
  5
C86
  8
ODPAD
 10
-12.00000000000007
 20
-20.99999999999999
 30
-370.9999999999997
 70
   192
  0
VERTEX
  5
C87
  8
ODPAD
 10
0.0
 20
0.0
 30
0.0
 70
   128
 71
     1
 72
     4
 73
    -3
  0
VERTEX
  5
C88
  8
ODPAD
 10
0.0
 20
0.0
 30
0.0
 70
   128
 71
    -1
 72
     3
 73
     2
  0
SEQEND
  5
D76
  8
ODPAD
  0
POLYLINE
  5
C89
  8
ODPAD
 66
     1
 10
0.0
 20
0.0
 30
0.0
 70
    64
 71
     4
 72
     2
  0
VERTEX
  5
C8A
  8
ODPAD
 10
-12.00000000000007
 20
-20.99999999999999
 30
-370.9999999999997
 70
   192
  0
VERTEX
  5
C8B
  8
ODPAD
 10
-12.00000000000007
 20
-19.99999999999999
 30
-370.9999999999997
 70
   192
  0
VERTEX
  5
C8C
  8
ODPAD
 10
-12.00000000000007
 20
-19.99999999999999
 30
-361.9999999999997
 70
   192
  0
VERTEX
  5
C8D
  8
ODPAD
 10
-12.00000000000007
 20
-20.99999999999999
 30
-361.9999999999997
 70
   192
  0
VERTEX
  5
C8E
  8
ODPAD
 10
0.0
 20
0.0
 30
0.0
 70
   128
 71
     1
 72
     4
 73
    -3
  0
VERTEX
  5
C8F
  8
ODPAD
 10
0.0
 20
0.0
 30
0.0
 70
   128
 71
    -1
 72
     3
 73
     2
  0
SEQEND
  5
D77
  8
ODPAD
  0
POLYLINE
  5
C90
  8
ODPAD
 66
     1
 10
0.0
 20
0.0
 30
0.0
 70
    64
 71
     4
 72
     2
  0
VERTEX
  5
C91
  8
ODPAD
 10
-12.00000000000007
 20
-20.99999999999999
 30
-361.9999999999997
 70
   192
  0
VERTEX
  5
C92
  8
ODPAD
 10
-12.00000000000007
 20
-19.99999999999999
 30
-361.9999999999997
 70
   192
  0
VERTEX
  5
C93
  8
ODPAD
 10
-21.00000000000006
 20
-19.99999999999999
 30
-361.9999999999997
 70
   192
  0
VERTEX
  5
C94
  8
ODPAD
 10
-21.00000000000006
 20
-20.99999999999999
 30
-361.9999999999997
 70
   192
  0
VERTEX
  5
C95
  8
ODPAD
 10
0.0
 20
0.0
 30
0.0
 70
   128
 71
     1
 72
     4
 73
    -3
  0
VERTEX
  5
C96
  8
ODPAD
 10
0.0
 20
0.0
 30
0.0
 70
   128
 71
    -1
 72
     3
 73
     2
  0
SEQEND
  5
D78
  8
ODPAD
  0
POLYLINE
  5
C97
  8
ODPAD
 66
     1
 10
0.0
 20
0.0
 30
0.0
 70
    64
 71
     4
 72
     2
  0
VERTEX
  5
C98
  8
ODPAD
 10
28.49999999999978
 20
-20.99999999999999
 30
-378.4999999999997
 70
   192
  0
VERTEX
  5
C99
  8
ODPAD
 10
28.49999999999978
 20
-19.99999999999999
 30
-378.4999999999997
 70
   192
  0
VERTEX
  5
C9A
  8
ODPAD
 10
28.49999999999978
 20
-19.99999999999999
 30
-387.4999999999997
 70
   192
  0
VERTEX
  5
C9B
  8
ODPAD
 10
28.49999999999978
 20
-20.99999999999999
 30
-387.4999999999997
 70
   192
  0
VERTEX
  5
C9C
  8
ODPAD
 10
0.0
 20
0.0
 30
0.0
 70
   128
 71
     1
 72
     4
 73
    -3
  0
VERTEX
  5
C9D
  8
ODPAD
 10
0.0
 20
0.0
 30
0.0
 70
   128
 71
    -1
 72
     3
 73
     2
  0
SEQEND
  5
D79
  8
ODPAD
  0
POLYLINE
  5
C9E
  8
ODPAD
 66
     1
 10
0.0
 20
0.0
 30
0.0
 70
    64
 71
     4
 72
     2
  0
VERTEX
  5
C9F
  8
ODPAD
 10
28.49999999999978
 20
-20.99999999999999
 30
-387.4999999999997
 70
   192
  0
VERTEX
  5
CA0
  8
ODPAD
 10
28.49999999999978
 20
-19.99999999999999
 30
-387.4999999999997
 70
   192
  0
VERTEX
  5
CA1
  8
ODPAD
 10
37.49999999999976
 20
-19.99999999999999
 30
-387.4999999999997
 70
   192
  0
VERTEX
  5
CA2
  8
ODPAD
 10
37.49999999999976
 20
-20.99999999999999
 30
-387.4999999999997
 70
   192
  0
VERTEX
  5
CA3
  8
ODPAD
 10
0.0
 20
0.0
 30
0.0
 70
   128
 71
     1
 72
     4
 73
    -3
  0
VERTEX
  5
CA4
  8
ODPAD
 10
0.0
 20
0.0
 30
0.0
 70
   128
 71
    -1
 72
     3
 73
     2
  0
SEQEND
  5
D7A
  8
ODPAD
  0
POLYLINE
  5
CA5
  8
ODPAD
 66
     1
 10
0.0
 20
0.0
 30
0.0
 70
    64
 71
     4
 72
     2
  0
VERTEX
  5
CA6
  8
ODPAD
 10
37.49999999999976
 20
-20.99999999999999
 30
-387.4999999999997
 70
   192
  0
VERTEX
  5
CA7
  8
ODPAD
 10
37.49999999999976
 20
-19.99999999999999
 30
-387.4999999999997
 70
   192
  0
VERTEX
  5
CA8
  8
ODPAD
 10
37.49999999999976
 20
-19.99999999999999
 30
-378.4999999999997
 70
   192
  0
VERTEX
  5
CA9
  8
ODPAD
 10
37.49999999999976
 20
-20.99999999999999
 30
-378.4999999999997
 70
   192
  0
VERTEX
  5
CAA
  8
ODPAD
 10
0.0
 20
0.0
 30
0.0
 70
   128
 71
     1
 72
     4
 73
    -3
  0
VERTEX
  5
CAB
  8
ODPAD
 10
0.0
 20
0.0
 30
0.0
 70
   128
 71
    -1
 72
     3
 73
     2
  0
SEQEND
  5
D7B
  8
ODPAD
  0
POLYLINE
  5
CAC
  8
ODPAD
 66
     1
 10
0.0
 20
0.0
 30
0.0
 70
    64
 71
     4
 72
     2
  0
VERTEX
  5
CAD
  8
ODPAD
 10
37.49999999999976
 20
-20.99999999999999
 30
-378.4999999999997
 70
   192
  0
VERTEX
  5
CAE
  8
ODPAD
 10
37.49999999999976
 20
-19.99999999999999
 30
-378.4999999999997
 70
   192
  0
VERTEX
  5
CAF
  8
ODPAD
 10
28.49999999999978
 20
-19.99999999999999
 30
-378.4999999999997
 70
   192
  0
VERTEX
  5
CB0
  8
ODPAD
 10
28.49999999999978
 20
-20.99999999999999
 30
-378.4999999999997
 70
   192
  0
VERTEX
  5
CB1
  8
ODPAD
 10
0.0
 20
0.0
 30
0.0
 70
   128
 71
     1
 72
     4
 73
    -3
  0
VERTEX
  5
CB2
  8
ODPAD
 10
0.0
 20
0.0
 30
0.0
 70
   128
 71
    -1
 72
     3
 73
     2
  0
SEQEND
  5
D7C
  8
ODPAD
  0
POLYLINE
  5
CB3
  8
ODPAD
 66
     1
 10
0.0
 20
0.0
 30
0.0
 70
    64
 71
     4
 72
     2
  0
VERTEX
  5
CB4
  8
ODPAD
 10
11.99999999999976
 20
-20.99999999999999
 30
-378.4999999999997
 70
   192
  0
VERTEX
  5
CB5
  8
ODPAD
 10
11.99999999999976
 20
-19.99999999999999
 30
-378.4999999999997
 70
   192
  0
VERTEX
  5
CB6
  8
ODPAD
 10
11.99999999999976
 20
-19.99999999999999
 30
-387.4999999999997
 70
   192
  0
VERTEX
  5
CB7
  8
ODPAD
 10
11.99999999999976
 20
-20.99999999999999
 30
-387.4999999999997
 70
   192
  0
VERTEX
  5
CB8
  8
ODPAD
 10
0.0
 20
0.0
 30
0.0
 70
   128
 71
     1
 72
     4
 73
    -3
  0
VERTEX
  5
CB9
  8
ODPAD
 10
0.0
 20
0.0
 30
0.0
 70
   128
 71
    -1
 72
     3
 73
     2
  0
SEQEND
  5
D7D
  8
ODPAD
  0
POLYLINE
  5
CBA
  8
ODPAD
 66
     1
 10
0.0
 20
0.0
 30
0.0
 70
    64
 71
     4
 72
     2
  0
VERTEX
  5
CBB
  8
ODPAD
 10
11.99999999999976
 20
-20.99999999999999
 30
-387.4999999999997
 70
   192
  0
VERTEX
  5
CBC
  8
ODPAD
 10
11.99999999999976
 20
-19.99999999999999
 30
-387.4999999999997
 70
   192
  0
VERTEX
  5
CBD
  8
ODPAD
 10
20.99999999999977
 20
-19.99999999999999
 30
-387.4999999999997
 70
   192
  0
VERTEX
  5
CBE
  8
ODPAD
 10
20.99999999999977
 20
-20.99999999999999
 30
-387.4999999999997
 70
   192
  0
VERTEX
  5
CBF
  8
ODPAD
 10
0.0
 20
0.0
 30
0.0
 70
   128
 71
     1
 72
     4
 73
    -3
  0
VERTEX
  5
CC0
  8
ODPAD
 10
0.0
 20
0.0
 30
0.0
 70
   128
 71
    -1
 72
     3
 73
     2
  0
SEQEND
  5
D7E
  8
ODPAD
  0
POLYLINE
  5
CC1
  8
ODPAD
 66
     1
 10
0.0
 20
0.0
 30
0.0
 70
    64
 71
     4
 72
     2
  0
VERTEX
  5
CC2
  8
ODPAD
 10
20.99999999999977
 20
-20.99999999999999
 30
-387.4999999999997
 70
   192
  0
VERTEX
  5
CC3
  8
ODPAD
 10
20.99999999999977
 20
-19.99999999999999
 30
-387.4999999999997
 70
   192
  0
VERTEX
  5
CC4
  8
ODPAD
 10
20.99999999999977
 20
-19.99999999999999
 30
-378.4999999999997
 70
   192
  0
VERTEX
  5
CC5
  8
ODPAD
 10
20.99999999999977
 20
-20.99999999999999
 30
-378.4999999999997
 70
   192
  0
VERTEX
  5
CC6
  8
ODPAD
 10
0.0
 20
0.0
 30
0.0
 70
   128
 71
     1
 72
     4
 73
    -3
  0
VERTEX
  5
CC7
  8
ODPAD
 10
0.0
 20
0.0
 30
0.0
 70
   128
 71
    -1
 72
     3
 73
     2
  0
SEQEND
  5
D7F
  8
ODPAD
  0
POLYLINE
  5
CC8
  8
ODPAD
 66
     1
 10
0.0
 20
0.0
 30
0.0
 70
    64
 71
     4
 72
     2
  0
VERTEX
  5
CC9
  8
ODPAD
 10
20.99999999999977
 20
-20.99999999999999
 30
-378.4999999999997
 70
   192
  0
VERTEX
  5
CCA
  8
ODPAD
 10
20.99999999999977
 20
-19.99999999999999
 30
-378.4999999999997
 70
   192
  0
VERTEX
  5
CCB
  8
ODPAD
 10
11.99999999999976
 20
-19.99999999999999
 30
-378.4999999999997
 70
   192
  0
VERTEX
  5
CCC
  8
ODPAD
 10
11.99999999999976
 20
-20.99999999999999
 30
-378.4999999999997
 70
   192
  0
VERTEX
  5
CCD
  8
ODPAD
 10
0.0
 20
0.0
 30
0.0
 70
   128
 71
     1
 72
     4
 73
    -3
  0
VERTEX
  5
CCE
  8
ODPAD
 10
0.0
 20
0.0
 30
0.0
 70
   128
 71
    -1
 72
     3
 73
     2
  0
SEQEND
  5
D80
  8
ODPAD
  0
POLYLINE
  5
CCF
  8
ODPAD
 66
     1
 10
0.0
 20
0.0
 30
0.0
 70
    64
 71
     4
 72
     2
  0
VERTEX
  5
CD0
  8
ODPAD
 10
-4.500000000000226
 20
-20.99999999999999
 30
-378.4999999999997
 70
   192
  0
VERTEX
  5
CD1
  8
ODPAD
 10
-4.500000000000226
 20
-19.99999999999999
 30
-378.4999999999997
 70
   192
  0
VERTEX
  5
CD2
  8
ODPAD
 10
-4.500000000000226
 20
-19.99999999999999
 30
-387.4999999999997
 70
   192
  0
VERTEX
  5
CD3
  8
ODPAD
 10
-4.500000000000226
 20
-20.99999999999999
 30
-387.4999999999997
 70
   192
  0
VERTEX
  5
CD4
  8
ODPAD
 10
0.0
 20
0.0
 30
0.0
 70
   128
 71
     1
 72
     4
 73
    -3
  0
VERTEX
  5
CD5
  8
ODPAD
 10
0.0
 20
0.0
 30
0.0
 70
   128
 71
    -1
 72
     3
 73
     2
  0
SEQEND
  5
D81
  8
ODPAD
  0
POLYLINE
  5
CD6
  8
ODPAD
 66
     1
 10
0.0
 20
0.0
 30
0.0
 70
    64
 71
     4
 72
     2
  0
VERTEX
  5
CD7
  8
ODPAD
 10
-4.500000000000226
 20
-20.99999999999999
 30
-387.4999999999997
 70
   192
  0
VERTEX
  5
CD8
  8
ODPAD
 10
-4.500000000000225
 20
-19.99999999999999
 30
-387.4999999999997
 70
   192
  0
VERTEX
  5
CD9
  8
ODPAD
 10
4.499999999999768
 20
-19.99999999999999
 30
-387.4999999999997
 70
   192
  0
VERTEX
  5
CDA
  8
ODPAD
 10
4.499999999999768
 20
-20.99999999999999
 30
-387.4999999999997
 70
   192
  0
VERTEX
  5
CDB
  8
ODPAD
 10
0.0
 20
0.0
 30
0.0
 70
   128
 71
     1
 72
     4
 73
    -3
  0
VERTEX
  5
CDC
  8
ODPAD
 10
0.0
 20
0.0
 30
0.0
 70
   128
 71
    -1
 72
     3
 73
     2
  0
SEQEND
  5
D82
  8
ODPAD
  0
POLYLINE
  5
CDD
  8
ODPAD
 66
     1
 10
0.0
 20
0.0
 30
0.0
 70
    64
 71
     4
 72
     2
  0
VERTEX
  5
CDE
  8
ODPAD
 10
4.499999999999768
 20
-20.99999999999999
 30
-387.4999999999997
 70
   192
  0
VERTEX
  5
CDF
  8
ODPAD
 10
4.499999999999768
 20
-19.99999999999999
 30
-387.4999999999997
 70
   192
  0
VERTEX
  5
CE0
  8
ODPAD
 10
4.499999999999768
 20
-19.99999999999999
 30
-378.4999999999997
 70
   192
  0
VERTEX
  5
CE1
  8
ODPAD
 10
4.499999999999768
 20
-20.99999999999999
 30
-378.4999999999997
 70
   192
  0
VERTEX
  5
CE2
  8
ODPAD
 10
0.0
 20
0.0
 30
0.0
 70
   128
 71
     1
 72
     4
 73
    -3
  0
VERTEX
  5
CE3
  8
ODPAD
 10
0.0
 20
0.0
 30
0.0
 70
   128
 71
    -1
 72
     3
 73
     2
  0
SEQEND
  5
D83
  8
ODPAD
  0
POLYLINE
  5
CE4
  8
ODPAD
 66
     1
 10
0.0
 20
0.0
 30
0.0
 70
    64
 71
     4
 72
     2
  0
VERTEX
  5
CE5
  8
ODPAD
 10
4.499999999999768
 20
-20.99999999999999
 30
-378.4999999999997
 70
   192
  0
VERTEX
  5
CE6
  8
ODPAD
 10
4.499999999999768
 20
-19.99999999999999
 30
-378.4999999999997
 70
   192
  0
VERTEX
  5
CE7
  8
ODPAD
 10
-4.500000000000226
 20
-19.99999999999999
 30
-378.4999999999997
 70
   192
  0
VERTEX
  5
CE8
  8
ODPAD
 10
-4.500000000000225
 20
-20.99999999999999
 30
-378.4999999999997
 70
   192
  0
VERTEX
  5
CE9
  8
ODPAD
 10
0.0
 20
0.0
 30
0.0
 70
   128
 71
     1
 72
     4
 73
    -3
  0
VERTEX
  5
CEA
  8
ODPAD
 10
0.0
 20
0.0
 30
0.0
 70
   128
 71
    -1
 72
     3
 73
     2
  0
SEQEND
  5
D84
  8
ODPAD
  0
POLYLINE
  5
CEB
  8
ODPAD
 66
     1
 10
0.0
 20
0.0
 30
0.0
 70
    64
 71
     4
 72
     2
  0
VERTEX
  5
CEC
  8
ODPAD
 10
-21.00000000000024
 20
-20.99999999999999
 30
-378.4999999999997
 70
   192
  0
VERTEX
  5
CED
  8
ODPAD
 10
-21.00000000000024
 20
-19.99999999999999
 30
-378.4999999999997
 70
   192
  0
VERTEX
  5
CEE
  8
ODPAD
 10
-21.00000000000024
 20
-19.99999999999999
 30
-387.4999999999997
 70
   192
  0
VERTEX
  5
CEF
  8
ODPAD
 10
-21.00000000000024
 20
-20.99999999999999
 30
-387.4999999999997
 70
   192
  0
VERTEX
  5
CF0
  8
ODPAD
 10
0.0
 20
0.0
 30
0.0
 70
   128
 71
     1
 72
     4
 73
    -3
  0
VERTEX
  5
CF1
  8
ODPAD
 10
0.0
 20
0.0
 30
0.0
 70
   128
 71
    -1
 72
     3
 73
     2
  0
SEQEND
  5
D85
  8
ODPAD
  0
POLYLINE
  5
CF2
  8
ODPAD
 66
     1
 10
0.0
 20
0.0
 30
0.0
 70
    64
 71
     4
 72
     2
  0
VERTEX
  5
CF3
  8
ODPAD
 10
-21.00000000000024
 20
-20.99999999999999
 30
-387.4999999999997
 70
   192
  0
VERTEX
  5
CF4
  8
ODPAD
 10
-21.00000000000024
 20
-19.99999999999999
 30
-387.4999999999997
 70
   192
  0
VERTEX
  5
CF5
  8
ODPAD
 10
-12.00000000000023
 20
-19.99999999999999
 30
-387.4999999999997
 70
   192
  0
VERTEX
  5
CF6
  8
ODPAD
 10
-12.00000000000023
 20
-20.99999999999999
 30
-387.4999999999997
 70
   192
  0
VERTEX
  5
CF7
  8
ODPAD
 10
0.0
 20
0.0
 30
0.0
 70
   128
 71
     1
 72
     4
 73
    -3
  0
VERTEX
  5
CF8
  8
ODPAD
 10
0.0
 20
0.0
 30
0.0
 70
   128
 71
    -1
 72
     3
 73
     2
  0
SEQEND
  5
D86
  8
ODPAD
  0
POLYLINE
  5
CF9
  8
ODPAD
 66
     1
 10
0.0
 20
0.0
 30
0.0
 70
    64
 71
     4
 72
     2
  0
VERTEX
  5
CFA
  8
ODPAD
 10
-12.00000000000023
 20
-20.99999999999999
 30
-387.4999999999997
 70
   192
  0
VERTEX
  5
CFB
  8
ODPAD
 10
-12.00000000000023
 20
-19.99999999999999
 30
-387.4999999999997
 70
   192
  0
VERTEX
  5
CFC
  8
ODPAD
 10
-12.00000000000023
 20
-19.99999999999999
 30
-378.4999999999997
 70
   192
  0
VERTEX
  5
CFD
  8
ODPAD
 10
-12.00000000000023
 20
-20.99999999999999
 30
-378.4999999999997
 70
   192
  0
VERTEX
  5
CFE
  8
ODPAD
 10
0.0
 20
0.0
 30
0.0
 70
   128
 71
     1
 72
     4
 73
    -3
  0
VERTEX
  5
CFF
  8
ODPAD
 10
0.0
 20
0.0
 30
0.0
 70
   128
 71
    -1
 72
     3
 73
     2
  0
SEQEND
  5
D87
  8
ODPAD
  0
POLYLINE
  5
D00
  8
ODPAD
 66
     1
 10
0.0
 20
0.0
 30
0.0
 70
    64
 71
     4
 72
     2
  0
VERTEX
  5
D01
  8
ODPAD
 10
-12.00000000000023
 20
-20.99999999999999
 30
-378.4999999999997
 70
   192
  0
VERTEX
  5
D02
  8
ODPAD
 10
-12.00000000000023
 20
-19.99999999999999
 30
-378.4999999999997
 70
   192
  0
VERTEX
  5
D03
  8
ODPAD
 10
-21.00000000000024
 20
-19.99999999999999
 30
-378.4999999999997
 70
   192
  0
VERTEX
  5
D04
  8
ODPAD
 10
-21.00000000000024
 20
-20.99999999999999
 30
-378.4999999999997
 70
   192
  0
VERTEX
  5
D05
  8
ODPAD
 10
0.0
 20
0.0
 30
0.0
 70
   128
 71
     1
 72
     4
 73
    -3
  0
VERTEX
  5
D06
  8
ODPAD
 10
0.0
 20
0.0
 30
0.0
 70
   128
 71
    -1
 72
     3
 73
     2
  0
SEQEND
  5
D88
  8
ODPAD
  0
ENDBLK
  5
D1E
  8
0
  0
ENDSEC
  0
SECTION
  2
ENTITIES
  0
INSERT
  5
BE
  8
VANA
  2
*X1
 10
0.0
 20
0.0
 30
0.0
  0
INSERT
  5
BF
  8
ODPAD
  2
*X2
 10
0.0
 20
0.0
 30
0.0
  0
ENDSEC
  0
EOF
