  0
SECTION
  2
HEADER
  9
$ACADVER
  1
AC1009
  9
$DWGCODEPAGE
  3
ansi_1250
  9
$INSBASE
 10
0.0
 20
0.0
 30
0.0
  9
$EXTMIN
 10
-500.0
 20
-400.0
 30
-22.00000000000011
  9
$EXTMAX
 10
500.0000000000001
 20
500.0
 30
5.000000000000114
  9
$LIMMIN
 10
0.0
 20
0.0
  9
$LIMMAX
 10
420.0
 20
297.0
  9
$ORTHOMODE
 70
     0
  9
$REGENMODE
 70
     1
  9
$FILLMODE
 70
     1
  9
$QTEXTMODE
 70
     0
  9
$MIRRTEXT
 70
     0
  9
$DRAGMODE
 70
     2
  9
$LTSCALE
 40
1.0
  9
$OSMODE
 70
   511
  9
$ATTMODE
 70
     1
  9
$TEXTSIZE
 40
2.5
  9
$TRACEWID
 40
1.0
  9
$TEXTSTYLE
  7
STANDARD
  9
$CLAYER
  8
0
  9
$CELTYPE
  6
BYLAYER
  9
$CECOLOR
 62
   256
  9
$DIMSCALE
 40
1.0
  9
$DIMASZ
 40
2.5
  9
$DIMEXO
 40
0.625
  9
$DIMDLI
 40
3.75
  9
$DIMRND
 40
0.0
  9
$DIMDLE
 40
0.0
  9
$DIMEXE
 40
1.25
  9
$DIMTP
 40
0.0
  9
$DIMTM
 40
0.0
  9
$DIMTXT
 40
2.5
  9
$DIMCEN
 40
-2.5
  9
$DIMTSZ
 40
0.0
  9
$DIMTOL
 70
     0
  9
$DIMLIM
 70
     0
  9
$DIMTIH
 70
     0
  9
$DIMTOH
 70
     0
  9
$DIMSE1
 70
     0
  9
$DIMSE2
 70
     0
  9
$DIMTAD
 70
     1
  9
$DIMZIN
 70
     8
  9
$DIMBLK
  1

  9
$DIMASO
 70
     1
  9
$DIMSHO
 70
     1
  9
$DIMPOST
  1

  9
$DIMAPOST
  1

  9
$DIMALT
 70
     0
  9
$DIMALTD
 70
     3
  9
$DIMALTF
 40
0.03937007874016
  9
$DIMLFAC
 40
1.0
  9
$DIMTOFL
 70
     1
  9
$DIMTVP
 40
0.0
  9
$DIMTIX
 70
     0
  9
$DIMSOXD
 70
     0
  9
$DIMSAH
 70
     0
  9
$DIMBLK1
  1

  9
$DIMBLK2
  1

  9
$DIMSTYLE
  2
ISO-25
  9
$DIMCLRD
 70
     0
  9
$DIMCLRE
 70
     0
  9
$DIMCLRT
 70
     0
  9
$DIMTFAC
 40
1.0
  9
$DIMGAP
 40
0.625
  9
$LUNITS
 70
     2
  9
$LUPREC
 70
     3
  9
$SKETCHINC
 40
1.0
  9
$FILLETRAD
 40
10.0
  9
$AUNITS
 70
     0
  9
$AUPREC
 70
     0
  9
$MENU
  1
.
  9
$ELEVATION
 40
0.0
  9
$PELEVATION
 40
0.0
  9
$THICKNESS
 40
0.0
  9
$LIMCHECK
 70
     0
  9
$CHAMFERA
 40
10.0
  9
$CHAMFERB
 40
10.0
  9
$SKPOLY
 70
     0
  9
$TDCREATE
 40
2455022.720692848
  9
$TDUPDATE
 40
2460489.717537882
  9
$TDINDWG
 40
0.3437411111
  9
$TDUSRTIMER
 40
0.3437411111
  9
$USRTIMER
 70
     1
  9
$ANGBASE
 50
0.0
  9
$ANGDIR
 70
     0
  9
$PDMODE
 70
     0
  9
$PDSIZE
 40
0.0
  9
$PLINEWID
 40
0.0
  9
$COORDS
 70
     1
  9
$SPLFRAME
 70
     0
  9
$SPLINETYPE
 70
     6
  9
$SPLINESEGS
 70
     8
  9
$ATTDIA
 70
     0
  9
$ATTREQ
 70
     1
  9
$HANDLING
 70
     1
  9
$HANDSEED
  5
1818
  9
$SURFTAB1
 70
     6
  9
$SURFTAB2
 70
     6
  9
$SURFTYPE
 70
     6
  9
$SURFU
 70
     6
  9
$SURFV
 70
     6
  9
$UCSNAME
  2

  9
$UCSORG
 10
0.0
 20
0.0
 30
0.0
  9
$UCSXDIR
 10
1.0
 20
0.0
 30
0.0
  9
$UCSYDIR
 10
0.0
 20
1.0
 30
0.0
  9
$PUCSNAME
  2

  9
$PUCSORG
 10
0.0
 20
0.0
 30
0.0
  9
$PUCSXDIR
 10
1.0
 20
0.0
 30
0.0
  9
$PUCSYDIR
 10
0.0
 20
1.0
 30
0.0
  9
$USERI1
 70
     0
  9
$USERI2
 70
     0
  9
$USERI3
 70
     0
  9
$USERI4
 70
     0
  9
$USERI5
 70
     0
  9
$USERR1
 40
0.0
  9
$USERR2
 40
0.0
  9
$USERR3
 40
0.0
  9
$USERR4
 40
0.0
  9
$USERR5
 40
0.0
  9
$WORLDVIEW
 70
     1
  9
$SHADEDGE
 70
     3
  9
$SHADEDIF
 70
    70
  9
$TILEMODE
 70
     1
  9
$MAXACTVP
 70
    64
  9
$PLIMCHECK
 70
     0
  9
$PEXTMIN
 10
1.000000000000000E+20
 20
1.000000000000000E+20
 30
1.000000000000000E+20
  9
$PEXTMAX
 10
-1.000000000000000E+20
 20
-1.000000000000000E+20
 30
-1.000000000000000E+20
  9
$PLIMMIN
 10
0.0
 20
0.0
  9
$PLIMMAX
 10
0.0
 20
0.0
  9
$UNITMODE
 70
     0
  9
$VISRETAIN
 70
     1
  9
$PLINEGEN
 70
     0
  9
$PSLTSCALE
 70
     1
  0
ENDSEC
  0
SECTION
  2
TABLES
  0
TABLE
  2
VPORT
 70
     1
  0
VPORT
  2
*ACTIVE
 70
     0
 10
0.0
 20
0.0
 11
1.0
 21
1.0
 12
-59.52913911148055
 22
-82.13421447491206
 13
0.0
 23
0.0
 14
10.0
 24
10.0
 15
10.0
 25
10.0
 16
0.5773502691896226
 26
0.5773502691896262
 36
0.5773502691896226
 17
-134.1869158878507
 27
-0.0000000000003624
 37
-0.0000000000002416
 40
813.6715027577163
 41
1.88293897882939
 42
50.0
 43
0.0
 44
0.0
 50
0.0
 51
0.0000000000001043
 71
    16
 72
  1000
 73
     1
 74
     3
 75
     0
 76
     0
 77
     0
 78
     0
  0
ENDTAB
  0
TABLE
  2
LTYPE
 70
     1
  0
LTYPE
  2
CONTINUOUS
 70
     0
  3
Solid line
 72
    65
 73
     0
 40
0.0
  0
ENDTAB
  0
TABLE
  2
LAYER
 70
     1
  0
LAYER
  2
0
 70
     0
 62
     7
  6
CONTINUOUS
  0
ENDTAB
  0
TABLE
  2
STYLE
 70
     2
  0
STYLE
  2
STANDARD
 70
     0
 40
0.0
 41
1.0
 50
0.0
 71
     0
 42
2.5
  3
arial.ttf
  4

  0
STYLE
  2
ANNOTATIVE
 70
     0
 40
0.0
 41
1.0
 50
0.0
 71
     0
 42
2.5
  3
arial.ttf
  4

  0
ENDTAB
  0
TABLE
  2
VIEW
 70
     0
  0
ENDTAB
  0
TABLE
  2
UCS
 70
     0
  0
ENDTAB
  0
TABLE
  2
APPID
 70
     2
  0
APPID
  2
ACAD
 70
     0
  0
APPID
  2
ACADANNOTATIVE
 70
     0
  0
ENDTAB
  0
TABLE
  2
DIMSTYLE
 70
     2
  0
DIMSTYLE
  2
ISO-25
 70
     0
  3

  4

  5

  6

  7

 40
1.0
 41
2.5
 42
0.625
 43
3.75
 44
1.25
 45
0.0
 46
0.0
 47
0.0
 48
0.0
140
2.5
141
-2.5
142
0.0
143
0.03937007874016
144
1.0
145
0.0
146
1.0
147
0.625
 71
     0
 72
     0
 73
     0
 74
     0
 75
     0
 76
     0
 77
     1
 78
     8
170
     0
171
     3
172
     1
173
     0
174
     0
175
     0
176
     0
177
     0
178
     0
  0
DIMSTYLE
  2
ANNOTATIVE
 70
     0
  3

  4

  5

  6

  7

 40
0.0
 41
2.5
 42
0.625
 43
3.75
 44
1.25
 45
0.0
 46
0.0
 47
0.0
 48
0.0
140
2.5
141
-2.5
142
0.0
143
0.03937007874016
144
1.0
145
0.0
146
1.0
147
0.625
 71
     0
 72
     0
 73
     0
 74
     0
 75
     0
 76
     0
 77
     1
 78
     8
170
     0
171
     3
172
     1
173
     0
174
     0
175
     0
176
     0
177
     0
178
     0
  0
ENDTAB
  0
ENDSEC
  0
SECTION
  2
BLOCKS
  0
BLOCK
  8
0
  2
$MODEL_SPACE
 70
     0
 10
0.0
 20
0.0
 30
0.0
  3
$MODEL_SPACE
  1

  0
ENDBLK
  5
21
  8
0
  0
BLOCK
 67
     1
  8
0
  2
$PAPER_SPACE
 70
     0
 10
0.0
 20
0.0
 30
0.0
  3
$PAPER_SPACE
  1

  0
ENDBLK
  5
1D
 67
     1
  8
0
  0
BLOCK
  8
0
  2
*X1
 70
     1
 10
0.0
 20
0.0
 30
0.0
  3
*X1
  1

  0
POLYLINE
  5
C77
  8
0
 66
     1
 10
0.0
 20
0.0
 30
0.0
 70
    64
 71
    16
 72
    14
  0
VERTEX
  5
C78
  8
0
 10
100.1344202803415
 20
438.7175604818207
 30
0.0
 70
   192
  0
VERTEX
  5
C79
  8
0
 10
100.1344202803415
 20
438.7175604818207
 30
-22.0
 70
   192
  0
VERTEX
  5
C7A
  8
0
 10
-100.1344202803415
 20
438.7175604818207
 30
-22.0
 70
   192
  0
VERTEX
  5
C7B
  8
0
 10
-100.1344202803415
 20
438.7175604818207
 30
0.0
 70
   192
  0
VERTEX
  5
C7C
  8
0
 10
405.4359905560886
 20
195.2476826029012
 30
0.0
 70
   192
  0
VERTEX
  5
C7D
  8
0
 10
405.4359905560886
 20
195.2476826029012
 30
-22.0
 70
   192
  0
VERTEX
  5
C7E
  8
0
 10
280.5704108364301
 20
351.8241671106134
 30
-22.0
 70
   192
  0
VERTEX
  5
C7F
  8
0
 10
280.5704108364301
 20
351.8241671106134
 30
0.0
 70
   192
  0
VERTEX
  5
C80
  8
0
 10
-280.5704108364301
 20
351.8241671106135
 30
0.0
 70
   192
  0
VERTEX
  5
C81
  8
0
 10
-280.5704108364301
 20
351.8241671106135
 30
-22.0
 70
   192
  0
VERTEX
  5
C82
  8
0
 10
-405.4359905560887
 20
195.2476826029012
 30
-22.0
 70
   192
  0
VERTEX
  5
C83
  8
0
 10
-405.4359905560887
 20
195.2476826029012
 30
0.0
 70
   192
  0
VERTEX
  5
C84
  8
0
 10
-450.0000000000001
 20
0.000000000000025
 30
-22.0
 70
   192
  0
VERTEX
  5
C85
  8
0
 10
-450.0
 20
0.0000000000000551
 30
0.0
 70
   192
  0
VERTEX
  5
C86
  8
0
 10
450.0
 20
0.0
 30
0.0
 70
   192
  0
VERTEX
  5
C87
  8
0
 10
450.0
 20
0.0
 30
-22.0
 70
   192
  0
VERTEX
  5
C88
  8
0
 10
0.0
 20
0.0
 30
0.0
 70
   128
 71
     1
 72
     2
 73
    -3
  0
VERTEX
  5
C89
  8
0
 10
0.0
 20
0.0
 30
0.0
 70
   128
 71
    -1
 72
     3
 73
     4
  0
VERTEX
  5
C8A
  8
0
 10
0.0
 20
0.0
 30
0.0
 70
   128
 71
     5
 72
     6
 73
    -7
  0
VERTEX
  5
C8B
  8
0
 10
0.0
 20
0.0
 30
0.0
 70
   128
 71
    -5
 72
     7
 73
     8
  0
VERTEX
  5
C8C
  8
0
 10
0.0
 20
0.0
 30
0.0
 70
   128
 71
     9
 72
    10
 73
   -11
  0
VERTEX
  5
C8D
  8
0
 10
0.0
 20
0.0
 30
0.0
 70
   128
 71
    -9
 72
    11
 73
    12
  0
VERTEX
  5
C8E
  8
0
 10
0.0
 20
0.0
 30
0.0
 70
   128
 71
    12
 72
    11
 73
   -13
  0
VERTEX
  5
C8F
  8
0
 10
0.0
 20
0.0
 30
0.0
 70
   128
 71
   -12
 72
    13
 73
    14
  0
VERTEX
  5
C90
  8
0
 10
0.0
 20
0.0
 30
0.0
 70
   128
 71
     4
 72
     3
 73
   -10
  0
VERTEX
  5
C91
  8
0
 10
0.0
 20
0.0
 30
0.0
 70
   128
 71
    -4
 72
    10
 73
     9
  0
VERTEX
  5
C92
  8
0
 10
0.0
 20
0.0
 30
0.0
 70
   128
 71
     8
 72
     7
 73
    -2
  0
VERTEX
  5
C93
  8
0
 10
0.0
 20
0.0
 30
0.0
 70
   128
 71
    -8
 72
     2
 73
     1
  0
VERTEX
  5
C94
  8
0
 10
0.0
 20
0.0
 30
0.0
 70
   128
 71
    15
 72
    16
 73
    -6
  0
VERTEX
  5
C95
  8
0
 10
0.0
 20
0.0
 30
0.0
 70
   128
 71
   -15
 72
     6
 73
     5
  0
SEQEND
  5
175B
  8
0
  0
POLYLINE
  5
C96
  8
0
 66
     1
 10
0.0
 20
0.0
 30
0.0
 70
    64
 71
     8
 72
     6
  0
VERTEX
  5
C97
  8
0
 10
378.6121276714146
 20
-243.2136031971165
 30
0.0
 70
   192
  0
VERTEX
  5
C98
  8
0
 10
378.6121276714146
 20
-243.2136031971165
 30
-22.0
 70
   192
  0
VERTEX
  5
C99
  8
0
 10
431.7843544248312
 20
-126.7370161946847
 30
-22.0
 70
   192
  0
VERTEX
  5
C9A
  8
0
 10
431.7843544248312
 20
-126.7370161946847
 30
0.0
 70
   192
  0
VERTEX
  5
C9B
  8
0
 10
294.7880594596733
 20
-340.0000000000001
 30
0.0
 70
   192
  0
VERTEX
  5
C9C
  8
0
 10
294.7880594596734
 20
-340.0000000000001
 30
-22.0
 70
   192
  0
VERTEX
  5
C9D
  8
0
 10
450.0
 20
-0.0000000000001102
 30
-22.0
 70
   192
  0
VERTEX
  5
C9E
  8
0
 10
450.0
 20
0.0
 30
0.0
 70
   192
  0
VERTEX
  5
C9F
  8
0
 10
0.0
 20
0.0
 30
0.0
 70
   128
 71
     1
 72
     2
 73
    -3
  0
VERTEX
  5
CA0
  8
0
 10
0.0
 20
0.0
 30
0.0
 70
   128
 71
    -1
 72
     3
 73
     4
  0
VERTEX
  5
CA1
  8
0
 10
0.0
 20
0.0
 30
0.0
 70
   128
 71
     5
 72
     6
 73
    -2
  0
VERTEX
  5
CA2
  8
0
 10
0.0
 20
0.0
 30
0.0
 70
   128
 71
    -5
 72
     2
 73
     1
  0
VERTEX
  5
CA3
  8
0
 10
0.0
 20
0.0
 30
0.0
 70
   128
 71
     4
 72
     3
 73
    -7
  0
VERTEX
  5
CA4
  8
0
 10
0.0
 20
0.0
 30
0.0
 70
   128
 71
    -4
 72
     7
 73
     8
  0
SEQEND
  5
175C
  8
0
  0
POLYLINE
  5
CA5
  8
0
 66
     1
 10
0.0
 20
0.0
 30
0.0
 70
    64
 71
     8
 72
     6
  0
VERTEX
  5
CA6
  8
0
 10
-371.5306806115323
 20
-235.7221953154424
 30
-22.0
 70
   192
  0
VERTEX
  5
CA7
  8
0
 10
-422.5360928187521
 20
-122.7324336329355
 30
-22.0
 70
   192
  0
VERTEX
  5
CA8
  8
0
 10
-422.5360928187521
 20
-122.7324336329355
 30
0.0
 70
   192
  0
VERTEX
  5
CA9
  8
0
 10
-371.5306806115323
 20
-235.7221953154424
 30
0.0
 70
   192
  0
VERTEX
  5
CAA
  8
0
 10
-440.0
 20
0.0000000000000539
 30
-22.0
 70
   192
  0
VERTEX
  5
CAB
  8
0
 10
-440.0
 20
0.0000000000000539
 30
0.0
 70
   192
  0
VERTEX
  5
CAC
  8
0
 10
-291.0326442171049
 20
-330.0000000000001
 30
-22.0
 70
   192
  0
VERTEX
  5
CAD
  8
0
 10
-291.0326442171049
 20
-330.0000000000001
 30
0.0
 70
   192
  0
VERTEX
  5
CAE
  8
0
 10
0.0
 20
0.0
 30
0.0
 70
   128
 71
     1
 72
     2
 73
    -3
  0
VERTEX
  5
CAF
  8
0
 10
0.0
 20
0.0
 30
0.0
 70
   128
 71
     4
 72
    -1
 73
     3
  0
VERTEX
  5
CB0
  8
0
 10
0.0
 20
0.0
 30
0.0
 70
   128
 71
     2
 72
     5
 73
    -6
  0
VERTEX
  5
CB1
  8
0
 10
0.0
 20
0.0
 30
0.0
 70
   128
 71
     3
 72
    -2
 73
     6
  0
VERTEX
  5
CB2
  8
0
 10
0.0
 20
0.0
 30
0.0
 70
   128
 71
     7
 72
     1
 73
    -4
  0
VERTEX
  5
CB3
  8
0
 10
0.0
 20
0.0
 30
0.0
 70
   128
 71
     8
 72
    -7
 73
     4
  0
SEQEND
  5
175D
  8
0
  0
POLYLINE
  5
CB4
  8
0
 66
     1
 10
0.0
 20
0.0
 30
0.0
 70
    64
 71
    16
 72
    14
  0
VERTEX
  5
CB5
  8
0
 10
-97.90921094077835
 20
428.9682813600024
 30
-22.0
 70
   192
  0
VERTEX
  5
CB6
  8
0
 10
97.90921094077835
 20
428.9682813600024
 30
-22.0
 70
   192
  0
VERTEX
  5
CB7
  8
0
 10
97.90921094077835
 20
428.9682813600024
 30
0.0
 70
   192
  0
VERTEX
  5
CB8
  8
0
 10
-97.90921094077835
 20
428.9682813600024
 30
0.0
 70
   192
  0
VERTEX
  5
CB9
  8
0
 10
274.3355128178428
 20
344.0058522859331
 30
-22.0
 70
   192
  0
VERTEX
  5
CBA
  8
0
 10
396.4263018770644
 20
190.9088452117256
 30
-22.0
 70
   192
  0
VERTEX
  5
CBB
  8
0
 10
396.4263018770644
 20
190.9088452117256
 30
0.0
 70
   192
  0
VERTEX
  5
CBC
  8
0
 10
274.3355128178428
 20
344.0058522859331
 30
0.0
 70
   192
  0
VERTEX
  5
CBD
  8
0
 10
-396.4263018770645
 20
190.9088452117256
 30
-22.0
 70
   192
  0
VERTEX
  5
CBE
  8
0
 10
-274.3355128178428
 20
344.0058522859331
 30
-22.0
 70
   192
  0
VERTEX
  5
CBF
  8
0
 10
-274.3355128178428
 20
344.0058522859331
 30
0.0
 70
   192
  0
VERTEX
  5
CC0
  8
0
 10
-396.4263018770645
 20
190.9088452117256
 30
0.0
 70
   192
  0
VERTEX
  5
CC1
  8
0
 10
-440.0
 20
0.0000000000000539
 30
-22.0
 70
   192
  0
VERTEX
  5
CC2
  8
0
 10
-440.0
 20
0.0000000000000539
 30
0.0
 70
   192
  0
VERTEX
  5
CC3
  8
0
 10
440.0
 20
0.0
 30
-22.0
 70
   192
  0
VERTEX
  5
CC4
  8
0
 10
440.0
 20
0.0
 30
0.0
 70
   192
  0
VERTEX
  5
CC5
  8
0
 10
0.0
 20
0.0
 30
0.0
 70
   128
 71
     1
 72
     2
 73
    -3
  0
VERTEX
  5
CC6
  8
0
 10
0.0
 20
0.0
 30
0.0
 70
   128
 71
     4
 72
    -1
 73
     3
  0
VERTEX
  5
CC7
  8
0
 10
0.0
 20
0.0
 30
0.0
 70
   128
 71
     5
 72
     6
 73
    -7
  0
VERTEX
  5
CC8
  8
0
 10
0.0
 20
0.0
 30
0.0
 70
   128
 71
     8
 72
    -5
 73
     7
  0
VERTEX
  5
CC9
  8
0
 10
0.0
 20
0.0
 30
0.0
 70
   128
 71
     9
 72
    10
 73
   -11
  0
VERTEX
  5
CCA
  8
0
 10
0.0
 20
0.0
 30
0.0
 70
   128
 71
    12
 72
    -9
 73
    11
  0
VERTEX
  5
CCB
  8
0
 10
0.0
 20
0.0
 30
0.0
 70
   128
 71
    13
 72
     9
 73
   -12
  0
VERTEX
  5
CCC
  8
0
 10
0.0
 20
0.0
 30
0.0
 70
   128
 71
    14
 72
   -13
 73
    12
  0
VERTEX
  5
CCD
  8
0
 10
0.0
 20
0.0
 30
0.0
 70
   128
 71
    10
 72
     1
 73
    -4
  0
VERTEX
  5
CCE
  8
0
 10
0.0
 20
0.0
 30
0.0
 70
   128
 71
    11
 72
   -10
 73
     4
  0
VERTEX
  5
CCF
  8
0
 10
0.0
 20
0.0
 30
0.0
 70
   128
 71
     2
 72
     5
 73
    -8
  0
VERTEX
  5
CD0
  8
0
 10
0.0
 20
0.0
 30
0.0
 70
   128
 71
     3
 72
    -2
 73
     8
  0
VERTEX
  5
CD1
  8
0
 10
0.0
 20
0.0
 30
0.0
 70
   128
 71
     6
 72
    15
 73
   -16
  0
VERTEX
  5
CD2
  8
0
 10
0.0
 20
0.0
 30
0.0
 70
   128
 71
     7
 72
    -6
 73
    16
  0
SEQEND
  5
175E
  8
0
  0
POLYLINE
  5
CD3
  8
0
 66
     1
 10
0.0
 20
0.0
 30
0.0
 70
    64
 71
     4
 72
     2
  0
VERTEX
  5
CD4
  8
0
 10
294.7880594596734
 20
-340.0000000000001
 30
0.0
 70
   192
  0
VERTEX
  5
CD5
  8
0
 10
294.7880594596734
 20
-340.0000000000001
 30
-22.0
 70
   192
  0
VERTEX
  5
CD6
  8
0
 10
-294.7880594596734
 20
-340.0000000000001
 30
-22.0
 70
   192
  0
VERTEX
  5
CD7
  8
0
 10
-294.7880594596734
 20
-340.0000000000001
 30
0.0
 70
   192
  0
VERTEX
  5
CD8
  8
0
 10
0.0
 20
0.0
 30
0.0
 70
   128
 71
     1
 72
     4
 73
    -3
  0
VERTEX
  5
CD9
  8
0
 10
0.0
 20
0.0
 30
0.0
 70
   128
 71
    -1
 72
     3
 73
     2
  0
SEQEND
  5
175F
  8
0
  0
POLYLINE
  5
CDA
  8
0
 66
     1
 10
0.0
 20
0.0
 30
0.0
 70
    64
 71
     8
 72
     6
  0
VERTEX
  5
CDB
  8
0
 10
422.5360928187521
 20
-122.7324336329355
 30
-22.0
 70
   192
  0
VERTEX
  5
CDC
  8
0
 10
371.5306806115321
 20
-235.7221953154427
 30
-22.0
 70
   192
  0
VERTEX
  5
CDD
  8
0
 10
371.5306806115321
 20
-235.7221953154427
 30
0.0
 70
   192
  0
VERTEX
  5
CDE
  8
0
 10
422.5360928187521
 20
-122.7324336329355
 30
0.0
 70
   192
  0
VERTEX
  5
CDF
  8
0
 10
291.0326442171047
 20
-330.0000000000002
 30
-22.0
 70
   192
  0
VERTEX
  5
CE0
  8
0
 10
291.0326442171049
 20
-330.0000000000001
 30
0.0
 70
   192
  0
VERTEX
  5
CE1
  8
0
 10
440.0
 20
0.0
 30
-22.0
 70
   192
  0
VERTEX
  5
CE2
  8
0
 10
440.0
 20
0.0
 30
0.0
 70
   192
  0
VERTEX
  5
CE3
  8
0
 10
0.0
 20
0.0
 30
0.0
 70
   128
 71
     1
 72
     2
 73
    -3
  0
VERTEX
  5
CE4
  8
0
 10
0.0
 20
0.0
 30
0.0
 70
   128
 71
     4
 72
    -1
 73
     3
  0
VERTEX
  5
CE5
  8
0
 10
0.0
 20
0.0
 30
0.0
 70
   128
 71
     2
 72
     5
 73
    -6
  0
VERTEX
  5
CE6
  8
0
 10
0.0
 20
0.0
 30
0.0
 70
   128
 71
     3
 72
    -2
 73
     6
  0
VERTEX
  5
CE7
  8
0
 10
0.0
 20
0.0
 30
0.0
 70
   128
 71
     7
 72
     1
 73
    -4
  0
VERTEX
  5
CE8
  8
0
 10
0.0
 20
0.0
 30
0.0
 70
   128
 71
     8
 72
    -7
 73
     4
  0
SEQEND
  5
1760
  8
0
  0
POLYLINE
  5
CE9
  8
0
 66
     1
 10
0.0
 20
0.0
 30
0.0
 70
    64
 71
     4
 72
     2
  0
VERTEX
  5
CEA
  8
0
 10
-291.032644217105
 20
-330.0000000000001
 30
0.0
 70
   192
  0
VERTEX
  5
CEB
  8
0
 10
291.032644217105
 20
-330.0000000000001
 30
0.0
 70
   192
  0
VERTEX
  5
CEC
  8
0
 10
291.0326442171049
 20
-330.0000000000001
 30
-22.0
 70
   192
  0
VERTEX
  5
CED
  8
0
 10
-291.032644217105
 20
-330.0000000000001
 30
-22.0
 70
   192
  0
VERTEX
  5
CEE
  8
0
 10
0.0
 20
0.0
 30
0.0
 70
   128
 71
     3
 72
     4
 73
    -1
  0
VERTEX
  5
CEF
  8
0
 10
0.0
 20
0.0
 30
0.0
 70
   128
 71
     2
 72
    -3
 73
     1
  0
SEQEND
  5
1761
  8
0
  0
POLYLINE
  5
CF0
  8
0
 66
     1
 10
0.0
 20
0.0
 30
0.0
 70
    64
 71
     8
 72
     6
  0
VERTEX
  5
CF1
  8
0
 10
-431.7843544248313
 20
-126.7370161946843
 30
0.0
 70
   192
  0
VERTEX
  5
CF2
  8
0
 10
-431.7843544248313
 20
-126.7370161946843
 30
-22.0
 70
   192
  0
VERTEX
  5
CF3
  8
0
 10
-378.6121276714146
 20
-243.2136031971165
 30
-22.0
 70
   192
  0
VERTEX
  5
CF4
  8
0
 10
-378.6121276714146
 20
-243.2136031971165
 30
0.0
 70
   192
  0
VERTEX
  5
CF5
  8
0
 10
-450.0
 20
0.0000000000000551
 30
0.0
 70
   192
  0
VERTEX
  5
CF6
  8
0
 10
-450.0
 20
0.0000000000000551
 30
-22.0
 70
   192
  0
VERTEX
  5
CF7
  8
0
 10
-294.7880594596734
 20
-340.0000000000001
 30
-22.0
 70
   192
  0
VERTEX
  5
CF8
  8
0
 10
-294.7880594596734
 20
-340.0000000000001
 30
0.0
 70
   192
  0
VERTEX
  5
CF9
  8
0
 10
0.0
 20
0.0
 30
0.0
 70
   128
 71
     1
 72
     2
 73
    -3
  0
VERTEX
  5
CFA
  8
0
 10
0.0
 20
0.0
 30
0.0
 70
   128
 71
    -1
 72
     3
 73
     4
  0
VERTEX
  5
CFB
  8
0
 10
0.0
 20
0.0
 30
0.0
 70
   128
 71
     5
 72
     6
 73
    -2
  0
VERTEX
  5
CFC
  8
0
 10
0.0
 20
0.0
 30
0.0
 70
   128
 71
    -5
 72
     2
 73
     1
  0
VERTEX
  5
CFD
  8
0
 10
0.0
 20
0.0
 30
0.0
 70
   128
 71
     4
 72
     3
 73
    -7
  0
VERTEX
  5
CFE
  8
0
 10
0.0
 20
0.0
 30
0.0
 70
   128
 71
    -4
 72
     7
 73
     8
  0
SEQEND
  5
1762
  8
0
  0
POLYLINE
  5
CFF
  8
0
 66
     1
 10
0.0
 20
0.0
 30
0.0
 70
    64
 71
    28
 72
    28
  0
VERTEX
  5
D00
  8
0
 10
294.7880594596733
 20
-340.0000000000001
 30
-22.0
 70
   192
  0
VERTEX
  5
D01
  8
0
 10
378.6121276714146
 20
-243.2136031971165
 30
-22.0
 70
   192
  0
VERTEX
  5
D02
  8
0
 10
431.7843544248312
 20
-126.7370161946847
 30
-22.0
 70
   192
  0
VERTEX
  5
D03
  8
0
 10
450.0
 20
0.0
 30
-22.0
 70
   192
  0
VERTEX
  5
D04
  8
0
 10
405.4359905560886
 20
195.2476826029012
 30
-22.0
 70
   192
  0
VERTEX
  5
D05
  8
0
 10
280.5704108364301
 20
351.8241671106134
 30
-22.0
 70
   192
  0
VERTEX
  5
D06
  8
0
 10
100.1344202803415
 20
438.7175604818207
 30
-22.0
 70
   192
  0
VERTEX
  5
D07
  8
0
 10
-100.1344202803415
 20
438.7175604818207
 30
-22.0
 70
   192
  0
VERTEX
  5
D08
  8
0
 10
-280.5704108364301
 20
351.8241671106135
 30
-22.0
 70
   192
  0
VERTEX
  5
D09
  8
0
 10
-405.4359905560887
 20
195.2476826029012
 30
-22.0
 70
   192
  0
VERTEX
  5
D0A
  8
0
 10
-450.0
 20
0.0000000000000551
 30
-22.0
 70
   192
  0
VERTEX
  5
D0B
  8
0
 10
-431.7843544248313
 20
-126.7370161946843
 30
-22.0
 70
   192
  0
VERTEX
  5
D0C
  8
0
 10
-378.6121276714146
 20
-243.2136031971165
 30
-22.0
 70
   192
  0
VERTEX
  5
D0D
  8
0
 10
-294.7880594596734
 20
-340.0000000000001
 30
-22.0
 70
   192
  0
VERTEX
  5
D0E
  8
0
 10
291.032644217105
 20
-330.0000000000001
 30
-22.0
 70
   192
  0
VERTEX
  5
D0F
  8
0
 10
-291.0326442171049
 20
-330.0000000000001
 30
-22.0
 70
   192
  0
VERTEX
  5
D10
  8
0
 10
-371.5306806115323
 20
-235.7221953154424
 30
-22.0
 70
   192
  0
VERTEX
  5
D11
  8
0
 10
-422.5360928187521
 20
-122.7324336329355
 30
-22.0
 70
   192
  0
VERTEX
  5
D12
  8
0
 10
-440.0000000000001
 20
0.0000000000000244
 30
-22.0
 70
   192
  0
VERTEX
  5
D13
  8
0
 10
-396.4263018770645
 20
190.9088452117256
 30
-22.0
 70
   192
  0
VERTEX
  5
D14
  8
0
 10
-274.3355128178428
 20
344.0058522859331
 30
-22.0
 70
   192
  0
VERTEX
  5
D15
  8
0
 10
-97.90921094077835
 20
428.9682813600024
 30
-22.0
 70
   192
  0
VERTEX
  5
D16
  8
0
 10
97.90921094077835
 20
428.9682813600024
 30
-22.0
 70
   192
  0
VERTEX
  5
D17
  8
0
 10
274.3355128178428
 20
344.0058522859331
 30
-22.0
 70
   192
  0
VERTEX
  5
D18
  8
0
 10
396.4263018770644
 20
190.9088452117256
 30
-22.0
 70
   192
  0
VERTEX
  5
D19
  8
0
 10
440.0
 20
-0.0000000000001078
 30
-22.0
 70
   192
  0
VERTEX
  5
D1A
  8
0
 10
422.5360928187521
 20
-122.7324336329355
 30
-22.0
 70
   192
  0
VERTEX
  5
D1B
  8
0
 10
371.5306806115321
 20
-235.7221953154427
 30
-22.0
 70
   192
  0
VERTEX
  5
D1C
  8
0
 10
0.0
 20
0.0
 30
0.0
 70
   128
 71
    16
 72
   -15
 73
    -1
  0
VERTEX
  5
D1D
  8
0
 10
0.0
 20
0.0
 30
0.0
 70
   128
 71
   -16
 72
     1
 73
   -14
  0
VERTEX
  5
D1E
  8
0
 10
0.0
 20
0.0
 30
0.0
 70
   128
 71
    14
 72
   -13
 73
   -17
  0
VERTEX
  5
D1F
  8
0
 10
0.0
 20
0.0
 30
0.0
 70
   128
 71
   -14
 72
    17
 73
   -16
  0
VERTEX
  5
D20
  8
0
 10
0.0
 20
0.0
 30
0.0
 70
   128
 71
    13
 72
   -12
 73
   -18
  0
VERTEX
  5
D21
  8
0
 10
0.0
 20
0.0
 30
0.0
 70
   128
 71
   -13
 72
    18
 73
   -17
  0
VERTEX
  5
D22
  8
0
 10
0.0
 20
0.0
 30
0.0
 70
   128
 71
    12
 72
   -11
 73
   -19
  0
VERTEX
  5
D23
  8
0
 10
0.0
 20
0.0
 30
0.0
 70
   128
 71
   -12
 72
    19
 73
   -18
  0
VERTEX
  5
D24
  8
0
 10
0.0
 20
0.0
 30
0.0
 70
   128
 71
    11
 72
   -10
 73
   -20
  0
VERTEX
  5
D25
  8
0
 10
0.0
 20
0.0
 30
0.0
 70
   128
 71
   -11
 72
    20
 73
   -19
  0
VERTEX
  5
D26
  8
0
 10
0.0
 20
0.0
 30
0.0
 70
   128
 71
    10
 72
    -9
 73
   -21
  0
VERTEX
  5
D27
  8
0
 10
0.0
 20
0.0
 30
0.0
 70
   128
 71
   -10
 72
    21
 73
   -20
  0
VERTEX
  5
D28
  8
0
 10
0.0
 20
0.0
 30
0.0
 70
   128
 71
     9
 72
    -8
 73
   -22
  0
VERTEX
  5
D29
  8
0
 10
0.0
 20
0.0
 30
0.0
 70
   128
 71
    -9
 72
    22
 73
   -21
  0
VERTEX
  5
D2A
  8
0
 10
0.0
 20
0.0
 30
0.0
 70
   128
 71
     8
 72
    -7
 73
   -23
  0
VERTEX
  5
D2B
  8
0
 10
0.0
 20
0.0
 30
0.0
 70
   128
 71
    -8
 72
    23
 73
   -22
  0
VERTEX
  5
D2C
  8
0
 10
0.0
 20
0.0
 30
0.0
 70
   128
 71
     7
 72
    -6
 73
   -24
  0
VERTEX
  5
D2D
  8
0
 10
0.0
 20
0.0
 30
0.0
 70
   128
 71
    -7
 72
    24
 73
   -23
  0
VERTEX
  5
D2E
  8
0
 10
0.0
 20
0.0
 30
0.0
 70
   128
 71
     6
 72
    -5
 73
   -25
  0
VERTEX
  5
D2F
  8
0
 10
0.0
 20
0.0
 30
0.0
 70
   128
 71
    -6
 72
    25
 73
   -24
  0
VERTEX
  5
D30
  8
0
 10
0.0
 20
0.0
 30
0.0
 70
   128
 71
     5
 72
    -4
 73
   -26
  0
VERTEX
  5
D31
  8
0
 10
0.0
 20
0.0
 30
0.0
 70
   128
 71
    -5
 72
    26
 73
   -25
  0
VERTEX
  5
D32
  8
0
 10
0.0
 20
0.0
 30
0.0
 70
   128
 71
     4
 72
    -3
 73
   -27
  0
VERTEX
  5
D33
  8
0
 10
0.0
 20
0.0
 30
0.0
 70
   128
 71
    -4
 72
    27
 73
   -26
  0
VERTEX
  5
D34
  8
0
 10
0.0
 20
0.0
 30
0.0
 70
   128
 71
     3
 72
    -2
 73
   -28
  0
VERTEX
  5
D35
  8
0
 10
0.0
 20
0.0
 30
0.0
 70
   128
 71
    -3
 72
    28
 73
   -27
  0
VERTEX
  5
D36
  8
0
 10
0.0
 20
0.0
 30
0.0
 70
   128
 71
     2
 72
    -1
 73
   -15
  0
VERTEX
  5
D37
  8
0
 10
0.0
 20
0.0
 30
0.0
 70
   128
 71
    -2
 72
    15
 73
   -28
  0
SEQEND
  5
1763
  8
0
  0
POLYLINE
  5
D38
  8
0
 66
     1
 10
0.0
 20
0.0
 30
0.0
 70
    64
 71
    28
 72
    28
  0
VERTEX
  5
D39
  8
0
 10
-294.7880594596734
 20
-340.0000000000001
 30
0.0
 70
   192
  0
VERTEX
  5
D3A
  8
0
 10
294.7880594596734
 20
-340.0000000000001
 30
0.0
 70
   192
  0
VERTEX
  5
D3B
  8
0
 10
378.6121276714146
 20
-243.2136031971165
 30
0.0
 70
   192
  0
VERTEX
  5
D3C
  8
0
 10
431.7843544248312
 20
-126.7370161946847
 30
0.0
 70
   192
  0
VERTEX
  5
D3D
  8
0
 10
450.0
 20
-0.0000000000001102
 30
0.0
 70
   192
  0
VERTEX
  5
D3E
  8
0
 10
405.4359905560886
 20
195.2476826029012
 30
0.0
 70
   192
  0
VERTEX
  5
D3F
  8
0
 10
280.5704108364301
 20
351.8241671106134
 30
0.0
 70
   192
  0
VERTEX
  5
D40
  8
0
 10
100.1344202803415
 20
438.7175604818207
 30
0.0
 70
   192
  0
VERTEX
  5
D41
  8
0
 10
-100.1344202803415
 20
438.7175604818207
 30
0.0
 70
   192
  0
VERTEX
  5
D42
  8
0
 10
-280.5704108364301
 20
351.8241671106135
 30
0.0
 70
   192
  0
VERTEX
  5
D43
  8
0
 10
-405.4359905560887
 20
195.2476826029012
 30
0.0
 70
   192
  0
VERTEX
  5
D44
  8
0
 10
-450.0000000000001
 20
0.000000000000025
 30
0.0
 70
   192
  0
VERTEX
  5
D45
  8
0
 10
-431.7843544248313
 20
-126.7370161946843
 30
0.0
 70
   192
  0
VERTEX
  5
D46
  8
0
 10
-378.6121276714146
 20
-243.2136031971165
 30
0.0
 70
   192
  0
VERTEX
  5
D47
  8
0
 10
440.0
 20
-0.0000000000001078
 30
0.0
 70
   192
  0
VERTEX
  5
D48
  8
0
 10
422.5360928187521
 20
-122.7324336329355
 30
0.0
 70
   192
  0
VERTEX
  5
D49
  8
0
 10
371.5306806115321
 20
-235.7221953154427
 30
0.0
 70
   192
  0
VERTEX
  5
D4A
  8
0
 10
291.0326442171047
 20
-330.0000000000002
 30
0.0
 70
   192
  0
VERTEX
  5
D4B
  8
0
 10
-291.032644217105
 20
-330.0000000000001
 30
0.0
 70
   192
  0
VERTEX
  5
D4C
  8
0
 10
-371.5306806115323
 20
-235.7221953154424
 30
0.0
 70
   192
  0
VERTEX
  5
D4D
  8
0
 10
-422.5360928187521
 20
-122.7324336329355
 30
0.0
 70
   192
  0
VERTEX
  5
D4E
  8
0
 10
-440.0
 20
0.0000000000000539
 30
0.0
 70
   192
  0
VERTEX
  5
D4F
  8
0
 10
-396.4263018770645
 20
190.9088452117256
 30
0.0
 70
   192
  0
VERTEX
  5
D50
  8
0
 10
-274.3355128178428
 20
344.0058522859331
 30
0.0
 70
   192
  0
VERTEX
  5
D51
  8
0
 10
-97.90921094077835
 20
428.9682813600024
 30
0.0
 70
   192
  0
VERTEX
  5
D52
  8
0
 10
97.90921094077835
 20
428.9682813600024
 30
0.0
 70
   192
  0
VERTEX
  5
D53
  8
0
 10
274.3355128178428
 20
344.0058522859331
 30
0.0
 70
   192
  0
VERTEX
  5
D54
  8
0
 10
396.4263018770644
 20
190.9088452117256
 30
0.0
 70
   192
  0
VERTEX
  5
D55
  8
0
 10
0.0
 20
0.0
 30
0.0
 70
   128
 71
    -5
 72
    15
 73
   -16
  0
VERTEX
  5
D56
  8
0
 10
0.0
 20
0.0
 30
0.0
 70
   128
 71
     4
 72
    -5
 73
   -16
  0
VERTEX
  5
D57
  8
0
 10
0.0
 20
0.0
 30
0.0
 70
   128
 71
   -17
 72
     3
 73
    -4
  0
VERTEX
  5
D58
  8
0
 10
0.0
 20
0.0
 30
0.0
 70
   128
 71
    16
 72
   -17
 73
    -4
  0
VERTEX
  5
D59
  8
0
 10
0.0
 20
0.0
 30
0.0
 70
   128
 71
   -18
 72
     2
 73
    -3
  0
VERTEX
  5
D5A
  8
0
 10
0.0
 20
0.0
 30
0.0
 70
   128
 71
    17
 72
   -18
 73
    -3
  0
VERTEX
  5
D5B
  8
0
 10
0.0
 20
0.0
 30
0.0
 70
   128
 71
   -19
 72
     1
 73
    -2
  0
VERTEX
  5
D5C
  8
0
 10
0.0
 20
0.0
 30
0.0
 70
   128
 71
    18
 72
   -19
 73
    -2
  0
VERTEX
  5
D5D
  8
0
 10
0.0
 20
0.0
 30
0.0
 70
   128
 71
   -20
 72
    14
 73
    -1
  0
VERTEX
  5
D5E
  8
0
 10
0.0
 20
0.0
 30
0.0
 70
   128
 71
    19
 72
   -20
 73
    -1
  0
VERTEX
  5
D5F
  8
0
 10
0.0
 20
0.0
 30
0.0
 70
   128
 71
   -21
 72
    13
 73
   -14
  0
VERTEX
  5
D60
  8
0
 10
0.0
 20
0.0
 30
0.0
 70
   128
 71
    20
 72
   -21
 73
   -14
  0
VERTEX
  5
D61
  8
0
 10
0.0
 20
0.0
 30
0.0
 70
   128
 71
   -22
 72
    12
 73
   -13
  0
VERTEX
  5
D62
  8
0
 10
0.0
 20
0.0
 30
0.0
 70
   128
 71
    21
 72
   -22
 73
   -13
  0
VERTEX
  5
D63
  8
0
 10
0.0
 20
0.0
 30
0.0
 70
   128
 71
   -23
 72
    11
 73
   -12
  0
VERTEX
  5
D64
  8
0
 10
0.0
 20
0.0
 30
0.0
 70
   128
 71
    22
 72
   -23
 73
   -12
  0
VERTEX
  5
D65
  8
0
 10
0.0
 20
0.0
 30
0.0
 70
   128
 71
   -24
 72
    10
 73
   -11
  0
VERTEX
  5
D66
  8
0
 10
0.0
 20
0.0
 30
0.0
 70
   128
 71
    23
 72
   -24
 73
   -11
  0
VERTEX
  5
D67
  8
0
 10
0.0
 20
0.0
 30
0.0
 70
   128
 71
   -25
 72
     9
 73
   -10
  0
VERTEX
  5
D68
  8
0
 10
0.0
 20
0.0
 30
0.0
 70
   128
 71
    24
 72
   -25
 73
   -10
  0
VERTEX
  5
D69
  8
0
 10
0.0
 20
0.0
 30
0.0
 70
   128
 71
   -26
 72
     8
 73
    -9
  0
VERTEX
  5
D6A
  8
0
 10
0.0
 20
0.0
 30
0.0
 70
   128
 71
    25
 72
   -26
 73
    -9
  0
VERTEX
  5
D6B
  8
0
 10
0.0
 20
0.0
 30
0.0
 70
   128
 71
   -27
 72
     7
 73
    -8
  0
VERTEX
  5
D6C
  8
0
 10
0.0
 20
0.0
 30
0.0
 70
   128
 71
    26
 72
   -27
 73
    -8
  0
VERTEX
  5
D6D
  8
0
 10
0.0
 20
0.0
 30
0.0
 70
   128
 71
   -28
 72
     6
 73
    -7
  0
VERTEX
  5
D6E
  8
0
 10
0.0
 20
0.0
 30
0.0
 70
   128
 71
    27
 72
   -28
 73
    -7
  0
VERTEX
  5
D6F
  8
0
 10
0.0
 20
0.0
 30
0.0
 70
   128
 71
   -15
 72
     5
 73
    -6
  0
VERTEX
  5
D70
  8
0
 10
0.0
 20
0.0
 30
0.0
 70
   128
 71
    28
 72
   -15
 73
    -6
  0
SEQEND
  5
1764
  8
0
  0
ENDBLK
  5
175A
  8
0
  0
BLOCK
  8
0
  2
*X2
 70
     1
 10
0.0
 20
0.0
 30
0.0
  3
*X2
  1

  0
POLYLINE
  5
D72
  8
0
 66
     1
 10
0.0
 20
0.0
 30
0.0
 70
    64
 71
     4
 72
     2
  0
VERTEX
  5
D73
  8
0
 10
-20.99999999999941
 20
-176.9999999999999
 30
1.5
 70
   192
  0
VERTEX
  5
D74
  8
0
 10
-20.99999999999942
 20
-176.9999999999999
 30
-12.0
 70
   192
  0
VERTEX
  5
D75
  8
0
 10
-20.9999999999994
 20
-126.9999999999999
 30
-12.0
 70
   192
  0
VERTEX
  5
D76
  8
0
 10
-20.9999999999994
 20
-126.9999999999999
 30
1.5
 70
   192
  0
VERTEX
  5
D77
  8
0
 10
0.0
 20
0.0
 30
0.0
 70
   128
 71
     1
 72
     4
 73
    -3
  0
VERTEX
  5
D78
  8
0
 10
0.0
 20
0.0
 30
0.0
 70
   128
 71
    -1
 72
     3
 73
     2
  0
SEQEND
  5
1767
  8
0
  0
POLYLINE
  5
D79
  8
0
 66
     1
 10
0.0
 20
0.0
 30
0.0
 70
    64
 71
     8
 72
     6
  0
VERTEX
  5
D7A
  8
0
 10
-17.9999999999994
 20
-121.8038475772933
 30
1.5
 70
   192
  0
VERTEX
  5
D7B
  8
0
 10
-17.9999999999994
 20
-121.8038475772933
 30
-12.0
 70
   192
  0
VERTEX
  5
D7C
  8
0
 10
-20.19615242270603
 20
-123.9999999999999
 30
-12.0
 70
   192
  0
VERTEX
  5
D7D
  8
0
 10
-20.19615242270603
 20
-123.9999999999999
 30
1.5
 70
   192
  0
VERTEX
  5
D7E
  8
0
 10
-14.99999999999939
 20
-120.9999999999999
 30
1.5
 70
   192
  0
VERTEX
  5
D7F
  8
0
 10
-14.99999999999939
 20
-120.9999999999999
 30
-12.0
 70
   192
  0
VERTEX
  5
D80
  8
0
 10
-20.9999999999994
 20
-126.9999999999999
 30
-12.0
 70
   192
  0
VERTEX
  5
D81
  8
0
 10
-20.9999999999994
 20
-126.9999999999999
 30
1.5
 70
   192
  0
VERTEX
  5
D82
  8
0
 10
0.0
 20
0.0
 30
0.0
 70
   128
 71
     1
 72
     2
 73
    -3
  0
VERTEX
  5
D83
  8
0
 10
0.0
 20
0.0
 30
0.0
 70
   128
 71
    -1
 72
     3
 73
     4
  0
VERTEX
  5
D84
  8
0
 10
0.0
 20
0.0
 30
0.0
 70
   128
 71
     5
 72
     6
 73
    -2
  0
VERTEX
  5
D85
  8
0
 10
0.0
 20
0.0
 30
0.0
 70
   128
 71
    -5
 72
     2
 73
     1
  0
VERTEX
  5
D86
  8
0
 10
0.0
 20
0.0
 30
0.0
 70
   128
 71
     4
 72
     3
 73
    -7
  0
VERTEX
  5
D87
  8
0
 10
0.0
 20
0.0
 30
0.0
 70
   128
 71
    -4
 72
     7
 73
     8
  0
SEQEND
  5
1768
  8
0
  0
POLYLINE
  5
D88
  8
0
 66
     1
 10
0.0
 20
0.0
 30
0.0
 70
    64
 71
     4
 72
     2
  0
VERTEX
  5
D89
  8
0
 10
-14.99999999999939
 20
-120.9999999999999
 30
1.5
 70
   192
  0
VERTEX
  5
D8A
  8
0
 10
-14.99999999999939
 20
-120.9999999999999
 30
-12.0
 70
   192
  0
VERTEX
  5
D8B
  8
0
 10
15.0000000000006
 20
-121.0
 30
-12.0
 70
   192
  0
VERTEX
  5
D8C
  8
0
 10
15.0000000000006
 20
-120.9999999999999
 30
1.5
 70
   192
  0
VERTEX
  5
D8D
  8
0
 10
0.0
 20
0.0
 30
0.0
 70
   128
 71
     1
 72
     4
 73
    -3
  0
VERTEX
  5
D8E
  8
0
 10
0.0
 20
0.0
 30
0.0
 70
   128
 71
    -1
 72
     3
 73
     2
  0
SEQEND
  5
1769
  8
0
  0
POLYLINE
  5
D8F
  8
0
 66
     1
 10
0.0
 20
0.0
 30
0.0
 70
    64
 71
     8
 72
     6
  0
VERTEX
  5
D90
  8
0
 10
20.19615242270725
 20
-124.0
 30
1.5
 70
   192
  0
VERTEX
  5
D91
  8
0
 10
20.19615242270725
 20
-124.0
 30
-12.0
 70
   192
  0
VERTEX
  5
D92
  8
0
 10
18.00000000000061
 20
-121.8038475772933
 30
-12.0
 70
   192
  0
VERTEX
  5
D93
  8
0
 10
18.00000000000061
 20
-121.8038475772933
 30
1.5
 70
   192
  0
VERTEX
  5
D94
  8
0
 10
21.00000000000061
 20
-127.0
 30
1.5
 70
   192
  0
VERTEX
  5
D95
  8
0
 10
21.00000000000061
 20
-127.0
 30
-12.0
 70
   192
  0
VERTEX
  5
D96
  8
0
 10
15.0000000000006
 20
-121.0
 30
-12.0
 70
   192
  0
VERTEX
  5
D97
  8
0
 10
15.0000000000006
 20
-121.0
 30
1.5
 70
   192
  0
VERTEX
  5
D98
  8
0
 10
0.0
 20
0.0
 30
0.0
 70
   128
 71
     1
 72
     2
 73
    -3
  0
VERTEX
  5
D99
  8
0
 10
0.0
 20
0.0
 30
0.0
 70
   128
 71
    -1
 72
     3
 73
     4
  0
VERTEX
  5
D9A
  8
0
 10
0.0
 20
0.0
 30
0.0
 70
   128
 71
     5
 72
     6
 73
    -2
  0
VERTEX
  5
D9B
  8
0
 10
0.0
 20
0.0
 30
0.0
 70
   128
 71
    -5
 72
     2
 73
     1
  0
VERTEX
  5
D9C
  8
0
 10
0.0
 20
0.0
 30
0.0
 70
   128
 71
     4
 72
     3
 73
    -7
  0
VERTEX
  5
D9D
  8
0
 10
0.0
 20
0.0
 30
0.0
 70
   128
 71
    -4
 72
     7
 73
     8
  0
SEQEND
  5
176A
  8
0
  0
POLYLINE
  5
D9E
  8
0
 66
     1
 10
0.0
 20
0.0
 30
0.0
 70
    64
 71
     4
 72
     2
  0
VERTEX
  5
D9F
  8
0
 10
21.00000000000061
 20
-127.0
 30
1.5
 70
   192
  0
VERTEX
  5
DA0
  8
0
 10
21.00000000000061
 20
-127.0
 30
-12.0
 70
   192
  0
VERTEX
  5
DA1
  8
0
 10
21.0000000000006
 20
-176.9999999999999
 30
-12.0
 70
   192
  0
VERTEX
  5
DA2
  8
0
 10
21.0000000000006
 20
-176.9999999999999
 30
1.5
 70
   192
  0
VERTEX
  5
DA3
  8
0
 10
0.0
 20
0.0
 30
0.0
 70
   128
 71
     1
 72
     4
 73
    -3
  0
VERTEX
  5
DA4
  8
0
 10
0.0
 20
0.0
 30
0.0
 70
   128
 71
    -1
 72
     3
 73
     2
  0
SEQEND
  5
176B
  8
0
  0
POLYLINE
  5
DA5
  8
0
 66
     1
 10
0.0
 20
0.0
 30
0.0
 70
    64
 71
     8
 72
     6
  0
VERTEX
  5
DA6
  8
0
 10
18.0000000000006
 20
-182.1961524227066
 30
1.5
 70
   192
  0
VERTEX
  5
DA7
  8
0
 10
18.0000000000006
 20
-182.1961524227066
 30
-12.0
 70
   192
  0
VERTEX
  5
DA8
  8
0
 10
20.19615242270724
 20
-179.9999999999999
 30
-12.0
 70
   192
  0
VERTEX
  5
DA9
  8
0
 10
20.19615242270724
 20
-179.9999999999999
 30
1.5
 70
   192
  0
VERTEX
  5
DAA
  8
0
 10
15.0000000000006
 20
-182.9999999999999
 30
1.5
 70
   192
  0
VERTEX
  5
DAB
  8
0
 10
15.0000000000006
 20
-182.9999999999999
 30
-12.0
 70
   192
  0
VERTEX
  5
DAC
  8
0
 10
21.0000000000006
 20
-176.9999999999999
 30
-12.0
 70
   192
  0
VERTEX
  5
DAD
  8
0
 10
21.0000000000006
 20
-176.9999999999999
 30
1.5
 70
   192
  0
VERTEX
  5
DAE
  8
0
 10
0.0
 20
0.0
 30
0.0
 70
   128
 71
     1
 72
     2
 73
    -3
  0
VERTEX
  5
DAF
  8
0
 10
0.0
 20
0.0
 30
0.0
 70
   128
 71
    -1
 72
     3
 73
     4
  0
VERTEX
  5
DB0
  8
0
 10
0.0
 20
0.0
 30
0.0
 70
   128
 71
     5
 72
     6
 73
    -2
  0
VERTEX
  5
DB1
  8
0
 10
0.0
 20
0.0
 30
0.0
 70
   128
 71
    -5
 72
     2
 73
     1
  0
VERTEX
  5
DB2
  8
0
 10
0.0
 20
0.0
 30
0.0
 70
   128
 71
     4
 72
     3
 73
    -7
  0
VERTEX
  5
DB3
  8
0
 10
0.0
 20
0.0
 30
0.0
 70
   128
 71
    -4
 72
     7
 73
     8
  0
SEQEND
  5
176C
  8
0
  0
POLYLINE
  5
DB4
  8
0
 66
     1
 10
0.0
 20
0.0
 30
0.0
 70
    64
 71
     4
 72
     2
  0
VERTEX
  5
DB5
  8
0
 10
15.0000000000006
 20
-182.9999999999999
 30
1.5
 70
   192
  0
VERTEX
  5
DB6
  8
0
 10
15.0000000000006
 20
-182.9999999999999
 30
-12.0
 70
   192
  0
VERTEX
  5
DB7
  8
0
 10
-14.99999999999941
 20
-182.9999999999999
 30
-12.0
 70
   192
  0
VERTEX
  5
DB8
  8
0
 10
-14.99999999999941
 20
-182.9999999999999
 30
1.5
 70
   192
  0
VERTEX
  5
DB9
  8
0
 10
0.0
 20
0.0
 30
0.0
 70
   128
 71
     1
 72
     4
 73
    -3
  0
VERTEX
  5
DBA
  8
0
 10
0.0
 20
0.0
 30
0.0
 70
   128
 71
    -1
 72
     3
 73
     2
  0
SEQEND
  5
176D
  8
0
  0
POLYLINE
  5
DBB
  8
0
 66
     1
 10
0.0
 20
0.0
 30
0.0
 70
    64
 71
     8
 72
     6
  0
VERTEX
  5
DBC
  8
0
 10
-20.19615242270605
 20
-179.9999999999999
 30
1.5
 70
   192
  0
VERTEX
  5
DBD
  8
0
 10
-20.19615242270605
 20
-179.9999999999999
 30
-12.0
 70
   192
  0
VERTEX
  5
DBE
  8
0
 10
-17.99999999999941
 20
-182.1961524227066
 30
-12.0
 70
   192
  0
VERTEX
  5
DBF
  8
0
 10
-17.99999999999941
 20
-182.1961524227066
 30
1.5
 70
   192
  0
VERTEX
  5
DC0
  8
0
 10
-20.99999999999942
 20
-176.9999999999999
 30
1.5
 70
   192
  0
VERTEX
  5
DC1
  8
0
 10
-20.99999999999941
 20
-176.9999999999999
 30
-12.0
 70
   192
  0
VERTEX
  5
DC2
  8
0
 10
-14.99999999999941
 20
-182.9999999999999
 30
-12.0
 70
   192
  0
VERTEX
  5
DC3
  8
0
 10
-14.99999999999941
 20
-182.9999999999999
 30
1.5
 70
   192
  0
VERTEX
  5
DC4
  8
0
 10
0.0
 20
0.0
 30
0.0
 70
   128
 71
     1
 72
     2
 73
    -3
  0
VERTEX
  5
DC5
  8
0
 10
0.0
 20
0.0
 30
0.0
 70
   128
 71
    -1
 72
     3
 73
     4
  0
VERTEX
  5
DC6
  8
0
 10
0.0
 20
0.0
 30
0.0
 70
   128
 71
     5
 72
     6
 73
    -2
  0
VERTEX
  5
DC7
  8
0
 10
0.0
 20
0.0
 30
0.0
 70
   128
 71
    -5
 72
     2
 73
     1
  0
VERTEX
  5
DC8
  8
0
 10
0.0
 20
0.0
 30
0.0
 70
   128
 71
     4
 72
     3
 73
    -7
  0
VERTEX
  5
DC9
  8
0
 10
0.0
 20
0.0
 30
0.0
 70
   128
 71
    -4
 72
     7
 73
     8
  0
SEQEND
  5
176E
  8
0
  0
POLYLINE
  5
DCA
  8
0
 66
     1
 10
0.0
 20
0.0
 30
0.0
 70
    64
 71
    16
 72
    14
  0
VERTEX
  5
DCB
  8
0
 10
-20.99999999999942
 20
-176.9999999999999
 30
-12.0
 70
   192
  0
VERTEX
  5
DCC
  8
0
 10
-20.9999999999994
 20
-126.9999999999999
 30
-12.0
 70
   192
  0
VERTEX
  5
DCD
  8
0
 10
-20.19615242270603
 20
-123.9999999999999
 30
-12.0
 70
   192
  0
VERTEX
  5
DCE
  8
0
 10
-17.9999999999994
 20
-121.8038475772933
 30
-12.0
 70
   192
  0
VERTEX
  5
DCF
  8
0
 10
-14.99999999999939
 20
-120.9999999999999
 30
-12.0
 70
   192
  0
VERTEX
  5
DD0
  8
0
 10
15.0000000000006
 20
-120.9999999999999
 30
-12.0
 70
   192
  0
VERTEX
  5
DD1
  8
0
 10
18.00000000000061
 20
-121.8038475772933
 30
-12.0
 70
   192
  0
VERTEX
  5
DD2
  8
0
 10
20.19615242270725
 20
-124.0
 30
-12.0
 70
   192
  0
VERTEX
  5
DD3
  8
0
 10
21.00000000000061
 20
-127.0
 30
-12.0
 70
   192
  0
VERTEX
  5
DD4
  8
0
 10
21.0000000000006
 20
-176.9999999999999
 30
-12.0
 70
   192
  0
VERTEX
  5
DD5
  8
0
 10
20.19615242270724
 20
-179.9999999999999
 30
-12.0
 70
   192
  0
VERTEX
  5
DD6
  8
0
 10
18.0000000000006
 20
-182.1961524227066
 30
-12.0
 70
   192
  0
VERTEX
  5
DD7
  8
0
 10
15.0000000000006
 20
-182.9999999999999
 30
-12.0
 70
   192
  0
VERTEX
  5
DD8
  8
0
 10
-14.99999999999941
 20
-182.9999999999999
 30
-12.0
 70
   192
  0
VERTEX
  5
DD9
  8
0
 10
-17.99999999999941
 20
-182.1961524227066
 30
-12.0
 70
   192
  0
VERTEX
  5
DDA
  8
0
 10
-20.19615242270605
 20
-179.9999999999999
 30
-12.0
 70
   192
  0
VERTEX
  5
DDB
  8
0
 10
0.0
 20
0.0
 30
0.0
 70
   128
 71
    15
 72
    16
 73
    -1
  0
VERTEX
  5
DDC
  8
0
 10
0.0
 20
0.0
 30
0.0
 70
   128
 71
    14
 72
   -15
 73
    -1
  0
VERTEX
  5
DDD
  8
0
 10
0.0
 20
0.0
 30
0.0
 70
   128
 71
    13
 72
   -14
 73
    -1
  0
VERTEX
  5
DDE
  8
0
 10
0.0
 20
0.0
 30
0.0
 70
   128
 71
    12
 72
   -13
 73
    -1
  0
VERTEX
  5
DDF
  8
0
 10
0.0
 20
0.0
 30
0.0
 70
   128
 71
    11
 72
   -12
 73
    -1
  0
VERTEX
  5
DE0
  8
0
 10
0.0
 20
0.0
 30
0.0
 70
   128
 71
    10
 72
   -11
 73
    -1
  0
VERTEX
  5
DE1
  8
0
 10
0.0
 20
0.0
 30
0.0
 70
   128
 71
     9
 72
   -10
 73
    -1
  0
VERTEX
  5
DE2
  8
0
 10
0.0
 20
0.0
 30
0.0
 70
   128
 71
     8
 72
    -9
 73
    -1
  0
VERTEX
  5
DE3
  8
0
 10
0.0
 20
0.0
 30
0.0
 70
   128
 71
     7
 72
    -8
 73
    -1
  0
VERTEX
  5
DE4
  8
0
 10
0.0
 20
0.0
 30
0.0
 70
   128
 71
     6
 72
    -7
 73
    -1
  0
VERTEX
  5
DE5
  8
0
 10
0.0
 20
0.0
 30
0.0
 70
   128
 71
     5
 72
    -6
 73
    -1
  0
VERTEX
  5
DE6
  8
0
 10
0.0
 20
0.0
 30
0.0
 70
   128
 71
     4
 72
    -5
 73
    -1
  0
VERTEX
  5
DE7
  8
0
 10
0.0
 20
0.0
 30
0.0
 70
   128
 71
     3
 72
    -4
 73
    -1
  0
VERTEX
  5
DE8
  8
0
 10
0.0
 20
0.0
 30
0.0
 70
   128
 71
     2
 72
    -3
 73
     1
  0
SEQEND
  5
176F
  8
0
  0
POLYLINE
  5
DE9
  8
0
 66
     1
 10
0.0
 20
0.0
 30
0.0
 70
    64
 71
    16
 72
    14
  0
VERTEX
  5
DEA
  8
0
 10
-20.9999999999994
 20
-126.9999999999999
 30
1.5
 70
   192
  0
VERTEX
  5
DEB
  8
0
 10
-20.19615242270603
 20
-123.9999999999999
 30
1.5
 70
   192
  0
VERTEX
  5
DEC
  8
0
 10
-17.9999999999994
 20
-121.8038475772933
 30
1.5
 70
   192
  0
VERTEX
  5
DED
  8
0
 10
-14.99999999999939
 20
-120.9999999999999
 30
1.5
 70
   192
  0
VERTEX
  5
DEE
  8
0
 10
15.0000000000006
 20
-121.0
 30
1.5
 70
   192
  0
VERTEX
  5
DEF
  8
0
 10
18.00000000000061
 20
-121.8038475772933
 30
1.5
 70
   192
  0
VERTEX
  5
DF0
  8
0
 10
20.19615242270725
 20
-124.0
 30
1.5
 70
   192
  0
VERTEX
  5
DF1
  8
0
 10
21.00000000000061
 20
-127.0
 30
1.5
 70
   192
  0
VERTEX
  5
DF2
  8
0
 10
21.0000000000006
 20
-176.9999999999999
 30
1.5
 70
   192
  0
VERTEX
  5
DF3
  8
0
 10
20.19615242270724
 20
-179.9999999999999
 30
1.5
 70
   192
  0
VERTEX
  5
DF4
  8
0
 10
18.0000000000006
 20
-182.1961524227066
 30
1.5
 70
   192
  0
VERTEX
  5
DF5
  8
0
 10
15.0000000000006
 20
-182.9999999999999
 30
1.5
 70
   192
  0
VERTEX
  5
DF6
  8
0
 10
-14.99999999999941
 20
-182.9999999999999
 30
1.5
 70
   192
  0
VERTEX
  5
DF7
  8
0
 10
-17.99999999999941
 20
-182.1961524227066
 30
1.5
 70
   192
  0
VERTEX
  5
DF8
  8
0
 10
-20.19615242270605
 20
-179.9999999999999
 30
1.5
 70
   192
  0
VERTEX
  5
DF9
  8
0
 10
-20.99999999999942
 20
-176.9999999999999
 30
1.5
 70
   192
  0
VERTEX
  5
DFA
  8
0
 10
0.0
 20
0.0
 30
0.0
 70
   128
 71
     1
 72
    16
 73
   -15
  0
VERTEX
  5
DFB
  8
0
 10
0.0
 20
0.0
 30
0.0
 70
   128
 71
    -1
 72
    15
 73
   -14
  0
VERTEX
  5
DFC
  8
0
 10
0.0
 20
0.0
 30
0.0
 70
   128
 71
    -1
 72
    14
 73
   -13
  0
VERTEX
  5
DFD
  8
0
 10
0.0
 20
0.0
 30
0.0
 70
   128
 71
    -1
 72
    13
 73
   -12
  0
VERTEX
  5
DFE
  8
0
 10
0.0
 20
0.0
 30
0.0
 70
   128
 71
    -1
 72
    12
 73
   -11
  0
VERTEX
  5
DFF
  8
0
 10
0.0
 20
0.0
 30
0.0
 70
   128
 71
    -1
 72
    11
 73
   -10
  0
VERTEX
  5
E00
  8
0
 10
0.0
 20
0.0
 30
0.0
 70
   128
 71
    -1
 72
    10
 73
    -9
  0
VERTEX
  5
E01
  8
0
 10
0.0
 20
0.0
 30
0.0
 70
   128
 71
    -1
 72
     9
 73
    -8
  0
VERTEX
  5
E02
  8
0
 10
0.0
 20
0.0
 30
0.0
 70
   128
 71
    -1
 72
     8
 73
    -7
  0
VERTEX
  5
E03
  8
0
 10
0.0
 20
0.0
 30
0.0
 70
   128
 71
    -1
 72
     7
 73
    -6
  0
VERTEX
  5
E04
  8
0
 10
0.0
 20
0.0
 30
0.0
 70
   128
 71
    -1
 72
     6
 73
    -5
  0
VERTEX
  5
E05
  8
0
 10
0.0
 20
0.0
 30
0.0
 70
   128
 71
    -1
 72
     5
 73
    -4
  0
VERTEX
  5
E06
  8
0
 10
0.0
 20
0.0
 30
0.0
 70
   128
 71
    -1
 72
     4
 73
    -3
  0
VERTEX
  5
E07
  8
0
 10
0.0
 20
0.0
 30
0.0
 70
   128
 71
    -1
 72
     3
 73
     2
  0
SEQEND
  5
1770
  8
0
  0
ENDBLK
  5
1766
  8
0
  0
BLOCK
  8
0
  2
*X3
 70
     1
 10
0.0
 20
0.0
 30
0.0
  3
*X3
  1

  0
POLYLINE
  5
E09
  8
0
 66
     1
 10
0.0
 20
0.0
 30
0.0
 70
    64
 71
    16
 72
    14
  0
VERTEX
  5
E0A
  8
0
 10
-111.2604669781573
 20
487.4639560909119
 30
0.0
 70
   192
  0
VERTEX
  5
E0B
  8
0
 10
-111.2604669781573
 20
487.4639560909119
 30
5.0
 70
   192
  0
VERTEX
  5
E0C
  8
0
 10
111.2604669781571
 20
487.4639560909119
 30
5.0
 70
   192
  0
VERTEX
  5
E0D
  8
0
 10
111.2604669781571
 20
487.4639560909119
 30
0.0
 70
   192
  0
VERTEX
  5
E0E
  8
0
 10
-450.4844339512096
 20
216.9418695587791
 30
0.0
 70
   192
  0
VERTEX
  5
E0F
  8
0
 10
-450.4844339512096
 20
216.9418695587791
 30
5.0
 70
   192
  0
VERTEX
  5
E10
  8
0
 10
-311.7449009293668
 20
390.9157412340149
 30
5.0
 70
   192
  0
VERTEX
  5
E11
  8
0
 10
-311.7449009293668
 20
390.9157412340149
 30
0.0
 70
   192
  0
VERTEX
  5
E12
  8
0
 10
311.7449009293667
 20
390.9157412340149
 30
0.0
 70
   192
  0
VERTEX
  5
E13
  8
0
 10
311.7449009293667
 20
390.9157412340149
 30
5.0
 70
   192
  0
VERTEX
  5
E14
  8
0
 10
450.4844339512096
 20
216.9418695587791
 30
5.0
 70
   192
  0
VERTEX
  5
E15
  8
0
 10
450.4844339512096
 20
216.9418695587791
 30
0.0
 70
   192
  0
VERTEX
  5
E16
  8
0
 10
500.0
 20
0.0000000000000612
 30
5.0
 70
   192
  0
VERTEX
  5
E17
  8
0
 10
500.0
 20
0.0000000000000612
 30
0.0
 70
   192
  0
VERTEX
  5
E18
  8
0
 10
-500.0000000000001
 20
0.0
 30
0.0
 70
   192
  0
VERTEX
  5
E19
  8
0
 10
-500.0
 20
0.0
 30
5.0
 70
   192
  0
VERTEX
  5
E1A
  8
0
 10
0.0
 20
0.0
 30
0.0
 70
   128
 71
     1
 72
     2
 73
    -3
  0
VERTEX
  5
E1B
  8
0
 10
0.0
 20
0.0
 30
0.0
 70
   128
 71
    -1
 72
     3
 73
     4
  0
VERTEX
  5
E1C
  8
0
 10
0.0
 20
0.0
 30
0.0
 70
   128
 71
     5
 72
     6
 73
    -7
  0
VERTEX
  5
E1D
  8
0
 10
0.0
 20
0.0
 30
0.0
 70
   128
 71
    -5
 72
     7
 73
     8
  0
VERTEX
  5
E1E
  8
0
 10
0.0
 20
0.0
 30
0.0
 70
   128
 71
     9
 72
    10
 73
   -11
  0
VERTEX
  5
E1F
  8
0
 10
0.0
 20
0.0
 30
0.0
 70
   128
 71
    -9
 72
    11
 73
    12
  0
VERTEX
  5
E20
  8
0
 10
0.0
 20
0.0
 30
0.0
 70
   128
 71
    12
 72
    11
 73
   -13
  0
VERTEX
  5
E21
  8
0
 10
0.0
 20
0.0
 30
0.0
 70
   128
 71
   -12
 72
    13
 73
    14
  0
VERTEX
  5
E22
  8
0
 10
0.0
 20
0.0
 30
0.0
 70
   128
 71
     4
 72
     3
 73
   -10
  0
VERTEX
  5
E23
  8
0
 10
0.0
 20
0.0
 30
0.0
 70
   128
 71
    -4
 72
    10
 73
     9
  0
VERTEX
  5
E24
  8
0
 10
0.0
 20
0.0
 30
0.0
 70
   128
 71
     8
 72
     7
 73
    -2
  0
VERTEX
  5
E25
  8
0
 10
0.0
 20
0.0
 30
0.0
 70
   128
 71
    -8
 72
     2
 73
     1
  0
VERTEX
  5
E26
  8
0
 10
0.0
 20
0.0
 30
0.0
 70
   128
 71
    15
 72
    16
 73
    -6
  0
VERTEX
  5
E27
  8
0
 10
0.0
 20
0.0
 30
0.0
 70
   128
 71
   -15
 72
     6
 73
     5
  0
SEQEND
  5
1773
  8
0
  0
POLYLINE
  5
E28
  8
0
 66
     1
 10
0.0
 20
0.0
 30
0.0
 70
    64
 71
     8
 72
     6
  0
VERTEX
  5
E29
  8
0
 10
-407.4624242829802
 20
-289.7833204265501
 30
0.0
 70
   192
  0
VERTEX
  5
E2A
  8
0
 10
-407.4624242829802
 20
-289.7833204265501
 30
5.0
 70
   192
  0
VERTEX
  5
E2B
  8
0
 10
-476.3041109110283
 20
-152.099947170454
 30
5.0
 70
   192
  0
VERTEX
  5
E2C
  8
0
 10
-476.3041109110283
 20
-152.099947170454
 30
0.0
 70
   192
  0
VERTEX
  5
E2D
  8
0
 10
-300.0000000000001
 20
-399.9999999999999
 30
0.0
 70
   192
  0
VERTEX
  5
E2E
  8
0
 10
-299.9999999999999
 20
-400.0000000000001
 30
5.0
 70
   192
  0
VERTEX
  5
E2F
  8
0
 10
-500.0
 20
0.0000000000000612
 30
5.0
 70
   192
  0
VERTEX
  5
E30
  8
0
 10
-500.0
 20
0.0
 30
0.0
 70
   192
  0
VERTEX
  5
E31
  8
0
 10
0.0
 20
0.0
 30
0.0
 70
   128
 71
     1
 72
     2
 73
    -3
  0
VERTEX
  5
E32
  8
0
 10
0.0
 20
0.0
 30
0.0
 70
   128
 71
    -1
 72
     3
 73
     4
  0
VERTEX
  5
E33
  8
0
 10
0.0
 20
0.0
 30
0.0
 70
   128
 71
     5
 72
     6
 73
    -2
  0
VERTEX
  5
E34
  8
0
 10
0.0
 20
0.0
 30
0.0
 70
   128
 71
    -5
 72
     2
 73
     1
  0
VERTEX
  5
E35
  8
0
 10
0.0
 20
0.0
 30
0.0
 70
   128
 71
     4
 72
     3
 73
    -7
  0
VERTEX
  5
E36
  8
0
 10
0.0
 20
0.0
 30
0.0
 70
   128
 71
    -4
 72
     7
 73
     8
  0
SEQEND
  5
1774
  8
0
  0
POLYLINE
  5
E37
  8
0
 66
     1
 10
0.0
 20
0.0
 30
0.0
 70
    64
 71
     8
 72
     6
  0
VERTEX
  5
E38
  8
0
 10
476.3041109110281
 20
-152.0999471704544
 30
0.0
 70
   192
  0
VERTEX
  5
E39
  8
0
 10
476.3041109110281
 20
-152.0999471704544
 30
5.0
 70
   192
  0
VERTEX
  5
E3A
  8
0
 10
407.4624242829802
 20
-289.7833204265501
 30
5.0
 70
   192
  0
VERTEX
  5
E3B
  8
0
 10
407.4624242829802
 20
-289.7833204265501
 30
0.0
 70
   192
  0
VERTEX
  5
E3C
  8
0
 10
500.0
 20
-0.0000000000001225
 30
0.0
 70
   192
  0
VERTEX
  5
E3D
  8
0
 10
500.0
 20
0.0000000000000612
 30
5.0
 70
   192
  0
VERTEX
  5
E3E
  8
0
 10
299.9999999999999
 20
-400.0000000000001
 30
5.0
 70
   192
  0
VERTEX
  5
E3F
  8
0
 10
299.9999999999999
 20
-400.0000000000001
 30
0.0
 70
   192
  0
VERTEX
  5
E40
  8
0
 10
0.0
 20
0.0
 30
0.0
 70
   128
 71
     1
 72
     2
 73
    -3
  0
VERTEX
  5
E41
  8
0
 10
0.0
 20
0.0
 30
0.0
 70
   128
 71
    -1
 72
     3
 73
     4
  0
VERTEX
  5
E42
  8
0
 10
0.0
 20
0.0
 30
0.0
 70
   128
 71
     5
 72
     6
 73
    -2
  0
VERTEX
  5
E43
  8
0
 10
0.0
 20
0.0
 30
0.0
 70
   128
 71
    -5
 72
     2
 73
     1
  0
VERTEX
  5
E44
  8
0
 10
0.0
 20
0.0
 30
0.0
 70
   128
 71
     4
 72
     3
 73
    -7
  0
VERTEX
  5
E45
  8
0
 10
0.0
 20
0.0
 30
0.0
 70
   128
 71
    -4
 72
     7
 73
     8
  0
SEQEND
  5
1775
  8
0
  0
POLYLINE
  5
E46
  8
0
 66
     1
 10
0.0
 20
0.0
 30
0.0
 70
    64
 71
     4
 72
     2
  0
VERTEX
  5
E47
  8
0
 10
-299.9999999999999
 20
-400.0000000000001
 30
0.0
 70
   192
  0
VERTEX
  5
E48
  8
0
 10
299.9999999999999
 20
-400.0000000000001
 30
0.0
 70
   192
  0
VERTEX
  5
E49
  8
0
 10
299.9999999999999
 20
-400.0000000000001
 30
5.0
 70
   192
  0
VERTEX
  5
E4A
  8
0
 10
-299.9999999999999
 20
-400.0000000000001
 30
5.0
 70
   192
  0
VERTEX
  5
E4B
  8
0
 10
0.0
 20
0.0
 30
0.0
 70
   128
 71
     3
 72
     4
 73
    -1
  0
VERTEX
  5
E4C
  8
0
 10
0.0
 20
0.0
 30
0.0
 70
   128
 71
     2
 72
    -3
 73
     1
  0
SEQEND
  5
1776
  8
0
  0
POLYLINE
  5
E4D
  8
0
 66
     1
 10
0.0
 20
0.0
 30
0.0
 70
    64
 71
    14
 72
    12
  0
VERTEX
  5
E4E
  8
0
 10
299.9999999999999
 20
-400.0000000000001
 30
5.0
 70
   192
  0
VERTEX
  5
E4F
  8
0
 10
407.4624242829802
 20
-289.7833204265501
 30
5.0
 70
   192
  0
VERTEX
  5
E50
  8
0
 10
476.3041109110281
 20
-152.0999471704544
 30
5.0
 70
   192
  0
VERTEX
  5
E51
  8
0
 10
500.0
 20
-0.0000000000001225
 30
5.0
 70
   192
  0
VERTEX
  5
E52
  8
0
 10
450.4844339512096
 20
216.9418695587791
 30
5.0
 70
   192
  0
VERTEX
  5
E53
  8
0
 10
311.7449009293667
 20
390.9157412340149
 30
5.0
 70
   192
  0
VERTEX
  5
E54
  8
0
 10
111.2604669781571
 20
487.4639560909119
 30
5.0
 70
   192
  0
VERTEX
  5
E55
  8
0
 10
-111.2604669781573
 20
487.4639560909119
 30
5.0
 70
   192
  0
VERTEX
  5
E56
  8
0
 10
-311.7449009293668
 20
390.9157412340149
 30
5.0
 70
   192
  0
VERTEX
  5
E57
  8
0
 10
-450.4844339512096
 20
216.9418695587791
 30
5.0
 70
   192
  0
VERTEX
  5
E58
  8
0
 10
-500.0000000000001
 20
0.0
 30
5.0
 70
   192
  0
VERTEX
  5
E59
  8
0
 10
-476.3041109110283
 20
-152.099947170454
 30
5.0
 70
   192
  0
VERTEX
  5
E5A
  8
0
 10
-407.4624242829802
 20
-289.7833204265501
 30
5.0
 70
   192
  0
VERTEX
  5
E5B
  8
0
 10
-300.0000000000001
 20
-399.9999999999999
 30
5.0
 70
   192
  0
VERTEX
  5
E5C
  8
0
 10
0.0
 20
0.0
 30
0.0
 70
   128
 71
    13
 72
    14
 73
    -1
  0
VERTEX
  5
E5D
  8
0
 10
0.0
 20
0.0
 30
0.0
 70
   128
 71
    12
 72
   -13
 73
    -1
  0
VERTEX
  5
E5E
  8
0
 10
0.0
 20
0.0
 30
0.0
 70
   128
 71
    11
 72
   -12
 73
    -1
  0
VERTEX
  5
E5F
  8
0
 10
0.0
 20
0.0
 30
0.0
 70
   128
 71
    10
 72
   -11
 73
    -1
  0
VERTEX
  5
E60
  8
0
 10
0.0
 20
0.0
 30
0.0
 70
   128
 71
     9
 72
   -10
 73
    -1
  0
VERTEX
  5
E61
  8
0
 10
0.0
 20
0.0
 30
0.0
 70
   128
 71
     8
 72
    -9
 73
    -1
  0
VERTEX
  5
E62
  8
0
 10
0.0
 20
0.0
 30
0.0
 70
   128
 71
     7
 72
    -8
 73
    -1
  0
VERTEX
  5
E63
  8
0
 10
0.0
 20
0.0
 30
0.0
 70
   128
 71
     6
 72
    -7
 73
    -1
  0
VERTEX
  5
E64
  8
0
 10
0.0
 20
0.0
 30
0.0
 70
   128
 71
     5
 72
    -6
 73
    -1
  0
VERTEX
  5
E65
  8
0
 10
0.0
 20
0.0
 30
0.0
 70
   128
 71
     4
 72
    -5
 73
    -1
  0
VERTEX
  5
E66
  8
0
 10
0.0
 20
0.0
 30
0.0
 70
   128
 71
     3
 72
    -4
 73
    -1
  0
VERTEX
  5
E67
  8
0
 10
0.0
 20
0.0
 30
0.0
 70
   128
 71
     2
 72
    -3
 73
     1
  0
SEQEND
  5
1777
  8
0
  0
POLYLINE
  5
E68
  8
0
 66
     1
 10
0.0
 20
0.0
 30
0.0
 70
    64
 71
    18
 72
    18
  0
VERTEX
  5
E69
  8
0
 10
500.0
 20
0.0000000000000612
 30
0.0
 70
   192
  0
VERTEX
  5
E6A
  8
0
 10
450.4844339512096
 20
216.9418695587791
 30
0.0
 70
   192
  0
VERTEX
  5
E6B
  8
0
 10
311.7449009293667
 20
390.9157412340149
 30
0.0
 70
   192
  0
VERTEX
  5
E6C
  8
0
 10
111.2604669781571
 20
487.4639560909119
 30
0.0
 70
   192
  0
VERTEX
  5
E6D
  8
0
 10
-111.2604669781573
 20
487.4639560909119
 30
0.0
 70
   192
  0
VERTEX
  5
E6E
  8
0
 10
-311.7449009293668
 20
390.9157412340149
 30
0.0
 70
   192
  0
VERTEX
  5
E6F
  8
0
 10
-450.4844339512096
 20
216.9418695587791
 30
0.0
 70
   192
  0
VERTEX
  5
E70
  8
0
 10
-500.0
 20
0.0000000000000612
 30
0.0
 70
   192
  0
VERTEX
  5
E71
  8
0
 10
-476.3041109110283
 20
-152.099947170454
 30
0.0
 70
   192
  0
VERTEX
  5
E72
  8
0
 10
-407.4624242829802
 20
-289.7833204265501
 30
0.0
 70
   192
  0
VERTEX
  5
E73
  8
0
 10
-299.9999999999999
 20
-400.0000000000001
 30
0.0
 70
   192
  0
VERTEX
  5
E74
  8
0
 10
299.9999999999999
 20
-400.0000000000001
 30
0.0
 70
   192
  0
VERTEX
  5
E75
  8
0
 10
407.4624242829802
 20
-289.7833204265501
 30
0.0
 70
   192
  0
VERTEX
  5
E76
  8
0
 10
476.3041109110281
 20
-152.0999471704544
 30
0.0
 70
   192
  0
VERTEX
  5
E77
  8
0
 10
-235.0
 20
200.0
 30
0.0
 70
   192
  0
VERTEX
  5
E78
  8
0
 10
235.0
 20
200.0
 30
0.0
 70
   192
  0
VERTEX
  5
E79
  8
0
 10
235.0
 20
-200.0
 30
0.0
 70
   192
  0
VERTEX
  5
E7A
  8
0
 10
-235.0
 20
-200.0
 30
0.0
 70
   192
  0
VERTEX
  5
E7B
  8
0
 10
0.0
 20
0.0
 30
0.0
 70
   128
 71
    16
 72
   -15
 73
    -6
  0
VERTEX
  5
E7C
  8
0
 10
0.0
 20
0.0
 30
0.0
 70
   128
 71
   -16
 72
     6
 73
    -5
  0
VERTEX
  5
E7D
  8
0
 10
0.0
 20
0.0
 30
0.0
 70
   128
 71
   -16
 72
     5
 73
    -4
  0
VERTEX
  5
E7E
  8
0
 10
0.0
 20
0.0
 30
0.0
 70
   128
 71
   -16
 72
     4
 73
    -3
  0
VERTEX
  5
E7F
  8
0
 10
0.0
 20
0.0
 30
0.0
 70
   128
 71
     3
 72
     2
 73
    -1
  0
VERTEX
  5
E80
  8
0
 10
0.0
 20
0.0
 30
0.0
 70
   128
 71
    -3
 72
     1
 73
   -14
  0
VERTEX
  5
E81
  8
0
 10
0.0
 20
0.0
 30
0.0
 70
   128
 71
    -3
 72
    14
 73
   -13
  0
VERTEX
  5
E82
  8
0
 10
0.0
 20
0.0
 30
0.0
 70
   128
 71
    -3
 72
   -13
 73
   -17
  0
VERTEX
  5
E83
  8
0
 10
0.0
 20
0.0
 30
0.0
 70
   128
 71
    -3
 72
    17
 73
   -16
  0
VERTEX
  5
E84
  8
0
 10
0.0
 20
0.0
 30
0.0
 70
   128
 71
    13
 72
    12
 73
   -11
  0
VERTEX
  5
E85
  8
0
 10
0.0
 20
0.0
 30
0.0
 70
   128
 71
   -13
 72
    11
 73
   -10
  0
VERTEX
  5
E86
  8
0
 10
0.0
 20
0.0
 30
0.0
 70
   128
 71
   -13
 72
   -10
 73
   -18
  0
VERTEX
  5
E87
  8
0
 10
0.0
 20
0.0
 30
0.0
 70
   128
 71
   -13
 72
    18
 73
   -17
  0
VERTEX
  5
E88
  8
0
 10
0.0
 20
0.0
 30
0.0
 70
   128
 71
    10
 72
     9
 73
    -8
  0
VERTEX
  5
E89
  8
0
 10
0.0
 20
0.0
 30
0.0
 70
   128
 71
   -10
 72
     8
 73
    -7
  0
VERTEX
  5
E8A
  8
0
 10
0.0
 20
0.0
 30
0.0
 70
   128
 71
   -10
 72
     7
 73
    -6
  0
VERTEX
  5
E8B
  8
0
 10
0.0
 20
0.0
 30
0.0
 70
   128
 71
   -10
 72
    -6
 73
   -15
  0
VERTEX
  5
E8C
  8
0
 10
0.0
 20
0.0
 30
0.0
 70
   128
 71
   -10
 72
    15
 73
   -18
  0
SEQEND
  5
1778
  8
0
  0
POLYLINE
  5
E8D
  8
0
 66
     1
 10
0.0
 20
0.0
 30
0.0
 70
    64
 71
     4
 72
     2
  0
VERTEX
  5
E8E
  8
0
 10
235.0
 20
-200.0
 30
0.0
 70
   192
  0
VERTEX
  5
E8F
  8
0
 10
235.0
 20
-200.0
 30
1.5
 70
   192
  0
VERTEX
  5
E90
  8
0
 10
-235.0
 20
-200.0
 30
1.5
 70
   192
  0
VERTEX
  5
E91
  8
0
 10
-235.0
 20
-200.0
 30
0.0
 70
   192
  0
VERTEX
  5
E92
  8
0
 10
0.0
 20
0.0
 30
0.0
 70
   128
 71
     1
 72
     4
 73
    -3
  0
VERTEX
  5
E93
  8
0
 10
0.0
 20
0.0
 30
0.0
 70
   128
 71
    -1
 72
     3
 73
     2
  0
SEQEND
  5
1779
  8
0
  0
POLYLINE
  5
E94
  8
0
 66
     1
 10
0.0
 20
0.0
 30
0.0
 70
    64
 71
     4
 72
     2
  0
VERTEX
  5
E95
  8
0
 10
235.0
 20
200.0
 30
0.0
 70
   192
  0
VERTEX
  5
E96
  8
0
 10
235.0
 20
200.0
 30
1.5
 70
   192
  0
VERTEX
  5
E97
  8
0
 10
235.0
 20
-200.0
 30
1.5
 70
   192
  0
VERTEX
  5
E98
  8
0
 10
235.0
 20
-200.0
 30
0.0
 70
   192
  0
VERTEX
  5
E99
  8
0
 10
0.0
 20
0.0
 30
0.0
 70
   128
 71
     1
 72
     4
 73
    -3
  0
VERTEX
  5
E9A
  8
0
 10
0.0
 20
0.0
 30
0.0
 70
   128
 71
    -1
 72
     3
 73
     2
  0
SEQEND
  5
177A
  8
0
  0
POLYLINE
  5
E9B
  8
0
 66
     1
 10
0.0
 20
0.0
 30
0.0
 70
    64
 71
     4
 72
     2
  0
VERTEX
  5
E9C
  8
0
 10
-235.0
 20
200.0
 30
0.0
 70
   192
  0
VERTEX
  5
E9D
  8
0
 10
-235.0
 20
200.0
 30
1.5
 70
   192
  0
VERTEX
  5
E9E
  8
0
 10
235.0
 20
200.0
 30
1.5
 70
   192
  0
VERTEX
  5
E9F
  8
0
 10
235.0
 20
200.0
 30
0.0
 70
   192
  0
VERTEX
  5
EA0
  8
0
 10
0.0
 20
0.0
 30
0.0
 70
   128
 71
     1
 72
     4
 73
    -3
  0
VERTEX
  5
EA1
  8
0
 10
0.0
 20
0.0
 30
0.0
 70
   128
 71
    -1
 72
     3
 73
     2
  0
SEQEND
  5
177B
  8
0
  0
POLYLINE
  5
EA2
  8
0
 66
     1
 10
0.0
 20
0.0
 30
0.0
 70
    64
 71
     4
 72
     2
  0
VERTEX
  5
EA3
  8
0
 10
-235.0
 20
-200.0
 30
0.0
 70
   192
  0
VERTEX
  5
EA4
  8
0
 10
-235.0
 20
-200.0
 30
1.5
 70
   192
  0
VERTEX
  5
EA5
  8
0
 10
-235.0
 20
200.0
 30
1.5
 70
   192
  0
VERTEX
  5
EA6
  8
0
 10
-235.0
 20
200.0
 30
0.0
 70
   192
  0
VERTEX
  5
EA7
  8
0
 10
0.0
 20
0.0
 30
0.0
 70
   128
 71
     1
 72
     4
 73
    -3
  0
VERTEX
  5
EA8
  8
0
 10
0.0
 20
0.0
 30
0.0
 70
   128
 71
    -1
 72
     3
 73
     2
  0
SEQEND
  5
177C
  8
0
  0
POLYLINE
  5
EA9
  8
0
 66
     1
 10
0.0
 20
0.0
 30
0.0
 70
    64
 71
     4
 72
     2
  0
VERTEX
  5
EAA
  8
0
 10
235.0
 20
-200.0
 30
1.5
 70
   192
  0
VERTEX
  5
EAB
  8
0
 10
-235.0
 20
-200.0
 30
1.5
 70
   192
  0
VERTEX
  5
EAC
  8
0
 10
-235.0
 20
200.0
 30
1.5
 70
   192
  0
VERTEX
  5
EAD
  8
0
 10
235.0
 20
200.0
 30
1.5
 70
   192
  0
VERTEX
  5
EAE
  8
0
 10
0.0
 20
0.0
 30
0.0
 70
   128
 71
     3
 72
     4
 73
    -1
  0
VERTEX
  5
EAF
  8
0
 10
0.0
 20
0.0
 30
0.0
 70
   128
 71
     2
 72
    -3
 73
     1
  0
SEQEND
  5
177D
  8
0
  0
ENDBLK
  5
1772
  8
0
  0
BLOCK
  8
0
  2
*X4
 70
     1
 10
0.0
 20
0.0
 30
0.0
  3
*X4
  1

  0
POLYLINE
  5
EB1
  8
0
 66
     1
 10
0.0
 20
0.0
 30
0.0
 70
    64
 71
     8
 72
     6
  0
VERTEX
  5
EB2
  8
0
 10
-296.3301270189228
 20
227.4999999999999
 30
0.0
 70
   192
  0
VERTEX
  5
EB3
  8
0
 10
-296.3301270189228
 20
227.4999999999999
 30
-1.0
 70
   192
  0
VERTEX
  5
EB4
  8
0
 10
-294.5000000000007
 20
225.6698729810777
 30
-1.0
 70
   192
  0
VERTEX
  5
EB5
  8
0
 10
-294.5000000000007
 20
225.6698729810777
 30
0.0
 70
   192
  0
VERTEX
  5
EB6
  8
0
 10
-297.0000000000007
 20
229.9999999999998
 30
0.0
 70
   192
  0
VERTEX
  5
EB7
  8
0
 10
-297.0000000000006
 20
229.9999999999998
 30
-1.0
 70
   192
  0
VERTEX
  5
EB8
  8
0
 10
-292.0000000000007
 20
224.9999999999999
 30
-1.0
 70
   192
  0
VERTEX
  5
EB9
  8
0
 10
-292.0000000000007
 20
224.9999999999999
 30
0.0
 70
   192
  0
VERTEX
  5
EBA
  8
0
 10
0.0
 20
0.0
 30
0.0
 70
   128
 71
     1
 72
     2
 73
    -3
  0
VERTEX
  5
EBB
  8
0
 10
0.0
 20
0.0
 30
0.0
 70
   128
 71
    -1
 72
     3
 73
     4
  0
VERTEX
  5
EBC
  8
0
 10
0.0
 20
0.0
 30
0.0
 70
   128
 71
     5
 72
     6
 73
    -2
  0
VERTEX
  5
EBD
  8
0
 10
0.0
 20
0.0
 30
0.0
 70
   128
 71
    -5
 72
     2
 73
     1
  0
VERTEX
  5
EBE
  8
0
 10
0.0
 20
0.0
 30
0.0
 70
   128
 71
     4
 72
     3
 73
    -7
  0
VERTEX
  5
EBF
  8
0
 10
0.0
 20
0.0
 30
0.0
 70
   128
 71
    -4
 72
     7
 73
     8
  0
SEQEND
  5
1780
  8
0
  0
POLYLINE
  5
EC0
  8
0
 66
     1
 10
0.0
 20
0.0
 30
0.0
 70
    64
 71
     4
 72
     2
  0
VERTEX
  5
EC1
  8
0
 10
-297.0000000000006
 20
229.9999999999998
 30
0.0
 70
   192
  0
VERTEX
  5
EC2
  8
0
 10
-297.0000000000007
 20
229.9999999999998
 30
-1.0
 70
   192
  0
VERTEX
  5
EC3
  8
0
 10
-297.0000000000007
 20
292.0
 30
-1.0
 70
   192
  0
VERTEX
  5
EC4
  8
0
 10
-297.0000000000007
 20
292.0000000000001
 30
0.0
 70
   192
  0
VERTEX
  5
EC5
  8
0
 10
0.0
 20
0.0
 30
0.0
 70
   128
 71
     1
 72
     4
 73
    -3
  0
VERTEX
  5
EC6
  8
0
 10
0.0
 20
0.0
 30
0.0
 70
   128
 71
    -1
 72
     3
 73
     2
  0
SEQEND
  5
1781
  8
0
  0
POLYLINE
  5
EC7
  8
0
 66
     1
 10
0.0
 20
0.0
 30
0.0
 70
    64
 71
     8
 72
     6
  0
VERTEX
  5
EC8
  8
0
 10
-294.5000000000007
 20
296.3301270189222
 30
0.0
 70
   192
  0
VERTEX
  5
EC9
  8
0
 10
-294.5000000000007
 20
296.3301270189222
 30
-1.0
 70
   192
  0
VERTEX
  5
ECA
  8
0
 10
-296.3301270189228
 20
294.5
 30
-1.0
 70
   192
  0
VERTEX
  5
ECB
  8
0
 10
-296.3301270189228
 20
294.5
 30
0.0
 70
   192
  0
VERTEX
  5
ECC
  8
0
 10
-292.0000000000007
 20
297.0000000000001
 30
0.0
 70
   192
  0
VERTEX
  5
ECD
  8
0
 10
-292.0000000000007
 20
297.0000000000001
 30
-1.0
 70
   192
  0
VERTEX
  5
ECE
  8
0
 10
-297.0000000000006
 20
292.0
 30
-1.0
 70
   192
  0
VERTEX
  5
ECF
  8
0
 10
-297.0000000000007
 20
292.0
 30
0.0
 70
   192
  0
VERTEX
  5
ED0
  8
0
 10
0.0
 20
0.0
 30
0.0
 70
   128
 71
     1
 72
     2
 73
    -3
  0
VERTEX
  5
ED1
  8
0
 10
0.0
 20
0.0
 30
0.0
 70
   128
 71
    -1
 72
     3
 73
     4
  0
VERTEX
  5
ED2
  8
0
 10
0.0
 20
0.0
 30
0.0
 70
   128
 71
     5
 72
     6
 73
    -2
  0
VERTEX
  5
ED3
  8
0
 10
0.0
 20
0.0
 30
0.0
 70
   128
 71
    -5
 72
     2
 73
     1
  0
VERTEX
  5
ED4
  8
0
 10
0.0
 20
0.0
 30
0.0
 70
   128
 71
     4
 72
     3
 73
    -7
  0
VERTEX
  5
ED5
  8
0
 10
0.0
 20
0.0
 30
0.0
 70
   128
 71
    -4
 72
     7
 73
     8
  0
SEQEND
  5
1782
  8
0
  0
POLYLINE
  5
ED6
  8
0
 66
     1
 10
0.0
 20
0.0
 30
0.0
 70
    64
 71
     4
 72
     2
  0
VERTEX
  5
ED7
  8
0
 10
-292.0000000000007
 20
297.0000000000001
 30
0.0
 70
   192
  0
VERTEX
  5
ED8
  8
0
 10
-292.0000000000007
 20
296.9999999999999
 30
-1.0
 70
   192
  0
VERTEX
  5
ED9
  8
0
 10
-230.0000000000007
 20
296.9999999999998
 30
-1.0
 70
   192
  0
VERTEX
  5
EDA
  8
0
 10
-230.0000000000007
 20
296.9999999999998
 30
0.0
 70
   192
  0
VERTEX
  5
EDB
  8
0
 10
0.0
 20
0.0
 30
0.0
 70
   128
 71
     1
 72
     4
 73
    -3
  0
VERTEX
  5
EDC
  8
0
 10
0.0
 20
0.0
 30
0.0
 70
   128
 71
    -1
 72
     3
 73
     2
  0
SEQEND
  5
1783
  8
0
  0
POLYLINE
  5
EDD
  8
0
 66
     1
 10
0.0
 20
0.0
 30
0.0
 70
    64
 71
     8
 72
     6
  0
VERTEX
  5
EDE
  8
0
 10
-225.6698729810786
 20
294.4999999999999
 30
0.0
 70
   192
  0
VERTEX
  5
EDF
  8
0
 10
-225.6698729810786
 20
294.4999999999999
 30
-1.0
 70
   192
  0
VERTEX
  5
EE0
  8
0
 10
-227.5000000000007
 20
296.330127018922
 30
-1.0
 70
   192
  0
VERTEX
  5
EE1
  8
0
 10
-227.5000000000007
 20
296.330127018922
 30
0.0
 70
   192
  0
VERTEX
  5
EE2
  8
0
 10
-225.0000000000008
 20
292.0
 30
0.0
 70
   192
  0
VERTEX
  5
EE3
  8
0
 10
-225.0000000000008
 20
292.0
 30
-1.0
 70
   192
  0
VERTEX
  5
EE4
  8
0
 10
-230.0000000000007
 20
296.9999999999998
 30
-1.0
 70
   192
  0
VERTEX
  5
EE5
  8
0
 10
-230.0000000000007
 20
296.9999999999998
 30
0.0
 70
   192
  0
VERTEX
  5
EE6
  8
0
 10
0.0
 20
0.0
 30
0.0
 70
   128
 71
     1
 72
     2
 73
    -3
  0
VERTEX
  5
EE7
  8
0
 10
0.0
 20
0.0
 30
0.0
 70
   128
 71
    -1
 72
     3
 73
     4
  0
VERTEX
  5
EE8
  8
0
 10
0.0
 20
0.0
 30
0.0
 70
   128
 71
     5
 72
     6
 73
    -2
  0
VERTEX
  5
EE9
  8
0
 10
0.0
 20
0.0
 30
0.0
 70
   128
 71
    -5
 72
     2
 73
     1
  0
VERTEX
  5
EEA
  8
0
 10
0.0
 20
0.0
 30
0.0
 70
   128
 71
     4
 72
     3
 73
    -7
  0
VERTEX
  5
EEB
  8
0
 10
0.0
 20
0.0
 30
0.0
 70
   128
 71
    -4
 72
     7
 73
     8
  0
SEQEND
  5
1784
  8
0
  0
POLYLINE
  5
EEC
  8
0
 66
     1
 10
0.0
 20
0.0
 30
0.0
 70
    64
 71
     4
 72
     2
  0
VERTEX
  5
EED
  8
0
 10
-225.0000000000008
 20
292.0
 30
0.0
 70
   192
  0
VERTEX
  5
EEE
  8
0
 10
-225.0000000000008
 20
292.0
 30
-1.0
 70
   192
  0
VERTEX
  5
EEF
  8
0
 10
-225.0000000000007
 20
229.9999999999998
 30
-1.0
 70
   192
  0
VERTEX
  5
EF0
  8
0
 10
-225.0000000000007
 20
229.9999999999998
 30
0.0
 70
   192
  0
VERTEX
  5
EF1
  8
0
 10
0.0
 20
0.0
 30
0.0
 70
   128
 71
     1
 72
     4
 73
    -3
  0
VERTEX
  5
EF2
  8
0
 10
0.0
 20
0.0
 30
0.0
 70
   128
 71
    -1
 72
     3
 73
     2
  0
SEQEND
  5
1785
  8
0
  0
POLYLINE
  5
EF3
  8
0
 66
     1
 10
0.0
 20
0.0
 30
0.0
 70
    64
 71
     8
 72
     6
  0
VERTEX
  5
EF4
  8
0
 10
-227.5000000000007
 20
225.6698729810776
 30
0.0
 70
   192
  0
VERTEX
  5
EF5
  8
0
 10
-227.5000000000007
 20
225.6698729810776
 30
-1.0
 70
   192
  0
VERTEX
  5
EF6
  8
0
 10
-225.6698729810785
 20
227.4999999999998
 30
-1.0
 70
   192
  0
VERTEX
  5
EF7
  8
0
 10
-225.6698729810785
 20
227.4999999999998
 30
0.0
 70
   192
  0
VERTEX
  5
EF8
  8
0
 10
-230.0000000000007
 20
224.9999999999999
 30
0.0
 70
   192
  0
VERTEX
  5
EF9
  8
0
 10
-230.0000000000007
 20
224.9999999999999
 30
-1.0
 70
   192
  0
VERTEX
  5
EFA
  8
0
 10
-225.0000000000007
 20
229.9999999999998
 30
-1.0
 70
   192
  0
VERTEX
  5
EFB
  8
0
 10
-225.0000000000007
 20
229.9999999999998
 30
0.0
 70
   192
  0
VERTEX
  5
EFC
  8
0
 10
0.0
 20
0.0
 30
0.0
 70
   128
 71
     1
 72
     2
 73
    -3
  0
VERTEX
  5
EFD
  8
0
 10
0.0
 20
0.0
 30
0.0
 70
   128
 71
    -1
 72
     3
 73
     4
  0
VERTEX
  5
EFE
  8
0
 10
0.0
 20
0.0
 30
0.0
 70
   128
 71
     5
 72
     6
 73
    -2
  0
VERTEX
  5
EFF
  8
0
 10
0.0
 20
0.0
 30
0.0
 70
   128
 71
    -5
 72
     2
 73
     1
  0
VERTEX
  5
F00
  8
0
 10
0.0
 20
0.0
 30
0.0
 70
   128
 71
     4
 72
     3
 73
    -7
  0
VERTEX
  5
F01
  8
0
 10
0.0
 20
0.0
 30
0.0
 70
   128
 71
    -4
 72
     7
 73
     8
  0
SEQEND
  5
1786
  8
0
  0
POLYLINE
  5
F02
  8
0
 66
     1
 10
0.0
 20
0.0
 30
0.0
 70
    64
 71
     4
 72
     2
  0
VERTEX
  5
F03
  8
0
 10
-230.0000000000007
 20
224.9999999999999
 30
0.0
 70
   192
  0
VERTEX
  5
F04
  8
0
 10
-230.0000000000007
 20
224.9999999999997
 30
-1.0
 70
   192
  0
VERTEX
  5
F05
  8
0
 10
-292.0000000000007
 20
224.9999999999999
 30
-1.0
 70
   192
  0
VERTEX
  5
F06
  8
0
 10
-292.0000000000007
 20
224.9999999999999
 30
0.0
 70
   192
  0
VERTEX
  5
F07
  8
0
 10
0.0
 20
0.0
 30
0.0
 70
   128
 71
     1
 72
     4
 73
    -3
  0
VERTEX
  5
F08
  8
0
 10
0.0
 20
0.0
 30
0.0
 70
   128
 71
    -1
 72
     3
 73
     2
  0
SEQEND
  5
1787
  8
0
  0
POLYLINE
  5
F09
  8
0
 66
     1
 10
0.0
 20
0.0
 30
0.0
 70
    64
 71
    24
 72
    26
  0
VERTEX
  5
F0A
  8
0
 10
-292.0000000000007
 20
224.9999999999999
 30
-1.0
 70
   192
  0
VERTEX
  5
F0B
  8
0
 10
-230.0000000000007
 20
224.9999999999999
 30
-1.0
 70
   192
  0
VERTEX
  5
F0C
  8
0
 10
-227.5000000000007
 20
225.6698729810776
 30
-1.0
 70
   192
  0
VERTEX
  5
F0D
  8
0
 10
-225.6698729810785
 20
227.4999999999998
 30
-1.0
 70
   192
  0
VERTEX
  5
F0E
  8
0
 10
-225.0000000000007
 20
229.9999999999998
 30
-1.0
 70
   192
  0
VERTEX
  5
F0F
  8
0
 10
-225.0000000000008
 20
292.0
 30
-1.0
 70
   192
  0
VERTEX
  5
F10
  8
0
 10
-225.6698729810786
 20
294.4999999999999
 30
-1.0
 70
   192
  0
VERTEX
  5
F11
  8
0
 10
-227.5000000000007
 20
296.330127018922
 30
-1.0
 70
   192
  0
VERTEX
  5
F12
  8
0
 10
-230.0000000000007
 20
296.9999999999998
 30
-1.0
 70
   192
  0
VERTEX
  5
F13
  8
0
 10
-292.0000000000007
 20
297.0000000000001
 30
-1.0
 70
   192
  0
VERTEX
  5
F14
  8
0
 10
-294.5000000000007
 20
296.3301270189222
 30
-1.0
 70
   192
  0
VERTEX
  5
F15
  8
0
 10
-296.3301270189228
 20
294.5
 30
-1.0
 70
   192
  0
VERTEX
  5
F16
  8
0
 10
-297.0000000000007
 20
292.0000000000001
 30
-1.0
 70
   192
  0
VERTEX
  5
F17
  8
0
 10
-297.0000000000007
 20
229.9999999999998
 30
-1.0
 70
   192
  0
VERTEX
  5
F18
  8
0
 10
-296.3301270189228
 20
227.4999999999999
 30
-1.0
 70
   192
  0
VERTEX
  5
F19
  8
0
 10
-294.5000000000007
 20
225.6698729810777
 30
-1.0
 70
   192
  0
VERTEX
  5
F1A
  8
0
 10
-272.4124907648521
 20
277.0000000000001
 30
-1.0
 70
   192
  0
VERTEX
  5
F1B
  8
0
 10
-272.4124907648521
 20
287.0000000000001
 30
-1.0
 70
   192
  0
VERTEX
  5
F1C
  8
0
 10
-235.0000000000006
 20
286.9999999999999
 30
-1.0
 70
   192
  0
VERTEX
  5
F1D
  8
0
 10
-235.0000000000007
 20
276.9999999999999
 30
-1.0
 70
   192
  0
VERTEX
  5
F1E
  8
0
 10
-287.0000000000007
 20
272.4124907648514
 30
-1.0
 70
   192
  0
VERTEX
  5
F1F
  8
0
 10
-277.0000000000007
 20
272.4124907648513
 30
-1.0
 70
   192
  0
VERTEX
  5
F20
  8
0
 10
-277.0000000000007
 20
235.0
 30
-1.0
 70
   192
  0
VERTEX
  5
F21
  8
0
 10
-287.0000000000007
 20
234.9999999999999
 30
-1.0
 70
   192
  0
VERTEX
  5
F22
  8
0
 10
0.0
 20
0.0
 30
0.0
 70
   128
 71
    18
 72
   -17
 73
   -13
  0
VERTEX
  5
F23
  8
0
 10
0.0
 20
0.0
 30
0.0
 70
   128
 71
   -18
 72
    13
 73
   -12
  0
VERTEX
  5
F24
  8
0
 10
0.0
 20
0.0
 30
0.0
 70
   128
 71
    12
 72
    11
 73
   -10
  0
VERTEX
  5
F25
  8
0
 10
0.0
 20
0.0
 30
0.0
 70
   128
 71
   -12
 72
    10
 73
    -9
  0
VERTEX
  5
F26
  8
0
 10
0.0
 20
0.0
 30
0.0
 70
   128
 71
   -12
 72
     9
 73
    -8
  0
VERTEX
  5
F27
  8
0
 10
0.0
 20
0.0
 30
0.0
 70
   128
 71
   -12
 72
     8
 73
    -7
  0
VERTEX
  5
F28
  8
0
 10
0.0
 20
0.0
 30
0.0
 70
   128
 71
   -12
 72
     7
 73
    -6
  0
VERTEX
  5
F29
  8
0
 10
0.0
 20
0.0
 30
0.0
 70
   128
 71
   -12
 72
    -6
 73
   -19
  0
VERTEX
  5
F2A
  8
0
 10
0.0
 20
0.0
 30
0.0
 70
   128
 71
   -12
 72
    19
 73
   -18
  0
VERTEX
  5
F2B
  8
0
 10
0.0
 20
0.0
 30
0.0
 70
   128
 71
    -6
 72
    20
 73
   -19
  0
VERTEX
  5
F2C
  8
0
 10
0.0
 20
0.0
 30
0.0
 70
   128
 71
    22
 72
   -21
 73
   -17
  0
VERTEX
  5
F2D
  8
0
 10
0.0
 20
0.0
 30
0.0
 70
   128
 71
   -20
 72
     6
 73
    -5
  0
VERTEX
  5
F2E
  8
0
 10
0.0
 20
0.0
 30
0.0
 70
   128
 71
     5
 72
     4
 73
    -3
  0
VERTEX
  5
F2F
  8
0
 10
0.0
 20
0.0
 30
0.0
 70
   128
 71
    -5
 72
     3
 73
    -2
  0
VERTEX
  5
F30
  8
0
 10
0.0
 20
0.0
 30
0.0
 70
   128
 71
    -5
 72
    -2
 73
   -23
  0
VERTEX
  5
F31
  8
0
 10
0.0
 20
0.0
 30
0.0
 70
   128
 71
    -5
 72
    23
 73
   -22
  0
VERTEX
  5
F32
  8
0
 10
0.0
 20
0.0
 30
0.0
 70
   128
 71
    -5
 72
   -22
 73
   -17
  0
VERTEX
  5
F33
  8
0
 10
0.0
 20
0.0
 30
0.0
 70
   128
 71
    -5
 72
    17
 73
   -20
  0
VERTEX
  5
F34
  8
0
 10
0.0
 20
0.0
 30
0.0
 70
   128
 71
     2
 72
    -1
 73
   -23
  0
VERTEX
  5
F35
  8
0
 10
0.0
 20
0.0
 30
0.0
 70
   128
 71
    -1
 72
    24
 73
   -23
  0
VERTEX
  5
F36
  8
0
 10
0.0
 20
0.0
 30
0.0
 70
   128
 71
     1
 72
    16
 73
   -15
  0
VERTEX
  5
F37
  8
0
 10
0.0
 20
0.0
 30
0.0
 70
   128
 71
    -1
 72
    15
 73
   -14
  0
VERTEX
  5
F38
  8
0
 10
0.0
 20
0.0
 30
0.0
 70
   128
 71
    -1
 72
    14
 73
   -13
  0
VERTEX
  5
F39
  8
0
 10
0.0
 20
0.0
 30
0.0
 70
   128
 71
    -1
 72
   -13
 73
   -21
  0
VERTEX
  5
F3A
  8
0
 10
0.0
 20
0.0
 30
0.0
 70
   128
 71
    -1
 72
    21
 73
   -24
  0
VERTEX
  5
F3B
  8
0
 10
0.0
 20
0.0
 30
0.0
 70
   128
 71
   -13
 72
   -17
 73
   -21
  0
SEQEND
  5
1788
  8
0
  0
POLYLINE
  5
F3C
  8
0
 66
     1
 10
0.0
 20
0.0
 30
0.0
 70
    64
 71
    16
 72
    14
  0
VERTEX
  5
F3D
  8
0
 10
-297.0000000000007
 20
229.9999999999998
 30
0.0
 70
   192
  0
VERTEX
  5
F3E
  8
0
 10
-296.3301270189228
 20
227.4999999999999
 30
0.0
 70
   192
  0
VERTEX
  5
F3F
  8
0
 10
-294.5000000000007
 20
225.6698729810777
 30
0.0
 70
   192
  0
VERTEX
  5
F40
  8
0
 10
-292.0000000000007
 20
224.9999999999999
 30
0.0
 70
   192
  0
VERTEX
  5
F41
  8
0
 10
-230.0000000000007
 20
224.9999999999997
 30
0.0
 70
   192
  0
VERTEX
  5
F42
  8
0
 10
-227.5000000000007
 20
225.6698729810776
 30
0.0
 70
   192
  0
VERTEX
  5
F43
  8
0
 10
-225.6698729810785
 20
227.4999999999998
 30
0.0
 70
   192
  0
VERTEX
  5
F44
  8
0
 10
-225.0000000000007
 20
229.9999999999998
 30
0.0
 70
   192
  0
VERTEX
  5
F45
  8
0
 10
-225.0000000000008
 20
292.0
 30
0.0
 70
   192
  0
VERTEX
  5
F46
  8
0
 10
-225.6698729810786
 20
294.4999999999999
 30
0.0
 70
   192
  0
VERTEX
  5
F47
  8
0
 10
-227.5000000000007
 20
296.330127018922
 30
0.0
 70
   192
  0
VERTEX
  5
F48
  8
0
 10
-230.0000000000007
 20
296.9999999999998
 30
0.0
 70
   192
  0
VERTEX
  5
F49
  8
0
 10
-292.0000000000007
 20
296.9999999999999
 30
0.0
 70
   192
  0
VERTEX
  5
F4A
  8
0
 10
-294.5000000000007
 20
296.3301270189222
 30
0.0
 70
   192
  0
VERTEX
  5
F4B
  8
0
 10
-296.3301270189228
 20
294.5
 30
0.0
 70
   192
  0
VERTEX
  5
F4C
  8
0
 10
-297.0000000000006
 20
292.0
 30
0.0
 70
   192
  0
VERTEX
  5
F4D
  8
0
 10
0.0
 20
0.0
 30
0.0
 70
   128
 71
    15
 72
    16
 73
    -1
  0
VERTEX
  5
F4E
  8
0
 10
0.0
 20
0.0
 30
0.0
 70
   128
 71
    14
 72
   -15
 73
    -1
  0
VERTEX
  5
F4F
  8
0
 10
0.0
 20
0.0
 30
0.0
 70
   128
 71
    13
 72
   -14
 73
    -1
  0
VERTEX
  5
F50
  8
0
 10
0.0
 20
0.0
 30
0.0
 70
   128
 71
    12
 72
   -13
 73
    -1
  0
VERTEX
  5
F51
  8
0
 10
0.0
 20
0.0
 30
0.0
 70
   128
 71
    11
 72
   -12
 73
    -1
  0
VERTEX
  5
F52
  8
0
 10
0.0
 20
0.0
 30
0.0
 70
   128
 71
    10
 72
   -11
 73
    -1
  0
VERTEX
  5
F53
  8
0
 10
0.0
 20
0.0
 30
0.0
 70
   128
 71
     9
 72
   -10
 73
    -1
  0
VERTEX
  5
F54
  8
0
 10
0.0
 20
0.0
 30
0.0
 70
   128
 71
     8
 72
    -9
 73
    -1
  0
VERTEX
  5
F55
  8
0
 10
0.0
 20
0.0
 30
0.0
 70
   128
 71
     7
 72
    -8
 73
    -1
  0
VERTEX
  5
F56
  8
0
 10
0.0
 20
0.0
 30
0.0
 70
   128
 71
     6
 72
    -7
 73
    -1
  0
VERTEX
  5
F57
  8
0
 10
0.0
 20
0.0
 30
0.0
 70
   128
 71
     5
 72
    -6
 73
    -1
  0
VERTEX
  5
F58
  8
0
 10
0.0
 20
0.0
 30
0.0
 70
   128
 71
     4
 72
    -5
 73
    -1
  0
VERTEX
  5
F59
  8
0
 10
0.0
 20
0.0
 30
0.0
 70
   128
 71
     3
 72
    -4
 73
    -1
  0
VERTEX
  5
F5A
  8
0
 10
0.0
 20
0.0
 30
0.0
 70
   128
 71
     2
 72
    -3
 73
     1
  0
SEQEND
  5
1789
  8
0
  0
POLYLINE
  5
F5B
  8
0
 66
     1
 10
0.0
 20
0.0
 30
0.0
 70
    64
 71
     4
 72
     2
  0
VERTEX
  5
F5C
  8
0
 10
-235.0000000000006
 20
286.9999999999999
 30
-1.0
 70
   192
  0
VERTEX
  5
F5D
  8
0
 10
-235.0000000000007
 20
276.9999999999999
 30
-1.0
 70
   192
  0
VERTEX
  5
F5E
  8
0
 10
-235.0000000000007
 20
276.9999999999999
 30
-8.0
 70
   192
  0
VERTEX
  5
F5F
  8
0
 10
-235.0000000000006
 20
286.9999999999999
 30
-8.0
 70
   192
  0
VERTEX
  5
F60
  8
0
 10
0.0
 20
0.0
 30
0.0
 70
   128
 71
     3
 72
     4
 73
    -1
  0
VERTEX
  5
F61
  8
0
 10
0.0
 20
0.0
 30
0.0
 70
   128
 71
     2
 72
    -3
 73
     1
  0
SEQEND
  5
178A
  8
0
  0
POLYLINE
  5
F62
  8
0
 66
     1
 10
0.0
 20
0.0
 30
0.0
 70
    64
 71
     4
 72
     2
  0
VERTEX
  5
F63
  8
0
 10
-235.0000000000007
 20
276.9999999999999
 30
-1.0
 70
   192
  0
VERTEX
  5
F64
  8
0
 10
-272.4124907648521
 20
276.9999999999999
 30
-1.0
 70
   192
  0
VERTEX
  5
F65
  8
0
 10
-272.4124907648521
 20
276.9999999999999
 30
-8.0
 70
   192
  0
VERTEX
  5
F66
  8
0
 10
-235.0000000000007
 20
276.9999999999999
 30
-8.0
 70
   192
  0
VERTEX
  5
F67
  8
0
 10
0.0
 20
0.0
 30
0.0
 70
   128
 71
     3
 72
     4
 73
    -1
  0
VERTEX
  5
F68
  8
0
 10
0.0
 20
0.0
 30
0.0
 70
   128
 71
     2
 72
    -3
 73
     1
  0
SEQEND
  5
178B
  8
0
  0
POLYLINE
  5
F69
  8
0
 66
     1
 10
0.0
 20
0.0
 30
0.0
 70
    64
 71
     4
 72
     2
  0
VERTEX
  5
F6A
  8
0
 10
-272.4124907648521
 20
276.9999999999999
 30
-1.0
 70
   192
  0
VERTEX
  5
F6B
  8
0
 10
-272.4124907648521
 20
276.9999999999999
 30
-8.0
 70
   192
  0
VERTEX
  5
F6C
  8
0
 10
-272.4124907648521
 20
287.0000000000001
 30
-8.0
 70
   192
  0
VERTEX
  5
F6D
  8
0
 10
-272.4124907648521
 20
287.0000000000001
 30
-1.0
 70
   192
  0
VERTEX
  5
F6E
  8
0
 10
0.0
 20
0.0
 30
0.0
 70
   128
 71
     1
 72
     4
 73
    -3
  0
VERTEX
  5
F6F
  8
0
 10
0.0
 20
0.0
 30
0.0
 70
   128
 71
    -1
 72
     3
 73
     2
  0
SEQEND
  5
178C
  8
0
  0
POLYLINE
  5
F70
  8
0
 66
     1
 10
0.0
 20
0.0
 30
0.0
 70
    64
 71
     4
 72
     2
  0
VERTEX
  5
F71
  8
0
 10
-272.4124907648521
 20
287.0000000000001
 30
-1.0
 70
   192
  0
VERTEX
  5
F72
  8
0
 10
-272.4124907648521
 20
287.0000000000001
 30
-8.0
 70
   192
  0
VERTEX
  5
F73
  8
0
 10
-235.0000000000006
 20
286.9999999999999
 30
-8.0
 70
   192
  0
VERTEX
  5
F74
  8
0
 10
-235.0000000000006
 20
286.9999999999999
 30
-1.0
 70
   192
  0
VERTEX
  5
F75
  8
0
 10
0.0
 20
0.0
 30
0.0
 70
   128
 71
     1
 72
     4
 73
    -3
  0
VERTEX
  5
F76
  8
0
 10
0.0
 20
0.0
 30
0.0
 70
   128
 71
    -1
 72
     3
 73
     2
  0
SEQEND
  5
178D
  8
0
  0
POLYLINE
  5
F77
  8
0
 66
     1
 10
0.0
 20
0.0
 30
0.0
 70
    64
 71
     4
 72
     2
  0
VERTEX
  5
F78
  8
0
 10
-235.0000000000006
 20
286.9999999999999
 30
-8.0
 70
   192
  0
VERTEX
  5
F79
  8
0
 10
-235.0000000000007
 20
276.9999999999999
 30
-8.0
 70
   192
  0
VERTEX
  5
F7A
  8
0
 10
-272.4124907648521
 20
276.9999999999999
 30
-8.0
 70
   192
  0
VERTEX
  5
F7B
  8
0
 10
-272.4124907648521
 20
287.0000000000001
 30
-8.0
 70
   192
  0
VERTEX
  5
F7C
  8
0
 10
0.0
 20
0.0
 30
0.0
 70
   128
 71
     3
 72
     4
 73
    -1
  0
VERTEX
  5
F7D
  8
0
 10
0.0
 20
0.0
 30
0.0
 70
   128
 71
     2
 72
    -3
 73
     1
  0
SEQEND
  5
178E
  8
0
  0
POLYLINE
  5
F7E
  8
0
 66
     1
 10
0.0
 20
0.0
 30
0.0
 70
    64
 71
     4
 72
     2
  0
VERTEX
  5
F7F
  8
0
 10
-277.0000000000007
 20
235.0
 30
-1.0
 70
   192
  0
VERTEX
  5
F80
  8
0
 10
-287.0000000000007
 20
235.0
 30
-1.0
 70
   192
  0
VERTEX
  5
F81
  8
0
 10
-287.0000000000007
 20
235.0
 30
-8.0
 70
   192
  0
VERTEX
  5
F82
  8
0
 10
-277.0000000000007
 20
235.0
 30
-8.0
 70
   192
  0
VERTEX
  5
F83
  8
0
 10
0.0
 20
0.0
 30
0.0
 70
   128
 71
     3
 72
     4
 73
    -1
  0
VERTEX
  5
F84
  8
0
 10
0.0
 20
0.0
 30
0.0
 70
   128
 71
     2
 72
    -3
 73
     1
  0
SEQEND
  5
178F
  8
0
  0
POLYLINE
  5
F85
  8
0
 66
     1
 10
0.0
 20
0.0
 30
0.0
 70
    64
 71
     4
 72
     2
  0
VERTEX
  5
F86
  8
0
 10
-287.0000000000007
 20
234.9999999999999
 30
-1.0
 70
   192
  0
VERTEX
  5
F87
  8
0
 10
-287.0000000000008
 20
272.4124907648514
 30
-1.0
 70
   192
  0
VERTEX
  5
F88
  8
0
 10
-287.0000000000007
 20
272.4124907648514
 30
-8.0
 70
   192
  0
VERTEX
  5
F89
  8
0
 10
-287.0000000000007
 20
234.9999999999999
 30
-8.0
 70
   192
  0
VERTEX
  5
F8A
  8
0
 10
0.0
 20
0.0
 30
0.0
 70
   128
 71
     3
 72
     4
 73
    -1
  0
VERTEX
  5
F8B
  8
0
 10
0.0
 20
0.0
 30
0.0
 70
   128
 71
     2
 72
    -3
 73
     1
  0
SEQEND
  5
1790
  8
0
  0
POLYLINE
  5
F8C
  8
0
 66
     1
 10
0.0
 20
0.0
 30
0.0
 70
    64
 71
     4
 72
     2
  0
VERTEX
  5
F8D
  8
0
 10
-287.0000000000007
 20
272.4124907648514
 30
-1.0
 70
   192
  0
VERTEX
  5
F8E
  8
0
 10
-287.0000000000007
 20
272.4124907648514
 30
-8.0
 70
   192
  0
VERTEX
  5
F8F
  8
0
 10
-277.0000000000007
 20
272.4124907648514
 30
-8.0
 70
   192
  0
VERTEX
  5
F90
  8
0
 10
-277.0000000000007
 20
272.4124907648514
 30
-1.0
 70
   192
  0
VERTEX
  5
F91
  8
0
 10
0.0
 20
0.0
 30
0.0
 70
   128
 71
     1
 72
     4
 73
    -3
  0
VERTEX
  5
F92
  8
0
 10
0.0
 20
0.0
 30
0.0
 70
   128
 71
    -1
 72
     3
 73
     2
  0
SEQEND
  5
1791
  8
0
  0
POLYLINE
  5
F93
  8
0
 66
     1
 10
0.0
 20
0.0
 30
0.0
 70
    64
 71
     4
 72
     2
  0
VERTEX
  5
F94
  8
0
 10
-277.0000000000007
 20
272.4124907648514
 30
-1.0
 70
   192
  0
VERTEX
  5
F95
  8
0
 10
-277.0000000000007
 20
272.4124907648513
 30
-8.0
 70
   192
  0
VERTEX
  5
F96
  8
0
 10
-277.0000000000007
 20
234.9999999999999
 30
-8.0
 70
   192
  0
VERTEX
  5
F97
  8
0
 10
-277.0000000000007
 20
235.0
 30
-1.0
 70
   192
  0
VERTEX
  5
F98
  8
0
 10
0.0
 20
0.0
 30
0.0
 70
   128
 71
     1
 72
     4
 73
    -3
  0
VERTEX
  5
F99
  8
0
 10
0.0
 20
0.0
 30
0.0
 70
   128
 71
    -1
 72
     3
 73
     2
  0
SEQEND
  5
1792
  8
0
  0
POLYLINE
  5
F9A
  8
0
 66
     1
 10
0.0
 20
0.0
 30
0.0
 70
    64
 71
     4
 72
     2
  0
VERTEX
  5
F9B
  8
0
 10
-277.0000000000007
 20
235.0
 30
-8.0
 70
   192
  0
VERTEX
  5
F9C
  8
0
 10
-287.0000000000007
 20
235.0
 30
-8.0
 70
   192
  0
VERTEX
  5
F9D
  8
0
 10
-287.0000000000008
 20
272.4124907648514
 30
-8.0
 70
   192
  0
VERTEX
  5
F9E
  8
0
 10
-277.0000000000007
 20
272.4124907648514
 30
-8.0
 70
   192
  0
VERTEX
  5
F9F
  8
0
 10
0.0
 20
0.0
 30
0.0
 70
   128
 71
     3
 72
     4
 73
    -1
  0
VERTEX
  5
FA0
  8
0
 10
0.0
 20
0.0
 30
0.0
 70
   128
 71
     2
 72
    -3
 73
     1
  0
SEQEND
  5
1793
  8
0
  0
ENDBLK
  5
177F
  8
0
  0
BLOCK
  8
0
  2
*X5
 70
     1
 10
0.0
 20
0.0
 30
0.0
  3
*X5
  1

  0
POLYLINE
  5
FA2
  8
0
 66
     1
 10
0.0
 20
0.0
 30
0.0
 70
    64
 71
    24
 72
    26
  0
VERTEX
  5
FA3
  8
0
 10
230.0000000000006
 20
296.9999999999999
 30
-1.0
 70
   192
  0
VERTEX
  5
FA4
  8
0
 10
227.5000000000006
 20
296.330127018922
 30
-1.0
 70
   192
  0
VERTEX
  5
FA5
  8
0
 10
225.6698729810784
 20
294.4999999999999
 30
-1.0
 70
   192
  0
VERTEX
  5
FA6
  8
0
 10
225.0000000000007
 20
291.9999999999999
 30
-1.0
 70
   192
  0
VERTEX
  5
FA7
  8
0
 10
225.0000000000007
 20
229.9999999999997
 30
-1.0
 70
   192
  0
VERTEX
  5
FA8
  8
0
 10
225.6698729810784
 20
227.4999999999998
 30
-1.0
 70
   192
  0
VERTEX
  5
FA9
  8
0
 10
227.5000000000006
 20
225.6698729810776
 30
-1.0
 70
   192
  0
VERTEX
  5
FAA
  8
0
 10
230.0000000000006
 20
224.9999999999998
 30
-1.0
 70
   192
  0
VERTEX
  5
FAB
  8
0
 10
292.0000000000006
 20
224.9999999999999
 30
-1.0
 70
   192
  0
VERTEX
  5
FAC
  8
0
 10
294.5000000000006
 20
225.6698729810777
 30
-1.0
 70
   192
  0
VERTEX
  5
FAD
  8
0
 10
296.3301270189228
 20
227.4999999999999
 30
-1.0
 70
   192
  0
VERTEX
  5
FAE
  8
0
 10
297.0000000000006
 20
229.9999999999999
 30
-1.0
 70
   192
  0
VERTEX
  5
FAF
  8
0
 10
297.0000000000006
 20
292.0000000000001
 30
-1.0
 70
   192
  0
VERTEX
  5
FB0
  8
0
 10
296.3301270189228
 20
294.5000000000001
 30
-1.0
 70
   192
  0
VERTEX
  5
FB1
  8
0
 10
294.5000000000006
 20
296.3301270189222
 30
-1.0
 70
   192
  0
VERTEX
  5
FB2
  8
0
 10
292.0000000000006
 20
296.9999999999999
 30
-1.0
 70
   192
  0
VERTEX
  5
FB3
  8
0
 10
277.0000000000006
 20
235.0
 30
-1.0
 70
   192
  0
VERTEX
  5
FB4
  8
0
 10
277.0000000000007
 20
272.4124907648515
 30
-1.0
 70
   192
  0
VERTEX
  5
FB5
  8
0
 10
287.0000000000007
 20
272.4124907648516
 30
-1.0
 70
   192
  0
VERTEX
  5
FB6
  8
0
 10
287.0000000000006
 20
235.0
 30
-1.0
 70
   192
  0
VERTEX
  5
FB7
  8
0
 10
235.0000000000004
 20
287.0000000000001
 30
-1.0
 70
   192
  0
VERTEX
  5
FB8
  8
0
 10
272.412490764852
 20
287.0000000000004
 30
-1.0
 70
   192
  0
VERTEX
  5
FB9
  8
0
 10
272.412490764852
 20
277.0
 30
-1.0
 70
   192
  0
VERTEX
  5
FBA
  8
0
 10
235.0000000000005
 20
276.9999999999999
 30
-1.0
 70
   192
  0
VERTEX
  5
FBB
  8
0
 10
0.0
 20
0.0
 30
0.0
 70
   128
 71
   -17
 72
     9
 73
    -8
  0
VERTEX
  5
FBC
  8
0
 10
0.0
 20
0.0
 30
0.0
 70
   128
 71
    24
 72
   -23
 73
   -18
  0
VERTEX
  5
FBD
  8
0
 10
0.0
 20
0.0
 30
0.0
 70
   128
 71
   -24
 72
    18
 73
   -17
  0
VERTEX
  5
FBE
  8
0
 10
0.0
 20
0.0
 30
0.0
 70
   128
 71
   -24
 72
   -17
 73
    -8
  0
VERTEX
  5
FBF
  8
0
 10
0.0
 20
0.0
 30
0.0
 70
   128
 71
   -24
 72
     8
 73
    -7
  0
VERTEX
  5
FC0
  8
0
 10
0.0
 20
0.0
 30
0.0
 70
   128
 71
   -24
 72
     7
 73
    -6
  0
VERTEX
  5
FC1
  8
0
 10
0.0
 20
0.0
 30
0.0
 70
   128
 71
   -24
 72
     6
 73
    -5
  0
VERTEX
  5
FC2
  8
0
 10
0.0
 20
0.0
 30
0.0
 70
   128
 71
     5
 72
    -4
 73
   -24
  0
VERTEX
  5
FC3
  8
0
 10
0.0
 20
0.0
 30
0.0
 70
   128
 71
    -4
 72
    21
 73
   -24
  0
VERTEX
  5
FC4
  8
0
 10
0.0
 20
0.0
 30
0.0
 70
   128
 71
    22
 72
   -21
 73
    -4
  0
VERTEX
  5
FC5
  8
0
 10
0.0
 20
0.0
 30
0.0
 70
   128
 71
   -22
 72
     4
 73
    -3
  0
VERTEX
  5
FC6
  8
0
 10
0.0
 20
0.0
 30
0.0
 70
   128
 71
   -22
 72
     3
 73
    -2
  0
VERTEX
  5
FC7
  8
0
 10
0.0
 20
0.0
 30
0.0
 70
   128
 71
   -22
 72
     2
 73
    -1
  0
VERTEX
  5
FC8
  8
0
 10
0.0
 20
0.0
 30
0.0
 70
   128
 71
   -22
 72
     1
 73
   -16
  0
VERTEX
  5
FC9
  8
0
 10
0.0
 20
0.0
 30
0.0
 70
   128
 71
   -16
 72
   -18
 73
   -22
  0
VERTEX
  5
FCA
  8
0
 10
0.0
 20
0.0
 30
0.0
 70
   128
 71
   -18
 72
    23
 73
   -22
  0
VERTEX
  5
FCB
  8
0
 10
0.0
 20
0.0
 30
0.0
 70
   128
 71
    16
 72
   -15
 73
   -19
  0
VERTEX
  5
FCC
  8
0
 10
0.0
 20
0.0
 30
0.0
 70
   128
 71
   -16
 72
    19
 73
   -18
  0
VERTEX
  5
FCD
  8
0
 10
0.0
 20
0.0
 30
0.0
 70
   128
 71
    15
 72
    14
 73
   -13
  0
VERTEX
  5
FCE
  8
0
 10
0.0
 20
0.0
 30
0.0
 70
   128
 71
   -15
 72
    13
 73
   -12
  0
VERTEX
  5
FCF
  8
0
 10
0.0
 20
0.0
 30
0.0
 70
   128
 71
   -15
 72
    12
 73
   -11
  0
VERTEX
  5
FD0
  8
0
 10
0.0
 20
0.0
 30
0.0
 70
   128
 71
   -15
 72
    11
 73
   -10
  0
VERTEX
  5
FD1
  8
0
 10
0.0
 20
0.0
 30
0.0
 70
   128
 71
   -15
 72
    10
 73
    -9
  0
VERTEX
  5
FD2
  8
0
 10
0.0
 20
0.0
 30
0.0
 70
   128
 71
   -15
 72
    -9
 73
   -20
  0
VERTEX
  5
FD3
  8
0
 10
0.0
 20
0.0
 30
0.0
 70
   128
 71
   -15
 72
    20
 73
   -19
  0
VERTEX
  5
FD4
  8
0
 10
0.0
 20
0.0
 30
0.0
 70
   128
 71
    -9
 72
    17
 73
   -20
  0
SEQEND
  5
1796
  8
0
  0
POLYLINE
  5
FD5
  8
0
 66
     1
 10
0.0
 20
0.0
 30
0.0
 70
    64
 71
     4
 72
     2
  0
VERTEX
  5
FD6
  8
0
 10
230.0000000000005
 20
296.9999999999998
 30
0.0
 70
   192
  0
VERTEX
  5
FD7
  8
0
 10
292.0000000000006
 20
296.9999999999999
 30
0.0
 70
   192
  0
VERTEX
  5
FD8
  8
0
 10
292.0000000000006
 20
296.9999999999999
 30
-1.0
 70
   192
  0
VERTEX
  5
FD9
  8
0
 10
230.0000000000005
 20
296.9999999999998
 30
-1.0
 70
   192
  0
VERTEX
  5
FDA
  8
0
 10
0.0
 20
0.0
 30
0.0
 70
   128
 71
     3
 72
     4
 73
    -1
  0
VERTEX
  5
FDB
  8
0
 10
0.0
 20
0.0
 30
0.0
 70
   128
 71
     2
 72
    -3
 73
     1
  0
SEQEND
  5
1797
  8
0
  0
POLYLINE
  5
FDC
  8
0
 66
     1
 10
0.0
 20
0.0
 30
0.0
 70
    64
 71
     8
 72
     6
  0
VERTEX
  5
FDD
  8
0
 10
296.3301270189228
 20
294.5000000000001
 30
0.0
 70
   192
  0
VERTEX
  5
FDE
  8
0
 10
296.3301270189228
 20
294.5000000000001
 30
-1.0
 70
   192
  0
VERTEX
  5
FDF
  8
0
 10
294.5000000000006
 20
296.3301270189222
 30
-1.0
 70
   192
  0
VERTEX
  5
FE0
  8
0
 10
294.5000000000006
 20
296.3301270189222
 30
0.0
 70
   192
  0
VERTEX
  5
FE1
  8
0
 10
297.0000000000006
 20
292.0000000000001
 30
0.0
 70
   192
  0
VERTEX
  5
FE2
  8
0
 10
297.0000000000006
 20
292.0000000000001
 30
-1.0
 70
   192
  0
VERTEX
  5
FE3
  8
0
 10
292.0000000000006
 20
297.0
 30
-1.0
 70
   192
  0
VERTEX
  5
FE4
  8
0
 10
292.0000000000006
 20
296.9999999999999
 30
0.0
 70
   192
  0
VERTEX
  5
FE5
  8
0
 10
0.0
 20
0.0
 30
0.0
 70
   128
 71
     1
 72
     2
 73
    -3
  0
VERTEX
  5
FE6
  8
0
 10
0.0
 20
0.0
 30
0.0
 70
   128
 71
    -1
 72
     3
 73
     4
  0
VERTEX
  5
FE7
  8
0
 10
0.0
 20
0.0
 30
0.0
 70
   128
 71
     5
 72
     6
 73
    -2
  0
VERTEX
  5
FE8
  8
0
 10
0.0
 20
0.0
 30
0.0
 70
   128
 71
    -5
 72
     2
 73
     1
  0
VERTEX
  5
FE9
  8
0
 10
0.0
 20
0.0
 30
0.0
 70
   128
 71
     4
 72
     3
 73
    -7
  0
VERTEX
  5
FEA
  8
0
 10
0.0
 20
0.0
 30
0.0
 70
   128
 71
    -4
 72
     7
 73
     8
  0
SEQEND
  5
1798
  8
0
  0
POLYLINE
  5
FEB
  8
0
 66
     1
 10
0.0
 20
0.0
 30
0.0
 70
    64
 71
     4
 72
     2
  0
VERTEX
  5
FEC
  8
0
 10
297.0000000000006
 20
292.0000000000001
 30
0.0
 70
   192
  0
VERTEX
  5
FED
  8
0
 10
297.0000000000006
 20
229.9999999999999
 30
0.0
 70
   192
  0
VERTEX
  5
FEE
  8
0
 10
297.0000000000006
 20
229.9999999999999
 30
-1.0
 70
   192
  0
VERTEX
  5
FEF
  8
0
 10
297.0000000000006
 20
292.0000000000001
 30
-1.0
 70
   192
  0
VERTEX
  5
FF0
  8
0
 10
0.0
 20
0.0
 30
0.0
 70
   128
 71
     3
 72
     4
 73
    -1
  0
VERTEX
  5
FF1
  8
0
 10
0.0
 20
0.0
 30
0.0
 70
   128
 71
     2
 72
    -3
 73
     1
  0
SEQEND
  5
1799
  8
0
  0
POLYLINE
  5
FF2
  8
0
 66
     1
 10
0.0
 20
0.0
 30
0.0
 70
    64
 71
     8
 72
     6
  0
VERTEX
  5
FF3
  8
0
 10
294.5000000000006
 20
225.6698729810777
 30
0.0
 70
   192
  0
VERTEX
  5
FF4
  8
0
 10
294.5000000000006
 20
225.6698729810777
 30
-1.0
 70
   192
  0
VERTEX
  5
FF5
  8
0
 10
296.3301270189228
 20
227.4999999999999
 30
-1.0
 70
   192
  0
VERTEX
  5
FF6
  8
0
 10
296.3301270189228
 20
227.4999999999999
 30
0.0
 70
   192
  0
VERTEX
  5
FF7
  8
0
 10
292.0000000000006
 20
224.9999999999999
 30
0.0
 70
   192
  0
VERTEX
  5
FF8
  8
0
 10
292.0000000000006
 20
224.9999999999999
 30
-1.0
 70
   192
  0
VERTEX
  5
FF9
  8
0
 10
297.0000000000006
 20
229.9999999999999
 30
-1.0
 70
   192
  0
VERTEX
  5
FFA
  8
0
 10
297.0000000000006
 20
229.9999999999999
 30
0.0
 70
   192
  0
VERTEX
  5
FFB
  8
0
 10
0.0
 20
0.0
 30
0.0
 70
   128
 71
     1
 72
     2
 73
    -3
  0
VERTEX
  5
FFC
  8
0
 10
0.0
 20
0.0
 30
0.0
 70
   128
 71
    -1
 72
     3
 73
     4
  0
VERTEX
  5
FFD
  8
0
 10
0.0
 20
0.0
 30
0.0
 70
   128
 71
     5
 72
     6
 73
    -2
  0
VERTEX
  5
FFE
  8
0
 10
0.0
 20
0.0
 30
0.0
 70
   128
 71
    -5
 72
     2
 73
     1
  0
VERTEX
  5
FFF
  8
0
 10
0.0
 20
0.0
 30
0.0
 70
   128
 71
     4
 72
     3
 73
    -7
  0
VERTEX
  5
1000
  8
0
 10
0.0
 20
0.0
 30
0.0
 70
   128
 71
    -4
 72
     7
 73
     8
  0
SEQEND
  5
179A
  8
0
  0
POLYLINE
  5
1001
  8
0
 66
     1
 10
0.0
 20
0.0
 30
0.0
 70
    64
 71
     4
 72
     2
  0
VERTEX
  5
1002
  8
0
 10
292.0000000000006
 20
224.9999999999999
 30
0.0
 70
   192
  0
VERTEX
  5
1003
  8
0
 10
230.0000000000006
 20
224.9999999999998
 30
0.0
 70
   192
  0
VERTEX
  5
1004
  8
0
 10
230.0000000000006
 20
224.9999999999998
 30
-1.0
 70
   192
  0
VERTEX
  5
1005
  8
0
 10
292.0000000000006
 20
224.9999999999999
 30
-1.0
 70
   192
  0
VERTEX
  5
1006
  8
0
 10
0.0
 20
0.0
 30
0.0
 70
   128
 71
     3
 72
     4
 73
    -1
  0
VERTEX
  5
1007
  8
0
 10
0.0
 20
0.0
 30
0.0
 70
   128
 71
     2
 72
    -3
 73
     1
  0
SEQEND
  5
179B
  8
0
  0
POLYLINE
  5
1008
  8
0
 66
     1
 10
0.0
 20
0.0
 30
0.0
 70
    64
 71
     8
 72
     6
  0
VERTEX
  5
1009
  8
0
 10
225.6698729810784
 20
227.4999999999998
 30
0.0
 70
   192
  0
VERTEX
  5
100A
  8
0
 10
225.6698729810784
 20
227.4999999999998
 30
-1.0
 70
   192
  0
VERTEX
  5
100B
  8
0
 10
227.5000000000006
 20
225.6698729810776
 30
-1.0
 70
   192
  0
VERTEX
  5
100C
  8
0
 10
227.5000000000006
 20
225.6698729810776
 30
0.0
 70
   192
  0
VERTEX
  5
100D
  8
0
 10
225.0000000000007
 20
229.9999999999997
 30
0.0
 70
   192
  0
VERTEX
  5
100E
  8
0
 10
225.0000000000007
 20
229.9999999999997
 30
-1.0
 70
   192
  0
VERTEX
  5
100F
  8
0
 10
230.0000000000006
 20
224.9999999999998
 30
-1.0
 70
   192
  0
VERTEX
  5
1010
  8
0
 10
230.0000000000006
 20
224.9999999999998
 30
0.0
 70
   192
  0
VERTEX
  5
1011
  8
0
 10
0.0
 20
0.0
 30
0.0
 70
   128
 71
     1
 72
     2
 73
    -3
  0
VERTEX
  5
1012
  8
0
 10
0.0
 20
0.0
 30
0.0
 70
   128
 71
    -1
 72
     3
 73
     4
  0
VERTEX
  5
1013
  8
0
 10
0.0
 20
0.0
 30
0.0
 70
   128
 71
     5
 72
     6
 73
    -2
  0
VERTEX
  5
1014
  8
0
 10
0.0
 20
0.0
 30
0.0
 70
   128
 71
    -5
 72
     2
 73
     1
  0
VERTEX
  5
1015
  8
0
 10
0.0
 20
0.0
 30
0.0
 70
   128
 71
     4
 72
     3
 73
    -7
  0
VERTEX
  5
1016
  8
0
 10
0.0
 20
0.0
 30
0.0
 70
   128
 71
    -4
 72
     7
 73
     8
  0
SEQEND
  5
179C
  8
0
  0
POLYLINE
  5
1017
  8
0
 66
     1
 10
0.0
 20
0.0
 30
0.0
 70
    64
 71
     4
 72
     2
  0
VERTEX
  5
1018
  8
0
 10
225.0000000000006
 20
229.9999999999997
 30
0.0
 70
   192
  0
VERTEX
  5
1019
  8
0
 10
225.0000000000007
 20
291.9999999999999
 30
0.0
 70
   192
  0
VERTEX
  5
101A
  8
0
 10
225.0000000000007
 20
291.9999999999999
 30
-1.0
 70
   192
  0
VERTEX
  5
101B
  8
0
 10
225.0000000000006
 20
229.9999999999997
 30
-1.0
 70
   192
  0
VERTEX
  5
101C
  8
0
 10
0.0
 20
0.0
 30
0.0
 70
   128
 71
     3
 72
     4
 73
    -1
  0
VERTEX
  5
101D
  8
0
 10
0.0
 20
0.0
 30
0.0
 70
   128
 71
     2
 72
    -3
 73
     1
  0
SEQEND
  5
179D
  8
0
  0
POLYLINE
  5
101E
  8
0
 66
     1
 10
0.0
 20
0.0
 30
0.0
 70
    64
 71
     8
 72
     6
  0
VERTEX
  5
101F
  8
0
 10
227.5000000000006
 20
296.330127018922
 30
0.0
 70
   192
  0
VERTEX
  5
1020
  8
0
 10
227.5000000000006
 20
296.330127018922
 30
-1.0
 70
   192
  0
VERTEX
  5
1021
  8
0
 10
225.6698729810784
 20
294.4999999999999
 30
-1.0
 70
   192
  0
VERTEX
  5
1022
  8
0
 10
225.6698729810784
 20
294.4999999999999
 30
0.0
 70
   192
  0
VERTEX
  5
1023
  8
0
 10
230.0000000000006
 20
296.9999999999999
 30
0.0
 70
   192
  0
VERTEX
  5
1024
  8
0
 10
230.0000000000006
 20
296.9999999999998
 30
-1.0
 70
   192
  0
VERTEX
  5
1025
  8
0
 10
225.0000000000007
 20
291.9999999999999
 30
-1.0
 70
   192
  0
VERTEX
  5
1026
  8
0
 10
225.0000000000007
 20
291.9999999999999
 30
0.0
 70
   192
  0
VERTEX
  5
1027
  8
0
 10
0.0
 20
0.0
 30
0.0
 70
   128
 71
     1
 72
     2
 73
    -3
  0
VERTEX
  5
1028
  8
0
 10
0.0
 20
0.0
 30
0.0
 70
   128
 71
    -1
 72
     3
 73
     4
  0
VERTEX
  5
1029
  8
0
 10
0.0
 20
0.0
 30
0.0
 70
   128
 71
     5
 72
     6
 73
    -2
  0
VERTEX
  5
102A
  8
0
 10
0.0
 20
0.0
 30
0.0
 70
   128
 71
    -5
 72
     2
 73
     1
  0
VERTEX
  5
102B
  8
0
 10
0.0
 20
0.0
 30
0.0
 70
   128
 71
     4
 72
     3
 73
    -7
  0
VERTEX
  5
102C
  8
0
 10
0.0
 20
0.0
 30
0.0
 70
   128
 71
    -4
 72
     7
 73
     8
  0
SEQEND
  5
179E
  8
0
  0
POLYLINE
  5
102D
  8
0
 66
     1
 10
0.0
 20
0.0
 30
0.0
 70
    64
 71
    16
 72
    14
  0
VERTEX
  5
102E
  8
0
 10
292.0000000000006
 20
296.9999999999999
 30
0.0
 70
   192
  0
VERTEX
  5
102F
  8
0
 10
230.0000000000005
 20
296.9999999999998
 30
0.0
 70
   192
  0
VERTEX
  5
1030
  8
0
 10
227.5000000000006
 20
296.330127018922
 30
0.0
 70
   192
  0
VERTEX
  5
1031
  8
0
 10
225.6698729810784
 20
294.4999999999999
 30
0.0
 70
   192
  0
VERTEX
  5
1032
  8
0
 10
225.0000000000007
 20
291.9999999999999
 30
0.0
 70
   192
  0
VERTEX
  5
1033
  8
0
 10
225.0000000000006
 20
229.9999999999997
 30
0.0
 70
   192
  0
VERTEX
  5
1034
  8
0
 10
225.6698729810784
 20
227.4999999999998
 30
0.0
 70
   192
  0
VERTEX
  5
1035
  8
0
 10
227.5000000000006
 20
225.6698729810776
 30
0.0
 70
   192
  0
VERTEX
  5
1036
  8
0
 10
230.0000000000006
 20
224.9999999999998
 30
0.0
 70
   192
  0
VERTEX
  5
1037
  8
0
 10
292.0000000000006
 20
224.9999999999999
 30
0.0
 70
   192
  0
VERTEX
  5
1038
  8
0
 10
294.5000000000006
 20
225.6698729810777
 30
0.0
 70
   192
  0
VERTEX
  5
1039
  8
0
 10
296.3301270189228
 20
227.4999999999999
 30
0.0
 70
   192
  0
VERTEX
  5
103A
  8
0
 10
297.0000000000006
 20
229.9999999999999
 30
0.0
 70
   192
  0
VERTEX
  5
103B
  8
0
 10
297.0000000000006
 20
292.0000000000001
 30
0.0
 70
   192
  0
VERTEX
  5
103C
  8
0
 10
296.3301270189228
 20
294.5000000000001
 30
0.0
 70
   192
  0
VERTEX
  5
103D
  8
0
 10
294.5000000000006
 20
296.3301270189222
 30
0.0
 70
   192
  0
VERTEX
  5
103E
  8
0
 10
0.0
 20
0.0
 30
0.0
 70
   128
 71
    15
 72
    16
 73
    -1
  0
VERTEX
  5
103F
  8
0
 10
0.0
 20
0.0
 30
0.0
 70
   128
 71
    14
 72
   -15
 73
    -1
  0
VERTEX
  5
1040
  8
0
 10
0.0
 20
0.0
 30
0.0
 70
   128
 71
    13
 72
   -14
 73
    -1
  0
VERTEX
  5
1041
  8
0
 10
0.0
 20
0.0
 30
0.0
 70
   128
 71
    12
 72
   -13
 73
    -1
  0
VERTEX
  5
1042
  8
0
 10
0.0
 20
0.0
 30
0.0
 70
   128
 71
    11
 72
   -12
 73
    -1
  0
VERTEX
  5
1043
  8
0
 10
0.0
 20
0.0
 30
0.0
 70
   128
 71
    10
 72
   -11
 73
    -1
  0
VERTEX
  5
1044
  8
0
 10
0.0
 20
0.0
 30
0.0
 70
   128
 71
     9
 72
   -10
 73
    -1
  0
VERTEX
  5
1045
  8
0
 10
0.0
 20
0.0
 30
0.0
 70
   128
 71
     8
 72
    -9
 73
    -1
  0
VERTEX
  5
1046
  8
0
 10
0.0
 20
0.0
 30
0.0
 70
   128
 71
     7
 72
    -8
 73
    -1
  0
VERTEX
  5
1047
  8
0
 10
0.0
 20
0.0
 30
0.0
 70
   128
 71
     6
 72
    -7
 73
    -1
  0
VERTEX
  5
1048
  8
0
 10
0.0
 20
0.0
 30
0.0
 70
   128
 71
     5
 72
    -6
 73
    -1
  0
VERTEX
  5
1049
  8
0
 10
0.0
 20
0.0
 30
0.0
 70
   128
 71
     4
 72
    -5
 73
    -1
  0
VERTEX
  5
104A
  8
0
 10
0.0
 20
0.0
 30
0.0
 70
   128
 71
     3
 72
    -4
 73
    -1
  0
VERTEX
  5
104B
  8
0
 10
0.0
 20
0.0
 30
0.0
 70
   128
 71
     2
 72
    -3
 73
     1
  0
SEQEND
  5
179F
  8
0
  0
POLYLINE
  5
104C
  8
0
 66
     1
 10
0.0
 20
0.0
 30
0.0
 70
    64
 71
     4
 72
     2
  0
VERTEX
  5
104D
  8
0
 10
287.0000000000006
 20
235.0
 30
-1.0
 70
   192
  0
VERTEX
  5
104E
  8
0
 10
287.0000000000006
 20
235.0
 30
-8.0
 70
   192
  0
VERTEX
  5
104F
  8
0
 10
277.0000000000006
 20
235.0
 30
-8.0
 70
   192
  0
VERTEX
  5
1050
  8
0
 10
277.0000000000006
 20
235.0
 30
-1.0
 70
   192
  0
VERTEX
  5
1051
  8
0
 10
0.0
 20
0.0
 30
0.0
 70
   128
 71
     1
 72
     4
 73
    -3
  0
VERTEX
  5
1052
  8
0
 10
0.0
 20
0.0
 30
0.0
 70
   128
 71
    -1
 72
     3
 73
     2
  0
SEQEND
  5
17A0
  8
0
  0
POLYLINE
  5
1053
  8
0
 66
     1
 10
0.0
 20
0.0
 30
0.0
 70
    64
 71
     4
 72
     2
  0
VERTEX
  5
1054
  8
0
 10
277.0000000000006
 20
235.0
 30
-1.0
 70
   192
  0
VERTEX
  5
1055
  8
0
 10
277.0000000000007
 20
272.4124907648516
 30
-1.0
 70
   192
  0
VERTEX
  5
1056
  8
0
 10
277.0000000000007
 20
272.4124907648515
 30
-8.0
 70
   192
  0
VERTEX
  5
1057
  8
0
 10
277.0000000000006
 20
235.0
 30
-8.0
 70
   192
  0
VERTEX
  5
1058
  8
0
 10
0.0
 20
0.0
 30
0.0
 70
   128
 71
     3
 72
     4
 73
    -1
  0
VERTEX
  5
1059
  8
0
 10
0.0
 20
0.0
 30
0.0
 70
   128
 71
     2
 72
    -3
 73
     1
  0
SEQEND
  5
17A1
  8
0
  0
POLYLINE
  5
105A
  8
0
 66
     1
 10
0.0
 20
0.0
 30
0.0
 70
    64
 71
     4
 72
     2
  0
VERTEX
  5
105B
  8
0
 10
277.0000000000007
 20
272.4124907648515
 30
-1.0
 70
   192
  0
VERTEX
  5
105C
  8
0
 10
287.0000000000006
 20
272.4124907648515
 30
-1.0
 70
   192
  0
VERTEX
  5
105D
  8
0
 10
287.0000000000006
 20
272.4124907648515
 30
-8.0
 70
   192
  0
VERTEX
  5
105E
  8
0
 10
277.0000000000007
 20
272.4124907648515
 30
-8.0
 70
   192
  0
VERTEX
  5
105F
  8
0
 10
0.0
 20
0.0
 30
0.0
 70
   128
 71
     3
 72
     4
 73
    -1
  0
VERTEX
  5
1060
  8
0
 10
0.0
 20
0.0
 30
0.0
 70
   128
 71
     2
 72
    -3
 73
     1
  0
SEQEND
  5
17A2
  8
0
  0
POLYLINE
  5
1061
  8
0
 66
     1
 10
0.0
 20
0.0
 30
0.0
 70
    64
 71
     4
 72
     2
  0
VERTEX
  5
1062
  8
0
 10
287.0000000000006
 20
272.4124907648515
 30
-1.0
 70
   192
  0
VERTEX
  5
1063
  8
0
 10
287.0000000000007
 20
272.4124907648516
 30
-8.0
 70
   192
  0
VERTEX
  5
1064
  8
0
 10
287.0000000000006
 20
235.0
 30
-8.0
 70
   192
  0
VERTEX
  5
1065
  8
0
 10
287.0000000000006
 20
235.0
 30
-1.0
 70
   192
  0
VERTEX
  5
1066
  8
0
 10
0.0
 20
0.0
 30
0.0
 70
   128
 71
     1
 72
     4
 73
    -3
  0
VERTEX
  5
1067
  8
0
 10
0.0
 20
0.0
 30
0.0
 70
   128
 71
    -1
 72
     3
 73
     2
  0
SEQEND
  5
17A3
  8
0
  0
POLYLINE
  5
1068
  8
0
 66
     1
 10
0.0
 20
0.0
 30
0.0
 70
    64
 71
     4
 72
     2
  0
VERTEX
  5
1069
  8
0
 10
287.0000000000006
 20
235.0
 30
-8.0
 70
   192
  0
VERTEX
  5
106A
  8
0
 10
287.0000000000006
 20
272.4124907648515
 30
-8.0
 70
   192
  0
VERTEX
  5
106B
  8
0
 10
277.0000000000007
 20
272.4124907648516
 30
-8.0
 70
   192
  0
VERTEX
  5
106C
  8
0
 10
277.0000000000006
 20
235.0
 30
-8.0
 70
   192
  0
VERTEX
  5
106D
  8
0
 10
0.0
 20
0.0
 30
0.0
 70
   128
 71
     1
 72
     4
 73
    -3
  0
VERTEX
  5
106E
  8
0
 10
0.0
 20
0.0
 30
0.0
 70
   128
 71
    -1
 72
     3
 73
     2
  0
SEQEND
  5
17A4
  8
0
  0
POLYLINE
  5
106F
  8
0
 66
     1
 10
0.0
 20
0.0
 30
0.0
 70
    64
 71
     4
 72
     2
  0
VERTEX
  5
1070
  8
0
 10
235.0000000000005
 20
276.9999999999999
 30
-1.0
 70
   192
  0
VERTEX
  5
1071
  8
0
 10
235.0000000000005
 20
276.9999999999999
 30
-8.0
 70
   192
  0
VERTEX
  5
1072
  8
0
 10
235.0000000000004
 20
287.0000000000001
 30
-8.0
 70
   192
  0
VERTEX
  5
1073
  8
0
 10
235.0000000000004
 20
287.0000000000001
 30
-1.0
 70
   192
  0
VERTEX
  5
1074
  8
0
 10
0.0
 20
0.0
 30
0.0
 70
   128
 71
     1
 72
     4
 73
    -3
  0
VERTEX
  5
1075
  8
0
 10
0.0
 20
0.0
 30
0.0
 70
   128
 71
    -1
 72
     3
 73
     2
  0
SEQEND
  5
17A5
  8
0
  0
POLYLINE
  5
1076
  8
0
 66
     1
 10
0.0
 20
0.0
 30
0.0
 70
    64
 71
     4
 72
     2
  0
VERTEX
  5
1077
  8
0
 10
235.0000000000004
 20
287.0000000000001
 30
-1.0
 70
   192
  0
VERTEX
  5
1078
  8
0
 10
272.412490764852
 20
287.0000000000002
 30
-1.0
 70
   192
  0
VERTEX
  5
1079
  8
0
 10
272.412490764852
 20
287.0000000000002
 30
-8.0
 70
   192
  0
VERTEX
  5
107A
  8
0
 10
235.0000000000004
 20
287.0000000000001
 30
-8.0
 70
   192
  0
VERTEX
  5
107B
  8
0
 10
0.0
 20
0.0
 30
0.0
 70
   128
 71
     3
 72
     4
 73
    -1
  0
VERTEX
  5
107C
  8
0
 10
0.0
 20
0.0
 30
0.0
 70
   128
 71
     2
 72
    -3
 73
     1
  0
SEQEND
  5
17A6
  8
0
  0
POLYLINE
  5
107D
  8
0
 66
     1
 10
0.0
 20
0.0
 30
0.0
 70
    64
 71
     4
 72
     2
  0
VERTEX
  5
107E
  8
0
 10
272.412490764852
 20
287.0000000000004
 30
-1.0
 70
   192
  0
VERTEX
  5
107F
  8
0
 10
272.412490764852
 20
276.9999999999999
 30
-1.0
 70
   192
  0
VERTEX
  5
1080
  8
0
 10
272.412490764852
 20
276.9999999999999
 30
-8.0
 70
   192
  0
VERTEX
  5
1081
  8
0
 10
272.412490764852
 20
287.0000000000004
 30
-8.0
 70
   192
  0
VERTEX
  5
1082
  8
0
 10
0.0
 20
0.0
 30
0.0
 70
   128
 71
     3
 72
     4
 73
    -1
  0
VERTEX
  5
1083
  8
0
 10
0.0
 20
0.0
 30
0.0
 70
   128
 71
     2
 72
    -3
 73
     1
  0
SEQEND
  5
17A7
  8
0
  0
POLYLINE
  5
1084
  8
0
 66
     1
 10
0.0
 20
0.0
 30
0.0
 70
    64
 71
     4
 72
     2
  0
VERTEX
  5
1085
  8
0
 10
272.412490764852
 20
276.9999999999999
 30
-1.0
 70
   192
  0
VERTEX
  5
1086
  8
0
 10
272.412490764852
 20
277.0
 30
-8.0
 70
   192
  0
VERTEX
  5
1087
  8
0
 10
235.0000000000005
 20
276.9999999999999
 30
-8.0
 70
   192
  0
VERTEX
  5
1088
  8
0
 10
235.0000000000005
 20
276.9999999999999
 30
-1.0
 70
   192
  0
VERTEX
  5
1089
  8
0
 10
0.0
 20
0.0
 30
0.0
 70
   128
 71
     1
 72
     4
 73
    -3
  0
VERTEX
  5
108A
  8
0
 10
0.0
 20
0.0
 30
0.0
 70
   128
 71
    -1
 72
     3
 73
     2
  0
SEQEND
  5
17A8
  8
0
  0
POLYLINE
  5
108B
  8
0
 66
     1
 10
0.0
 20
0.0
 30
0.0
 70
    64
 71
     4
 72
     2
  0
VERTEX
  5
108C
  8
0
 10
235.0000000000005
 20
276.9999999999999
 30
-8.0
 70
   192
  0
VERTEX
  5
108D
  8
0
 10
272.412490764852
 20
276.9999999999999
 30
-8.0
 70
   192
  0
VERTEX
  5
108E
  8
0
 10
272.412490764852
 20
287.0000000000002
 30
-8.0
 70
   192
  0
VERTEX
  5
108F
  8
0
 10
235.0000000000004
 20
287.0000000000001
 30
-8.0
 70
   192
  0
VERTEX
  5
1090
  8
0
 10
0.0
 20
0.0
 30
0.0
 70
   128
 71
     1
 72
     4
 73
    -3
  0
VERTEX
  5
1091
  8
0
 10
0.0
 20
0.0
 30
0.0
 70
   128
 71
    -1
 72
     3
 73
     2
  0
SEQEND
  5
17A9
  8
0
  0
ENDBLK
  5
1795
  8
0
  0
BLOCK
  8
0
  2
*X6
 70
     1
 10
0.0
 20
0.0
 30
0.0
  3
*X6
  1

  0
POLYLINE
  5
1093
  8
0
 66
     1
 10
0.0
 20
0.0
 30
0.0
 70
    64
 71
     8
 72
     6
  0
VERTEX
  5
1094
  8
0
 10
294.5000000000006
 20
-296.3301270189222
 30
0.0
 70
   192
  0
VERTEX
  5
1095
  8
0
 10
294.5000000000006
 20
-296.3301270189222
 30
-1.0
 70
   192
  0
VERTEX
  5
1096
  8
0
 10
296.3301270189227
 20
-294.5
 30
-1.0
 70
   192
  0
VERTEX
  5
1097
  8
0
 10
296.3301270189227
 20
-294.5
 30
0.0
 70
   192
  0
VERTEX
  5
1098
  8
0
 10
292.0000000000006
 20
-296.9999999999999
 30
0.0
 70
   192
  0
VERTEX
  5
1099
  8
0
 10
292.0000000000006
 20
-296.9999999999998
 30
-1.0
 70
   192
  0
VERTEX
  5
109A
  8
0
 10
297.0000000000005
 20
-292.0000000000001
 30
-1.0
 70
   192
  0
VERTEX
  5
109B
  8
0
 10
297.0000000000006
 20
-292.0000000000001
 30
0.0
 70
   192
  0
VERTEX
  5
109C
  8
0
 10
0.0
 20
0.0
 30
0.0
 70
   128
 71
     1
 72
     2
 73
    -3
  0
VERTEX
  5
109D
  8
0
 10
0.0
 20
0.0
 30
0.0
 70
   128
 71
    -1
 72
     3
 73
     4
  0
VERTEX
  5
109E
  8
0
 10
0.0
 20
0.0
 30
0.0
 70
   128
 71
     5
 72
     6
 73
    -2
  0
VERTEX
  5
109F
  8
0
 10
0.0
 20
0.0
 30
0.0
 70
   128
 71
    -5
 72
     2
 73
     1
  0
VERTEX
  5
10A0
  8
0
 10
0.0
 20
0.0
 30
0.0
 70
   128
 71
     4
 72
     3
 73
    -7
  0
VERTEX
  5
10A1
  8
0
 10
0.0
 20
0.0
 30
0.0
 70
   128
 71
    -4
 72
     7
 73
     8
  0
SEQEND
  5
17AC
  8
0
  0
POLYLINE
  5
10A2
  8
0
 66
     1
 10
0.0
 20
0.0
 30
0.0
 70
    64
 71
     4
 72
     2
  0
VERTEX
  5
10A3
  8
0
 10
292.0000000000006
 20
-296.9999999999998
 30
0.0
 70
   192
  0
VERTEX
  5
10A4
  8
0
 10
292.0000000000006
 20
-296.9999999999998
 30
-1.0
 70
   192
  0
VERTEX
  5
10A5
  8
0
 10
230.0000000000006
 20
-296.9999999999998
 30
-1.0
 70
   192
  0
VERTEX
  5
10A6
  8
0
 10
230.0000000000006
 20
-296.9999999999998
 30
0.0
 70
   192
  0
VERTEX
  5
10A7
  8
0
 10
0.0
 20
0.0
 30
0.0
 70
   128
 71
     1
 72
     4
 73
    -3
  0
VERTEX
  5
10A8
  8
0
 10
0.0
 20
0.0
 30
0.0
 70
   128
 71
    -1
 72
     3
 73
     2
  0
SEQEND
  5
17AD
  8
0
  0
POLYLINE
  5
10A9
  8
0
 66
     1
 10
0.0
 20
0.0
 30
0.0
 70
    64
 71
     8
 72
     6
  0
VERTEX
  5
10AA
  8
0
 10
225.6698729810784
 20
-294.4999999999999
 30
0.0
 70
   192
  0
VERTEX
  5
10AB
  8
0
 10
225.6698729810784
 20
-294.4999999999999
 30
-1.0
 70
   192
  0
VERTEX
  5
10AC
  8
0
 10
227.5000000000006
 20
-296.3301270189221
 30
-1.0
 70
   192
  0
VERTEX
  5
10AD
  8
0
 10
227.5000000000006
 20
-296.3301270189221
 30
0.0
 70
   192
  0
VERTEX
  5
10AE
  8
0
 10
225.0000000000007
 20
-291.9999999999999
 30
0.0
 70
   192
  0
VERTEX
  5
10AF
  8
0
 10
225.0000000000007
 20
-291.9999999999999
 30
-1.0
 70
   192
  0
VERTEX
  5
10B0
  8
0
 10
230.0000000000006
 20
-296.9999999999999
 30
-1.0
 70
   192
  0
VERTEX
  5
10B1
  8
0
 10
230.0000000000006
 20
-296.9999999999998
 30
0.0
 70
   192
  0
VERTEX
  5
10B2
  8
0
 10
0.0
 20
0.0
 30
0.0
 70
   128
 71
     1
 72
     2
 73
    -3
  0
VERTEX
  5
10B3
  8
0
 10
0.0
 20
0.0
 30
0.0
 70
   128
 71
    -1
 72
     3
 73
     4
  0
VERTEX
  5
10B4
  8
0
 10
0.0
 20
0.0
 30
0.0
 70
   128
 71
     5
 72
     6
 73
    -2
  0
VERTEX
  5
10B5
  8
0
 10
0.0
 20
0.0
 30
0.0
 70
   128
 71
    -5
 72
     2
 73
     1
  0
VERTEX
  5
10B6
  8
0
 10
0.0
 20
0.0
 30
0.0
 70
   128
 71
     4
 72
     3
 73
    -7
  0
VERTEX
  5
10B7
  8
0
 10
0.0
 20
0.0
 30
0.0
 70
   128
 71
    -4
 72
     7
 73
     8
  0
SEQEND
  5
17AE
  8
0
  0
POLYLINE
  5
10B8
  8
0
 66
     1
 10
0.0
 20
0.0
 30
0.0
 70
    64
 71
     4
 72
     2
  0
VERTEX
  5
10B9
  8
0
 10
225.0000000000007
 20
-291.9999999999999
 30
0.0
 70
   192
  0
VERTEX
  5
10BA
  8
0
 10
225.0000000000006
 20
-291.9999999999999
 30
-1.0
 70
   192
  0
VERTEX
  5
10BB
  8
0
 10
225.0000000000006
 20
-229.9999999999998
 30
-1.0
 70
   192
  0
VERTEX
  5
10BC
  8
0
 10
225.0000000000006
 20
-229.9999999999998
 30
0.0
 70
   192
  0
VERTEX
  5
10BD
  8
0
 10
0.0
 20
0.0
 30
0.0
 70
   128
 71
     1
 72
     4
 73
    -3
  0
VERTEX
  5
10BE
  8
0
 10
0.0
 20
0.0
 30
0.0
 70
   128
 71
    -1
 72
     3
 73
     2
  0
SEQEND
  5
17AF
  8
0
  0
POLYLINE
  5
10BF
  8
0
 66
     1
 10
0.0
 20
0.0
 30
0.0
 70
    64
 71
     8
 72
     6
  0
VERTEX
  5
10C0
  8
0
 10
227.5000000000006
 20
-225.6698729810777
 30
0.0
 70
   192
  0
VERTEX
  5
10C1
  8
0
 10
227.5000000000006
 20
-225.6698729810777
 30
-1.0
 70
   192
  0
VERTEX
  5
10C2
  8
0
 10
225.6698729810784
 20
-227.4999999999998
 30
-1.0
 70
   192
  0
VERTEX
  5
10C3
  8
0
 10
225.6698729810784
 20
-227.4999999999998
 30
0.0
 70
   192
  0
VERTEX
  5
10C4
  8
0
 10
230.0000000000006
 20
-224.9999999999999
 30
0.0
 70
   192
  0
VERTEX
  5
10C5
  8
0
 10
230.0000000000006
 20
-224.9999999999999
 30
-1.0
 70
   192
  0
VERTEX
  5
10C6
  8
0
 10
225.0000000000005
 20
-229.9999999999998
 30
-1.0
 70
   192
  0
VERTEX
  5
10C7
  8
0
 10
225.0000000000006
 20
-229.9999999999998
 30
0.0
 70
   192
  0
VERTEX
  5
10C8
  8
0
 10
0.0
 20
0.0
 30
0.0
 70
   128
 71
     1
 72
     2
 73
    -3
  0
VERTEX
  5
10C9
  8
0
 10
0.0
 20
0.0
 30
0.0
 70
   128
 71
    -1
 72
     3
 73
     4
  0
VERTEX
  5
10CA
  8
0
 10
0.0
 20
0.0
 30
0.0
 70
   128
 71
     5
 72
     6
 73
    -2
  0
VERTEX
  5
10CB
  8
0
 10
0.0
 20
0.0
 30
0.0
 70
   128
 71
    -5
 72
     2
 73
     1
  0
VERTEX
  5
10CC
  8
0
 10
0.0
 20
0.0
 30
0.0
 70
   128
 71
     4
 72
     3
 73
    -7
  0
VERTEX
  5
10CD
  8
0
 10
0.0
 20
0.0
 30
0.0
 70
   128
 71
    -4
 72
     7
 73
     8
  0
SEQEND
  5
17B0
  8
0
  0
POLYLINE
  5
10CE
  8
0
 66
     1
 10
0.0
 20
0.0
 30
0.0
 70
    64
 71
     4
 72
     2
  0
VERTEX
  5
10CF
  8
0
 10
230.0000000000006
 20
-224.9999999999999
 30
0.0
 70
   192
  0
VERTEX
  5
10D0
  8
0
 10
230.0000000000006
 20
-224.9999999999999
 30
-1.0
 70
   192
  0
VERTEX
  5
10D1
  8
0
 10
292.0000000000006
 20
-224.9999999999999
 30
-1.0
 70
   192
  0
VERTEX
  5
10D2
  8
0
 10
292.0000000000006
 20
-224.9999999999999
 30
0.0
 70
   192
  0
VERTEX
  5
10D3
  8
0
 10
0.0
 20
0.0
 30
0.0
 70
   128
 71
     1
 72
     4
 73
    -3
  0
VERTEX
  5
10D4
  8
0
 10
0.0
 20
0.0
 30
0.0
 70
   128
 71
    -1
 72
     3
 73
     2
  0
SEQEND
  5
17B1
  8
0
  0
POLYLINE
  5
10D5
  8
0
 66
     1
 10
0.0
 20
0.0
 30
0.0
 70
    64
 71
     8
 72
     6
  0
VERTEX
  5
10D6
  8
0
 10
296.3301270189227
 20
-227.4999999999999
 30
0.0
 70
   192
  0
VERTEX
  5
10D7
  8
0
 10
296.3301270189227
 20
-227.4999999999999
 30
-1.0
 70
   192
  0
VERTEX
  5
10D8
  8
0
 10
294.5000000000006
 20
-225.6698729810777
 30
-1.0
 70
   192
  0
VERTEX
  5
10D9
  8
0
 10
294.5000000000006
 20
-225.6698729810777
 30
0.0
 70
   192
  0
VERTEX
  5
10DA
  8
0
 10
297.0000000000005
 20
-229.9999999999999
 30
0.0
 70
   192
  0
VERTEX
  5
10DB
  8
0
 10
297.0000000000006
 20
-229.9999999999999
 30
-1.0
 70
   192
  0
VERTEX
  5
10DC
  8
0
 10
292.0000000000006
 20
-224.9999999999999
 30
-1.0
 70
   192
  0
VERTEX
  5
10DD
  8
0
 10
292.0000000000006
 20
-224.9999999999999
 30
0.0
 70
   192
  0
VERTEX
  5
10DE
  8
0
 10
0.0
 20
0.0
 30
0.0
 70
   128
 71
     1
 72
     2
 73
    -3
  0
VERTEX
  5
10DF
  8
0
 10
0.0
 20
0.0
 30
0.0
 70
   128
 71
    -1
 72
     3
 73
     4
  0
VERTEX
  5
10E0
  8
0
 10
0.0
 20
0.0
 30
0.0
 70
   128
 71
     5
 72
     6
 73
    -2
  0
VERTEX
  5
10E1
  8
0
 10
0.0
 20
0.0
 30
0.0
 70
   128
 71
    -5
 72
     2
 73
     1
  0
VERTEX
  5
10E2
  8
0
 10
0.0
 20
0.0
 30
0.0
 70
   128
 71
     4
 72
     3
 73
    -7
  0
VERTEX
  5
10E3
  8
0
 10
0.0
 20
0.0
 30
0.0
 70
   128
 71
    -4
 72
     7
 73
     8
  0
SEQEND
  5
17B2
  8
0
  0
POLYLINE
  5
10E4
  8
0
 66
     1
 10
0.0
 20
0.0
 30
0.0
 70
    64
 71
     4
 72
     2
  0
VERTEX
  5
10E5
  8
0
 10
297.0000000000006
 20
-229.9999999999999
 30
0.0
 70
   192
  0
VERTEX
  5
10E6
  8
0
 10
297.0000000000006
 20
-229.9999999999999
 30
-1.0
 70
   192
  0
VERTEX
  5
10E7
  8
0
 10
297.0000000000006
 20
-292.0000000000001
 30
-1.0
 70
   192
  0
VERTEX
  5
10E8
  8
0
 10
297.0000000000006
 20
-292.0000000000001
 30
0.0
 70
   192
  0
VERTEX
  5
10E9
  8
0
 10
0.0
 20
0.0
 30
0.0
 70
   128
 71
     1
 72
     4
 73
    -3
  0
VERTEX
  5
10EA
  8
0
 10
0.0
 20
0.0
 30
0.0
 70
   128
 71
    -1
 72
     3
 73
     2
  0
SEQEND
  5
17B3
  8
0
  0
POLYLINE
  5
10EB
  8
0
 66
     1
 10
0.0
 20
0.0
 30
0.0
 70
    64
 71
    24
 72
    26
  0
VERTEX
  5
10EC
  8
0
 10
297.0000000000006
 20
-292.0000000000001
 30
-1.0
 70
   192
  0
VERTEX
  5
10ED
  8
0
 10
297.0000000000005
 20
-229.9999999999999
 30
-1.0
 70
   192
  0
VERTEX
  5
10EE
  8
0
 10
296.3301270189227
 20
-227.4999999999999
 30
-1.0
 70
   192
  0
VERTEX
  5
10EF
  8
0
 10
294.5000000000006
 20
-225.6698729810777
 30
-1.0
 70
   192
  0
VERTEX
  5
10F0
  8
0
 10
292.0000000000006
 20
-224.9999999999999
 30
-1.0
 70
   192
  0
VERTEX
  5
10F1
  8
0
 10
230.0000000000006
 20
-224.9999999999999
 30
-1.0
 70
   192
  0
VERTEX
  5
10F2
  8
0
 10
227.5000000000006
 20
-225.6698729810777
 30
-1.0
 70
   192
  0
VERTEX
  5
10F3
  8
0
 10
225.6698729810784
 20
-227.4999999999998
 30
-1.0
 70
   192
  0
VERTEX
  5
10F4
  8
0
 10
225.0000000000006
 20
-229.9999999999998
 30
-1.0
 70
   192
  0
VERTEX
  5
10F5
  8
0
 10
225.0000000000007
 20
-291.9999999999999
 30
-1.0
 70
   192
  0
VERTEX
  5
10F6
  8
0
 10
225.6698729810784
 20
-294.4999999999999
 30
-1.0
 70
   192
  0
VERTEX
  5
10F7
  8
0
 10
227.5000000000006
 20
-296.3301270189221
 30
-1.0
 70
   192
  0
VERTEX
  5
10F8
  8
0
 10
230.0000000000006
 20
-296.9999999999998
 30
-1.0
 70
   192
  0
VERTEX
  5
10F9
  8
0
 10
292.0000000000006
 20
-296.9999999999999
 30
-1.0
 70
   192
  0
VERTEX
  5
10FA
  8
0
 10
294.5000000000006
 20
-296.3301270189222
 30
-1.0
 70
   192
  0
VERTEX
  5
10FB
  8
0
 10
296.3301270189227
 20
-294.5
 30
-1.0
 70
   192
  0
VERTEX
  5
10FC
  8
0
 10
272.4124907648521
 20
-276.9999999999999
 30
-1.0
 70
   192
  0
VERTEX
  5
10FD
  8
0
 10
272.4124907648521
 20
-286.9999999999999
 30
-1.0
 70
   192
  0
VERTEX
  5
10FE
  8
0
 10
235.0000000000006
 20
-286.9999999999999
 30
-1.0
 70
   192
  0
VERTEX
  5
10FF
  8
0
 10
235.0000000000007
 20
-276.9999999999999
 30
-1.0
 70
   192
  0
VERTEX
  5
1100
  8
0
 10
287.0000000000008
 20
-272.4124907648514
 30
-1.0
 70
   192
  0
VERTEX
  5
1101
  8
0
 10
277.0000000000009
 20
-272.4124907648514
 30
-1.0
 70
   192
  0
VERTEX
  5
1102
  8
0
 10
277.0000000000008
 20
-235.0
 30
-1.0
 70
   192
  0
VERTEX
  5
1103
  8
0
 10
287.0000000000007
 20
-235.0
 30
-1.0
 70
   192
  0
VERTEX
  5
1104
  8
0
 10
0.0
 20
0.0
 30
0.0
 70
   128
 71
    18
 72
   -17
 73
    -1
  0
VERTEX
  5
1105
  8
0
 10
0.0
 20
0.0
 30
0.0
 70
   128
 71
   -18
 72
     1
 73
   -16
  0
VERTEX
  5
1106
  8
0
 10
0.0
 20
0.0
 30
0.0
 70
   128
 71
    16
 72
    15
 73
   -14
  0
VERTEX
  5
1107
  8
0
 10
0.0
 20
0.0
 30
0.0
 70
   128
 71
   -16
 72
    14
 73
   -13
  0
VERTEX
  5
1108
  8
0
 10
0.0
 20
0.0
 30
0.0
 70
   128
 71
   -16
 72
    13
 73
   -12
  0
VERTEX
  5
1109
  8
0
 10
0.0
 20
0.0
 30
0.0
 70
   128
 71
   -16
 72
    12
 73
   -11
  0
VERTEX
  5
110A
  8
0
 10
0.0
 20
0.0
 30
0.0
 70
   128
 71
   -16
 72
    11
 73
   -10
  0
VERTEX
  5
110B
  8
0
 10
0.0
 20
0.0
 30
0.0
 70
   128
 71
   -16
 72
   -10
 73
   -19
  0
VERTEX
  5
110C
  8
0
 10
0.0
 20
0.0
 30
0.0
 70
   128
 71
   -16
 72
    19
 73
   -18
  0
VERTEX
  5
110D
  8
0
 10
0.0
 20
0.0
 30
0.0
 70
   128
 71
   -10
 72
    20
 73
   -19
  0
VERTEX
  5
110E
  8
0
 10
0.0
 20
0.0
 30
0.0
 70
   128
 71
    22
 72
   -21
 73
   -17
  0
VERTEX
  5
110F
  8
0
 10
0.0
 20
0.0
 30
0.0
 70
   128
 71
   -20
 72
    10
 73
    -9
  0
VERTEX
  5
1110
  8
0
 10
0.0
 20
0.0
 30
0.0
 70
   128
 71
     9
 72
     8
 73
    -7
  0
VERTEX
  5
1111
  8
0
 10
0.0
 20
0.0
 30
0.0
 70
   128
 71
    -9
 72
     7
 73
    -6
  0
VERTEX
  5
1112
  8
0
 10
0.0
 20
0.0
 30
0.0
 70
   128
 71
    -9
 72
    -6
 73
   -23
  0
VERTEX
  5
1113
  8
0
 10
0.0
 20
0.0
 30
0.0
 70
   128
 71
    -9
 72
    23
 73
   -22
  0
VERTEX
  5
1114
  8
0
 10
0.0
 20
0.0
 30
0.0
 70
   128
 71
    -9
 72
   -22
 73
   -17
  0
VERTEX
  5
1115
  8
0
 10
0.0
 20
0.0
 30
0.0
 70
   128
 71
    -9
 72
    17
 73
   -20
  0
VERTEX
  5
1116
  8
0
 10
0.0
 20
0.0
 30
0.0
 70
   128
 71
     6
 72
    -5
 73
   -23
  0
VERTEX
  5
1117
  8
0
 10
0.0
 20
0.0
 30
0.0
 70
   128
 71
    -5
 72
    24
 73
   -23
  0
VERTEX
  5
1118
  8
0
 10
0.0
 20
0.0
 30
0.0
 70
   128
 71
     5
 72
     4
 73
    -3
  0
VERTEX
  5
1119
  8
0
 10
0.0
 20
0.0
 30
0.0
 70
   128
 71
    -5
 72
     3
 73
    -2
  0
VERTEX
  5
111A
  8
0
 10
0.0
 20
0.0
 30
0.0
 70
   128
 71
    -5
 72
     2
 73
    -1
  0
VERTEX
  5
111B
  8
0
 10
0.0
 20
0.0
 30
0.0
 70
   128
 71
    -5
 72
    -1
 73
   -21
  0
VERTEX
  5
111C
  8
0
 10
0.0
 20
0.0
 30
0.0
 70
   128
 71
    -5
 72
    21
 73
   -24
  0
VERTEX
  5
111D
  8
0
 10
0.0
 20
0.0
 30
0.0
 70
   128
 71
    -1
 72
   -17
 73
   -21
  0
SEQEND
  5
17B4
  8
0
  0
POLYLINE
  5
111E
  8
0
 66
     1
 10
0.0
 20
0.0
 30
0.0
 70
    64
 71
    16
 72
    14
  0
VERTEX
  5
111F
  8
0
 10
292.0000000000006
 20
-296.9999999999999
 30
0.0
 70
   192
  0
VERTEX
  5
1120
  8
0
 10
294.5000000000006
 20
-296.3301270189222
 30
0.0
 70
   192
  0
VERTEX
  5
1121
  8
0
 10
296.3301270189227
 20
-294.5
 30
0.0
 70
   192
  0
VERTEX
  5
1122
  8
0
 10
297.0000000000005
 20
-292.0000000000001
 30
0.0
 70
   192
  0
VERTEX
  5
1123
  8
0
 10
297.0000000000006
 20
-229.9999999999999
 30
0.0
 70
   192
  0
VERTEX
  5
1124
  8
0
 10
296.3301270189227
 20
-227.4999999999999
 30
0.0
 70
   192
  0
VERTEX
  5
1125
  8
0
 10
294.5000000000006
 20
-225.6698729810777
 30
0.0
 70
   192
  0
VERTEX
  5
1126
  8
0
 10
292.0000000000006
 20
-224.9999999999999
 30
0.0
 70
   192
  0
VERTEX
  5
1127
  8
0
 10
230.0000000000006
 20
-224.9999999999999
 30
0.0
 70
   192
  0
VERTEX
  5
1128
  8
0
 10
227.5000000000006
 20
-225.6698729810777
 30
0.0
 70
   192
  0
VERTEX
  5
1129
  8
0
 10
225.6698729810784
 20
-227.4999999999998
 30
0.0
 70
   192
  0
VERTEX
  5
112A
  8
0
 10
225.0000000000005
 20
-229.9999999999998
 30
0.0
 70
   192
  0
VERTEX
  5
112B
  8
0
 10
225.0000000000006
 20
-291.9999999999999
 30
0.0
 70
   192
  0
VERTEX
  5
112C
  8
0
 10
225.6698729810784
 20
-294.4999999999999
 30
0.0
 70
   192
  0
VERTEX
  5
112D
  8
0
 10
227.5000000000006
 20
-296.3301270189221
 30
0.0
 70
   192
  0
VERTEX
  5
112E
  8
0
 10
230.0000000000006
 20
-296.9999999999999
 30
0.0
 70
   192
  0
VERTEX
  5
112F
  8
0
 10
0.0
 20
0.0
 30
0.0
 70
   128
 71
    15
 72
    16
 73
    -1
  0
VERTEX
  5
1130
  8
0
 10
0.0
 20
0.0
 30
0.0
 70
   128
 71
    14
 72
   -15
 73
    -1
  0
VERTEX
  5
1131
  8
0
 10
0.0
 20
0.0
 30
0.0
 70
   128
 71
    13
 72
   -14
 73
    -1
  0
VERTEX
  5
1132
  8
0
 10
0.0
 20
0.0
 30
0.0
 70
   128
 71
    12
 72
   -13
 73
    -1
  0
VERTEX
  5
1133
  8
0
 10
0.0
 20
0.0
 30
0.0
 70
   128
 71
    11
 72
   -12
 73
    -1
  0
VERTEX
  5
1134
  8
0
 10
0.0
 20
0.0
 30
0.0
 70
   128
 71
    10
 72
   -11
 73
    -1
  0
VERTEX
  5
1135
  8
0
 10
0.0
 20
0.0
 30
0.0
 70
   128
 71
     9
 72
   -10
 73
    -1
  0
VERTEX
  5
1136
  8
0
 10
0.0
 20
0.0
 30
0.0
 70
   128
 71
     8
 72
    -9
 73
    -1
  0
VERTEX
  5
1137
  8
0
 10
0.0
 20
0.0
 30
0.0
 70
   128
 71
     7
 72
    -8
 73
    -1
  0
VERTEX
  5
1138
  8
0
 10
0.0
 20
0.0
 30
0.0
 70
   128
 71
     6
 72
    -7
 73
    -1
  0
VERTEX
  5
1139
  8
0
 10
0.0
 20
0.0
 30
0.0
 70
   128
 71
     5
 72
    -6
 73
    -1
  0
VERTEX
  5
113A
  8
0
 10
0.0
 20
0.0
 30
0.0
 70
   128
 71
     4
 72
    -5
 73
    -1
  0
VERTEX
  5
113B
  8
0
 10
0.0
 20
0.0
 30
0.0
 70
   128
 71
     3
 72
    -4
 73
    -1
  0
VERTEX
  5
113C
  8
0
 10
0.0
 20
0.0
 30
0.0
 70
   128
 71
     2
 72
    -3
 73
     1
  0
SEQEND
  5
17B5
  8
0
  0
POLYLINE
  5
113D
  8
0
 66
     1
 10
0.0
 20
0.0
 30
0.0
 70
    64
 71
     4
 72
     2
  0
VERTEX
  5
113E
  8
0
 10
235.0000000000006
 20
-286.9999999999999
 30
-1.0
 70
   192
  0
VERTEX
  5
113F
  8
0
 10
235.0000000000006
 20
-276.9999999999998
 30
-1.0
 70
   192
  0
VERTEX
  5
1140
  8
0
 10
235.0000000000007
 20
-276.9999999999998
 30
-8.0
 70
   192
  0
VERTEX
  5
1141
  8
0
 10
235.0000000000006
 20
-286.9999999999999
 30
-8.0
 70
   192
  0
VERTEX
  5
1142
  8
0
 10
0.0
 20
0.0
 30
0.0
 70
   128
 71
     3
 72
     4
 73
    -1
  0
VERTEX
  5
1143
  8
0
 10
0.0
 20
0.0
 30
0.0
 70
   128
 71
     2
 72
    -3
 73
     1
  0
SEQEND
  5
17B6
  8
0
  0
POLYLINE
  5
1144
  8
0
 66
     1
 10
0.0
 20
0.0
 30
0.0
 70
    64
 71
     4
 72
     2
  0
VERTEX
  5
1145
  8
0
 10
235.0000000000007
 20
-276.9999999999999
 30
-1.0
 70
   192
  0
VERTEX
  5
1146
  8
0
 10
272.4124907648521
 20
-276.9999999999999
 30
-1.0
 70
   192
  0
VERTEX
  5
1147
  8
0
 10
272.4124907648521
 20
-276.9999999999999
 30
-8.0
 70
   192
  0
VERTEX
  5
1148
  8
0
 10
235.0000000000007
 20
-276.9999999999999
 30
-8.0
 70
   192
  0
VERTEX
  5
1149
  8
0
 10
0.0
 20
0.0
 30
0.0
 70
   128
 71
     3
 72
     4
 73
    -1
  0
VERTEX
  5
114A
  8
0
 10
0.0
 20
0.0
 30
0.0
 70
   128
 71
     2
 72
    -3
 73
     1
  0
SEQEND
  5
17B7
  8
0
  0
POLYLINE
  5
114B
  8
0
 66
     1
 10
0.0
 20
0.0
 30
0.0
 70
    64
 71
     4
 72
     2
  0
VERTEX
  5
114C
  8
0
 10
272.4124907648521
 20
-276.9999999999999
 30
-1.0
 70
   192
  0
VERTEX
  5
114D
  8
0
 10
272.4124907648521
 20
-276.9999999999999
 30
-8.0
 70
   192
  0
VERTEX
  5
114E
  8
0
 10
272.4124907648521
 20
-286.9999999999999
 30
-8.0
 70
   192
  0
VERTEX
  5
114F
  8
0
 10
272.4124907648521
 20
-286.9999999999999
 30
-1.0
 70
   192
  0
VERTEX
  5
1150
  8
0
 10
0.0
 20
0.0
 30
0.0
 70
   128
 71
     1
 72
     4
 73
    -3
  0
VERTEX
  5
1151
  8
0
 10
0.0
 20
0.0
 30
0.0
 70
   128
 71
    -1
 72
     3
 73
     2
  0
SEQEND
  5
17B8
  8
0
  0
POLYLINE
  5
1152
  8
0
 66
     1
 10
0.0
 20
0.0
 30
0.0
 70
    64
 71
     4
 72
     2
  0
VERTEX
  5
1153
  8
0
 10
272.4124907648521
 20
-286.9999999999999
 30
-1.0
 70
   192
  0
VERTEX
  5
1154
  8
0
 10
272.4124907648521
 20
-286.9999999999999
 30
-8.0
 70
   192
  0
VERTEX
  5
1155
  8
0
 10
235.0000000000006
 20
-286.9999999999999
 30
-8.0
 70
   192
  0
VERTEX
  5
1156
  8
0
 10
235.0000000000006
 20
-286.9999999999999
 30
-1.0
 70
   192
  0
VERTEX
  5
1157
  8
0
 10
0.0
 20
0.0
 30
0.0
 70
   128
 71
     1
 72
     4
 73
    -3
  0
VERTEX
  5
1158
  8
0
 10
0.0
 20
0.0
 30
0.0
 70
   128
 71
    -1
 72
     3
 73
     2
  0
SEQEND
  5
17B9
  8
0
  0
POLYLINE
  5
1159
  8
0
 66
     1
 10
0.0
 20
0.0
 30
0.0
 70
    64
 71
     4
 72
     2
  0
VERTEX
  5
115A
  8
0
 10
235.0000000000006
 20
-286.9999999999999
 30
-8.0
 70
   192
  0
VERTEX
  5
115B
  8
0
 10
235.0000000000006
 20
-276.9999999999998
 30
-8.0
 70
   192
  0
VERTEX
  5
115C
  8
0
 10
272.4124907648521
 20
-276.9999999999999
 30
-8.0
 70
   192
  0
VERTEX
  5
115D
  8
0
 10
272.4124907648521
 20
-286.9999999999999
 30
-8.0
 70
   192
  0
VERTEX
  5
115E
  8
0
 10
0.0
 20
0.0
 30
0.0
 70
   128
 71
     3
 72
     4
 73
    -1
  0
VERTEX
  5
115F
  8
0
 10
0.0
 20
0.0
 30
0.0
 70
   128
 71
     2
 72
    -3
 73
     1
  0
SEQEND
  5
17BA
  8
0
  0
POLYLINE
  5
1160
  8
0
 66
     1
 10
0.0
 20
0.0
 30
0.0
 70
    64
 71
     4
 72
     2
  0
VERTEX
  5
1161
  8
0
 10
277.0000000000008
 20
-235.0
 30
-1.0
 70
   192
  0
VERTEX
  5
1162
  8
0
 10
287.0000000000007
 20
-235.0
 30
-1.0
 70
   192
  0
VERTEX
  5
1163
  8
0
 10
287.0000000000007
 20
-235.0
 30
-8.0
 70
   192
  0
VERTEX
  5
1164
  8
0
 10
277.0000000000008
 20
-235.0
 30
-8.0
 70
   192
  0
VERTEX
  5
1165
  8
0
 10
0.0
 20
0.0
 30
0.0
 70
   128
 71
     3
 72
     4
 73
    -1
  0
VERTEX
  5
1166
  8
0
 10
0.0
 20
0.0
 30
0.0
 70
   128
 71
     2
 72
    -3
 73
     1
  0
SEQEND
  5
17BB
  8
0
  0
POLYLINE
  5
1167
  8
0
 66
     1
 10
0.0
 20
0.0
 30
0.0
 70
    64
 71
     4
 72
     2
  0
VERTEX
  5
1168
  8
0
 10
287.0000000000007
 20
-235.0
 30
-1.0
 70
   192
  0
VERTEX
  5
1169
  8
0
 10
287.0000000000007
 20
-272.4124907648514
 30
-1.0
 70
   192
  0
VERTEX
  5
116A
  8
0
 10
287.0000000000007
 20
-272.4124907648514
 30
-8.0
 70
   192
  0
VERTEX
  5
116B
  8
0
 10
287.0000000000007
 20
-235.0
 30
-8.0
 70
   192
  0
VERTEX
  5
116C
  8
0
 10
0.0
 20
0.0
 30
0.0
 70
   128
 71
     3
 72
     4
 73
    -1
  0
VERTEX
  5
116D
  8
0
 10
0.0
 20
0.0
 30
0.0
 70
   128
 71
     2
 72
    -3
 73
     1
  0
SEQEND
  5
17BC
  8
0
  0
POLYLINE
  5
116E
  8
0
 66
     1
 10
0.0
 20
0.0
 30
0.0
 70
    64
 71
     4
 72
     2
  0
VERTEX
  5
116F
  8
0
 10
287.0000000000007
 20
-272.4124907648514
 30
-1.0
 70
   192
  0
VERTEX
  5
1170
  8
0
 10
287.0000000000008
 20
-272.4124907648514
 30
-8.0
 70
   192
  0
VERTEX
  5
1171
  8
0
 10
277.0000000000009
 20
-272.4124907648514
 30
-8.0
 70
   192
  0
VERTEX
  5
1172
  8
0
 10
277.0000000000009
 20
-272.4124907648514
 30
-1.0
 70
   192
  0
VERTEX
  5
1173
  8
0
 10
0.0
 20
0.0
 30
0.0
 70
   128
 71
     1
 72
     4
 73
    -3
  0
VERTEX
  5
1174
  8
0
 10
0.0
 20
0.0
 30
0.0
 70
   128
 71
    -1
 72
     3
 73
     2
  0
SEQEND
  5
17BD
  8
0
  0
POLYLINE
  5
1175
  8
0
 66
     1
 10
0.0
 20
0.0
 30
0.0
 70
    64
 71
     4
 72
     2
  0
VERTEX
  5
1176
  8
0
 10
277.0000000000009
 20
-272.4124907648514
 30
-1.0
 70
   192
  0
VERTEX
  5
1177
  8
0
 10
277.0000000000009
 20
-272.4124907648514
 30
-8.0
 70
   192
  0
VERTEX
  5
1178
  8
0
 10
277.0000000000007
 20
-235.0
 30
-8.0
 70
   192
  0
VERTEX
  5
1179
  8
0
 10
277.0000000000007
 20
-235.0
 30
-1.0
 70
   192
  0
VERTEX
  5
117A
  8
0
 10
0.0
 20
0.0
 30
0.0
 70
   128
 71
     1
 72
     4
 73
    -3
  0
VERTEX
  5
117B
  8
0
 10
0.0
 20
0.0
 30
0.0
 70
   128
 71
    -1
 72
     3
 73
     2
  0
SEQEND
  5
17BE
  8
0
  0
POLYLINE
  5
117C
  8
0
 66
     1
 10
0.0
 20
0.0
 30
0.0
 70
    64
 71
     4
 72
     2
  0
VERTEX
  5
117D
  8
0
 10
277.0000000000008
 20
-235.0
 30
-8.0
 70
   192
  0
VERTEX
  5
117E
  8
0
 10
287.0000000000007
 20
-235.0
 30
-8.0
 70
   192
  0
VERTEX
  5
117F
  8
0
 10
287.0000000000007
 20
-272.4124907648514
 30
-8.0
 70
   192
  0
VERTEX
  5
1180
  8
0
 10
277.0000000000009
 20
-272.4124907648514
 30
-8.0
 70
   192
  0
VERTEX
  5
1181
  8
0
 10
0.0
 20
0.0
 30
0.0
 70
   128
 71
     3
 72
     4
 73
    -1
  0
VERTEX
  5
1182
  8
0
 10
0.0
 20
0.0
 30
0.0
 70
   128
 71
     2
 72
    -3
 73
     1
  0
SEQEND
  5
17BF
  8
0
  0
ENDBLK
  5
17AB
  8
0
  0
BLOCK
  8
0
  2
*X7
 70
     1
 10
0.0
 20
0.0
 30
0.0
  3
*X7
  1

  0
POLYLINE
  5
1184
  8
0
 66
     1
 10
0.0
 20
0.0
 30
0.0
 70
    64
 71
     4
 72
     2
  0
VERTEX
  5
1185
  8
0
 10
-20.44791833698075
 20
-246.8994997496912
 30
0.0
 70
   192
  0
VERTEX
  5
1186
  8
0
 10
-20.44791833698076
 20
-248.5994997496913
 30
0.0
 70
   192
  0
VERTEX
  5
1187
  8
0
 10
-20.44791833698075
 20
-248.5994997496913
 30
-13.5
 70
   192
  0
VERTEX
  5
1188
  8
0
 10
-20.44791833698075
 20
-246.8994997496912
 30
-13.5
 70
   192
  0
VERTEX
  5
1189
  8
0
 10
0.0
 20
0.0
 30
0.0
 70
   128
 71
     3
 72
     4
 73
    -1
  0
VERTEX
  5
118A
  8
0
 10
0.0
 20
0.0
 30
0.0
 70
   128
 71
     2
 72
    -3
 73
     1
  0
SEQEND
  5
17C2
  8
0
  0
POLYLINE
  5
118B
  8
0
 66
     1
 10
0.0
 20
0.0
 30
0.0
 70
    64
 71
     8
 72
     6
  0
VERTEX
  5
118C
  8
0
 10
-21.69791833698075
 20
-250.7645632591524
 30
0.0
 70
   192
  0
VERTEX
  5
118D
  8
0
 10
-21.69791833698075
 20
-250.7645632591524
 30
-13.5
 70
   192
  0
VERTEX
  5
118E
  8
0
 10
-20.78285482751965
 20
-249.8494997496913
 30
-13.5
 70
   192
  0
VERTEX
  5
118F
  8
0
 10
-20.78285482751965
 20
-249.8494997496913
 30
0.0
 70
   192
  0
VERTEX
  5
1190
  8
0
 10
-22.94791833698075
 20
-251.0994997496913
 30
0.0
 70
   192
  0
VERTEX
  5
1191
  8
0
 10
-22.94791833698075
 20
-251.0994997496913
 30
-13.5
 70
   192
  0
VERTEX
  5
1192
  8
0
 10
-20.44791833698075
 20
-248.5994997496913
 30
-13.5
 70
   192
  0
VERTEX
  5
1193
  8
0
 10
-20.44791833698075
 20
-248.5994997496913
 30
0.0
 70
   192
  0
VERTEX
  5
1194
  8
0
 10
0.0
 20
0.0
 30
0.0
 70
   128
 71
     1
 72
     2
 73
    -3
  0
VERTEX
  5
1195
  8
0
 10
0.0
 20
0.0
 30
0.0
 70
   128
 71
    -1
 72
     3
 73
     4
  0
VERTEX
  5
1196
  8
0
 10
0.0
 20
0.0
 30
0.0
 70
   128
 71
     5
 72
     6
 73
    -2
  0
VERTEX
  5
1197
  8
0
 10
0.0
 20
0.0
 30
0.0
 70
   128
 71
    -5
 72
     2
 73
     1
  0
VERTEX
  5
1198
  8
0
 10
0.0
 20
0.0
 30
0.0
 70
   128
 71
     4
 72
     3
 73
    -7
  0
VERTEX
  5
1199
  8
0
 10
0.0
 20
0.0
 30
0.0
 70
   128
 71
    -4
 72
     7
 73
     8
  0
SEQEND
  5
17C3
  8
0
  0
POLYLINE
  5
119A
  8
0
 66
     1
 10
0.0
 20
0.0
 30
0.0
 70
    64
 71
     4
 72
     2
  0
VERTEX
  5
119B
  8
0
 10
-22.94791833698075
 20
-251.0994997496913
 30
0.0
 70
   192
  0
VERTEX
  5
119C
  8
0
 10
-27.60000000017689
 20
-251.0994997496913
 30
0.0
 70
   192
  0
VERTEX
  5
119D
  8
0
 10
-27.60000000017689
 20
-251.0994997496913
 30
-13.5
 70
   192
  0
VERTEX
  5
119E
  8
0
 10
-22.94791833698075
 20
-251.0994997496913
 30
-13.5
 70
   192
  0
VERTEX
  5
119F
  8
0
 10
0.0
 20
0.0
 30
0.0
 70
   128
 71
     3
 72
     4
 73
    -1
  0
VERTEX
  5
11A0
  8
0
 10
0.0
 20
0.0
 30
0.0
 70
   128
 71
     2
 72
    -3
 73
     1
  0
SEQEND
  5
17C4
  8
0
  0
POLYLINE
  5
11A1
  8
0
 66
     1
 10
0.0
 20
0.0
 30
0.0
 70
    64
 71
     8
 72
     6
  0
VERTEX
  5
11A2
  8
0
 10
-31.9301270190991
 20
-248.5994997496913
 30
0.0
 70
   192
  0
VERTEX
  5
11A3
  8
0
 10
-31.9301270190991
 20
-248.5994997496913
 30
-13.5
 70
   192
  0
VERTEX
  5
11A4
  8
0
 10
-30.1000000001769
 20
-250.4296267686134
 30
-13.5
 70
   192
  0
VERTEX
  5
11A5
  8
0
 10
-30.1000000001769
 20
-250.4296267686134
 30
0.0
 70
   192
  0
VERTEX
  5
11A6
  8
0
 10
-32.60000000017691
 20
-246.0994997496913
 30
0.0
 70
   192
  0
VERTEX
  5
11A7
  8
0
 10
-32.60000000017691
 20
-246.0994997496913
 30
-13.5
 70
   192
  0
VERTEX
  5
11A8
  8
0
 10
-27.60000000017689
 20
-251.0994997496913
 30
-13.5
 70
   192
  0
VERTEX
  5
11A9
  8
0
 10
-27.60000000017689
 20
-251.0994997496913
 30
0.0
 70
   192
  0
VERTEX
  5
11AA
  8
0
 10
0.0
 20
0.0
 30
0.0
 70
   128
 71
     1
 72
     2
 73
    -3
  0
VERTEX
  5
11AB
  8
0
 10
0.0
 20
0.0
 30
0.0
 70
   128
 71
    -1
 72
     3
 73
     4
  0
VERTEX
  5
11AC
  8
0
 10
0.0
 20
0.0
 30
0.0
 70
   128
 71
     5
 72
     6
 73
    -2
  0
VERTEX
  5
11AD
  8
0
 10
0.0
 20
0.0
 30
0.0
 70
   128
 71
    -5
 72
     2
 73
     1
  0
VERTEX
  5
11AE
  8
0
 10
0.0
 20
0.0
 30
0.0
 70
   128
 71
     4
 72
     3
 73
    -7
  0
VERTEX
  5
11AF
  8
0
 10
0.0
 20
0.0
 30
0.0
 70
   128
 71
    -4
 72
     7
 73
     8
  0
SEQEND
  5
17C5
  8
0
  0
POLYLINE
  5
11B0
  8
0
 66
     1
 10
0.0
 20
0.0
 30
0.0
 70
    64
 71
     4
 72
     2
  0
VERTEX
  5
11B1
  8
0
 10
-32.60000000017691
 20
-246.0994997496913
 30
0.0
 70
   192
  0
VERTEX
  5
11B2
  8
0
 10
-32.6000000001769
 20
-246.0994997496913
 30
-13.5
 70
   192
  0
VERTEX
  5
11B3
  8
0
 10
-32.6000000001769
 20
-213.9005002503088
 30
-13.5
 70
   192
  0
VERTEX
  5
11B4
  8
0
 10
-32.60000000017689
 20
-213.9005002503088
 30
0.0
 70
   192
  0
VERTEX
  5
11B5
  8
0
 10
0.0
 20
0.0
 30
0.0
 70
   128
 71
     1
 72
     4
 73
    -3
  0
VERTEX
  5
11B6
  8
0
 10
0.0
 20
0.0
 30
0.0
 70
   128
 71
    -1
 72
     3
 73
     2
  0
SEQEND
  5
17C6
  8
0
  0
POLYLINE
  5
11B7
  8
0
 66
     1
 10
0.0
 20
0.0
 30
0.0
 70
    64
 71
     8
 72
     6
  0
VERTEX
  5
11B8
  8
0
 10
-30.1000000001769
 20
-209.5703732313866
 30
0.0
 70
   192
  0
VERTEX
  5
11B9
  8
0
 10
-30.1000000001769
 20
-209.5703732313866
 30
-13.5
 70
   192
  0
VERTEX
  5
11BA
  8
0
 10
-31.93012701909909
 20
-211.4005002503088
 30
-13.5
 70
   192
  0
VERTEX
  5
11BB
  8
0
 10
-31.93012701909909
 20
-211.4005002503088
 30
0.0
 70
   192
  0
VERTEX
  5
11BC
  8
0
 10
-27.6000000001769
 20
-208.9005002503088
 30
0.0
 70
   192
  0
VERTEX
  5
11BD
  8
0
 10
-27.6000000001769
 20
-208.9005002503088
 30
-13.5
 70
   192
  0
VERTEX
  5
11BE
  8
0
 10
-32.6000000001769
 20
-213.9005002503088
 30
-13.5
 70
   192
  0
VERTEX
  5
11BF
  8
0
 10
-32.6000000001769
 20
-213.9005002503088
 30
0.0
 70
   192
  0
VERTEX
  5
11C0
  8
0
 10
0.0
 20
0.0
 30
0.0
 70
   128
 71
     1
 72
     2
 73
    -3
  0
VERTEX
  5
11C1
  8
0
 10
0.0
 20
0.0
 30
0.0
 70
   128
 71
    -1
 72
     3
 73
     4
  0
VERTEX
  5
11C2
  8
0
 10
0.0
 20
0.0
 30
0.0
 70
   128
 71
     5
 72
     6
 73
    -2
  0
VERTEX
  5
11C3
  8
0
 10
0.0
 20
0.0
 30
0.0
 70
   128
 71
    -5
 72
     2
 73
     1
  0
VERTEX
  5
11C4
  8
0
 10
0.0
 20
0.0
 30
0.0
 70
   128
 71
     4
 72
     3
 73
    -7
  0
VERTEX
  5
11C5
  8
0
 10
0.0
 20
0.0
 30
0.0
 70
   128
 71
    -4
 72
     7
 73
     8
  0
SEQEND
  5
17C7
  8
0
  0
POLYLINE
  5
11C6
  8
0
 66
     1
 10
0.0
 20
0.0
 30
0.0
 70
    64
 71
     4
 72
     2
  0
VERTEX
  5
11C7
  8
0
 10
-27.6000000001769
 20
-208.9005002503088
 30
0.0
 70
   192
  0
VERTEX
  5
11C8
  8
0
 10
-27.60000000017689
 20
-208.9005002503088
 30
-13.5
 70
   192
  0
VERTEX
  5
11C9
  8
0
 10
27.6000000001769
 20
-208.9005002503088
 30
-13.5
 70
   192
  0
VERTEX
  5
11CA
  8
0
 10
27.60000000017689
 20
-208.9005002503088
 30
0.0
 70
   192
  0
VERTEX
  5
11CB
  8
0
 10
0.0
 20
0.0
 30
0.0
 70
   128
 71
     1
 72
     4
 73
    -3
  0
VERTEX
  5
11CC
  8
0
 10
0.0
 20
0.0
 30
0.0
 70
   128
 71
    -1
 72
     3
 73
     2
  0
SEQEND
  5
17C8
  8
0
  0
POLYLINE
  5
11CD
  8
0
 66
     1
 10
0.0
 20
0.0
 30
0.0
 70
    64
 71
     8
 72
     6
  0
VERTEX
  5
11CE
  8
0
 10
31.9301270190991
 20
-211.4005002503088
 30
0.0
 70
   192
  0
VERTEX
  5
11CF
  8
0
 10
31.9301270190991
 20
-211.4005002503088
 30
-13.5
 70
   192
  0
VERTEX
  5
11D0
  8
0
 10
30.1000000001769
 20
-209.5703732313866
 30
-13.5
 70
   192
  0
VERTEX
  5
11D1
  8
0
 10
30.1000000001769
 20
-209.5703732313866
 30
0.0
 70
   192
  0
VERTEX
  5
11D2
  8
0
 10
32.60000000017691
 20
-213.9005002503088
 30
0.0
 70
   192
  0
VERTEX
  5
11D3
  8
0
 10
32.60000000017691
 20
-213.9005002503088
 30
-13.5
 70
   192
  0
VERTEX
  5
11D4
  8
0
 10
27.6000000001769
 20
-208.9005002503088
 30
-13.5
 70
   192
  0
VERTEX
  5
11D5
  8
0
 10
27.6000000001769
 20
-208.9005002503088
 30
0.0
 70
   192
  0
VERTEX
  5
11D6
  8
0
 10
0.0
 20
0.0
 30
0.0
 70
   128
 71
     1
 72
     2
 73
    -3
  0
VERTEX
  5
11D7
  8
0
 10
0.0
 20
0.0
 30
0.0
 70
   128
 71
    -1
 72
     3
 73
     4
  0
VERTEX
  5
11D8
  8
0
 10
0.0
 20
0.0
 30
0.0
 70
   128
 71
     5
 72
     6
 73
    -2
  0
VERTEX
  5
11D9
  8
0
 10
0.0
 20
0.0
 30
0.0
 70
   128
 71
    -5
 72
     2
 73
     1
  0
VERTEX
  5
11DA
  8
0
 10
0.0
 20
0.0
 30
0.0
 70
   128
 71
     4
 72
     3
 73
    -7
  0
VERTEX
  5
11DB
  8
0
 10
0.0
 20
0.0
 30
0.0
 70
   128
 71
    -4
 72
     7
 73
     8
  0
SEQEND
  5
17C9
  8
0
  0
POLYLINE
  5
11DC
  8
0
 66
     1
 10
0.0
 20
0.0
 30
0.0
 70
    64
 71
     4
 72
     2
  0
VERTEX
  5
11DD
  8
0
 10
32.60000000017689
 20
-213.9005002503088
 30
0.0
 70
   192
  0
VERTEX
  5
11DE
  8
0
 10
32.6000000001769
 20
-246.0994997496913
 30
0.0
 70
   192
  0
VERTEX
  5
11DF
  8
0
 10
32.60000000017691
 20
-246.0994997496913
 30
-13.5
 70
   192
  0
VERTEX
  5
11E0
  8
0
 10
32.60000000017689
 20
-213.9005002503088
 30
-13.5
 70
   192
  0
VERTEX
  5
11E1
  8
0
 10
0.0
 20
0.0
 30
0.0
 70
   128
 71
     3
 72
     4
 73
    -1
  0
VERTEX
  5
11E2
  8
0
 10
0.0
 20
0.0
 30
0.0
 70
   128
 71
     2
 72
    -3
 73
     1
  0
SEQEND
  5
17CA
  8
0
  0
POLYLINE
  5
11E3
  8
0
 66
     1
 10
0.0
 20
0.0
 30
0.0
 70
    64
 71
     8
 72
     6
  0
VERTEX
  5
11E4
  8
0
 10
30.1000000001769
 20
-250.4296267686134
 30
0.0
 70
   192
  0
VERTEX
  5
11E5
  8
0
 10
30.1000000001769
 20
-250.4296267686134
 30
-13.5
 70
   192
  0
VERTEX
  5
11E6
  8
0
 10
31.9301270190991
 20
-248.5994997496913
 30
-13.5
 70
   192
  0
VERTEX
  5
11E7
  8
0
 10
31.9301270190991
 20
-248.5994997496913
 30
0.0
 70
   192
  0
VERTEX
  5
11E8
  8
0
 10
27.6000000001769
 20
-251.0994997496913
 30
0.0
 70
   192
  0
VERTEX
  5
11E9
  8
0
 10
27.6000000001769
 20
-251.0994997496913
 30
-13.5
 70
   192
  0
VERTEX
  5
11EA
  8
0
 10
32.60000000017691
 20
-246.0994997496913
 30
-13.5
 70
   192
  0
VERTEX
  5
11EB
  8
0
 10
32.60000000017691
 20
-246.0994997496913
 30
0.0
 70
   192
  0
VERTEX
  5
11EC
  8
0
 10
0.0
 20
0.0
 30
0.0
 70
   128
 71
     1
 72
     2
 73
    -3
  0
VERTEX
  5
11ED
  8
0
 10
0.0
 20
0.0
 30
0.0
 70
   128
 71
    -1
 72
     3
 73
     4
  0
VERTEX
  5
11EE
  8
0
 10
0.0
 20
0.0
 30
0.0
 70
   128
 71
     5
 72
     6
 73
    -2
  0
VERTEX
  5
11EF
  8
0
 10
0.0
 20
0.0
 30
0.0
 70
   128
 71
    -5
 72
     2
 73
     1
  0
VERTEX
  5
11F0
  8
0
 10
0.0
 20
0.0
 30
0.0
 70
   128
 71
     4
 72
     3
 73
    -7
  0
VERTEX
  5
11F1
  8
0
 10
0.0
 20
0.0
 30
0.0
 70
   128
 71
    -4
 72
     7
 73
     8
  0
SEQEND
  5
17CB
  8
0
  0
POLYLINE
  5
11F2
  8
0
 66
     1
 10
0.0
 20
0.0
 30
0.0
 70
    64
 71
     4
 72
     2
  0
VERTEX
  5
11F3
  8
0
 10
27.6000000001769
 20
-251.0994997496913
 30
0.0
 70
   192
  0
VERTEX
  5
11F4
  8
0
 10
22.94791833698075
 20
-251.0994997496913
 30
0.0
 70
   192
  0
VERTEX
  5
11F5
  8
0
 10
22.94791833698075
 20
-251.0994997496913
 30
-13.5
 70
   192
  0
VERTEX
  5
11F6
  8
0
 10
27.6000000001769
 20
-251.0994997496913
 30
-13.5
 70
   192
  0
VERTEX
  5
11F7
  8
0
 10
0.0
 20
0.0
 30
0.0
 70
   128
 71
     3
 72
     4
 73
    -1
  0
VERTEX
  5
11F8
  8
0
 10
0.0
 20
0.0
 30
0.0
 70
   128
 71
     2
 72
    -3
 73
     1
  0
SEQEND
  5
17CC
  8
0
  0
POLYLINE
  5
11F9
  8
0
 66
     1
 10
0.0
 20
0.0
 30
0.0
 70
    64
 71
     8
 72
     6
  0
VERTEX
  5
11FA
  8
0
 10
20.78285482751963
 20
-249.8494997496913
 30
0.0
 70
   192
  0
VERTEX
  5
11FB
  8
0
 10
20.78285482751963
 20
-249.8494997496913
 30
-13.5
 70
   192
  0
VERTEX
  5
11FC
  8
0
 10
21.69791833698073
 20
-250.7645632591524
 30
-13.5
 70
   192
  0
VERTEX
  5
11FD
  8
0
 10
21.69791833698073
 20
-250.7645632591524
 30
0.0
 70
   192
  0
VERTEX
  5
11FE
  8
0
 10
20.44791833698072
 20
-248.5994997496913
 30
0.0
 70
   192
  0
VERTEX
  5
11FF
  8
0
 10
20.44791833698072
 20
-248.5994997496913
 30
-13.5
 70
   192
  0
VERTEX
  5
1200
  8
0
 10
22.94791833698075
 20
-251.0994997496913
 30
-13.5
 70
   192
  0
VERTEX
  5
1201
  8
0
 10
22.94791833698075
 20
-251.0994997496913
 30
0.0
 70
   192
  0
VERTEX
  5
1202
  8
0
 10
0.0
 20
0.0
 30
0.0
 70
   128
 71
     1
 72
     2
 73
    -3
  0
VERTEX
  5
1203
  8
0
 10
0.0
 20
0.0
 30
0.0
 70
   128
 71
    -1
 72
     3
 73
     4
  0
VERTEX
  5
1204
  8
0
 10
0.0
 20
0.0
 30
0.0
 70
   128
 71
     5
 72
     6
 73
    -2
  0
VERTEX
  5
1205
  8
0
 10
0.0
 20
0.0
 30
0.0
 70
   128
 71
    -5
 72
     2
 73
     1
  0
VERTEX
  5
1206
  8
0
 10
0.0
 20
0.0
 30
0.0
 70
   128
 71
     4
 72
     3
 73
    -7
  0
VERTEX
  5
1207
  8
0
 10
0.0
 20
0.0
 30
0.0
 70
   128
 71
    -4
 72
     7
 73
     8
  0
SEQEND
  5
17CD
  8
0
  0
POLYLINE
  5
1208
  8
0
 66
     1
 10
0.0
 20
0.0
 30
0.0
 70
    64
 71
     4
 72
     2
  0
VERTEX
  5
1209
  8
0
 10
20.44791833698072
 20
-248.5994997496913
 30
0.0
 70
   192
  0
VERTEX
  5
120A
  8
0
 10
20.44791833698075
 20
-248.5994997496913
 30
-13.5
 70
   192
  0
VERTEX
  5
120B
  8
0
 10
20.44791833698075
 20
-246.8994997496912
 30
-13.5
 70
   192
  0
VERTEX
  5
120C
  8
0
 10
20.44791833698075
 20
-246.8994997496912
 30
0.0
 70
   192
  0
VERTEX
  5
120D
  8
0
 10
0.0
 20
0.0
 30
0.0
 70
   128
 71
     1
 72
     4
 73
    -3
  0
VERTEX
  5
120E
  8
0
 10
0.0
 20
0.0
 30
0.0
 70
   128
 71
    -1
 72
     3
 73
     2
  0
SEQEND
  5
17CE
  8
0
  0
POLYLINE
  5
120F
  8
0
 66
     1
 10
0.0
 20
0.0
 30
0.0
 70
    64
 71
     4
 72
     2
  0
VERTEX
  5
1210
  8
0
 10
20.44791833698075
 20
-246.8994997496912
 30
0.0
 70
   192
  0
VERTEX
  5
1211
  8
0
 10
-20.44791833698075
 20
-246.8994997496912
 30
0.0
 70
   192
  0
VERTEX
  5
1212
  8
0
 10
-20.44791833698075
 20
-246.8994997496912
 30
-13.5
 70
   192
  0
VERTEX
  5
1213
  8
0
 10
20.44791833698075
 20
-246.8994997496912
 30
-13.5
 70
   192
  0
VERTEX
  5
1214
  8
0
 10
0.0
 20
0.0
 30
0.0
 70
   128
 71
     3
 72
     4
 73
    -1
  0
VERTEX
  5
1215
  8
0
 10
0.0
 20
0.0
 30
0.0
 70
   128
 71
     2
 72
    -3
 73
     1
  0
SEQEND
  5
17CF
  8
0
  0
POLYLINE
  5
1216
  8
0
 66
     1
 10
0.0
 20
0.0
 30
0.0
 70
    64
 71
    26
 72
    24
  0
VERTEX
  5
1217
  8
0
 10
-20.44791833698075
 20
-246.8994997496912
 30
-13.5
 70
   192
  0
VERTEX
  5
1218
  8
0
 10
20.44791833698075
 20
-246.8994997496912
 30
-13.5
 70
   192
  0
VERTEX
  5
1219
  8
0
 10
20.44791833698072
 20
-248.5994997496913
 30
-13.5
 70
   192
  0
VERTEX
  5
121A
  8
0
 10
20.78285482751963
 20
-249.8494997496913
 30
-13.5
 70
   192
  0
VERTEX
  5
121B
  8
0
 10
21.69791833698073
 20
-250.7645632591524
 30
-13.5
 70
   192
  0
VERTEX
  5
121C
  8
0
 10
22.94791833698075
 20
-251.0994997496913
 30
-13.5
 70
   192
  0
VERTEX
  5
121D
  8
0
 10
27.6000000001769
 20
-251.0994997496913
 30
-13.5
 70
   192
  0
VERTEX
  5
121E
  8
0
 10
30.1000000001769
 20
-250.4296267686134
 30
-13.5
 70
   192
  0
VERTEX
  5
121F
  8
0
 10
31.9301270190991
 20
-248.5994997496913
 30
-13.5
 70
   192
  0
VERTEX
  5
1220
  8
0
 10
32.6000000001769
 20
-246.0994997496913
 30
-13.5
 70
   192
  0
VERTEX
  5
1221
  8
0
 10
32.60000000017691
 20
-213.9005002503088
 30
-13.5
 70
   192
  0
VERTEX
  5
1222
  8
0
 10
31.9301270190991
 20
-211.4005002503088
 30
-13.5
 70
   192
  0
VERTEX
  5
1223
  8
0
 10
30.1000000001769
 20
-209.5703732313866
 30
-13.5
 70
   192
  0
VERTEX
  5
1224
  8
0
 10
27.60000000017689
 20
-208.9005002503088
 30
-13.5
 70
   192
  0
VERTEX
  5
1225
  8
0
 10
-27.6000000001769
 20
-208.9005002503088
 30
-13.5
 70
   192
  0
VERTEX
  5
1226
  8
0
 10
-30.1000000001769
 20
-209.5703732313866
 30
-13.5
 70
   192
  0
VERTEX
  5
1227
  8
0
 10
-31.93012701909909
 20
-211.4005002503088
 30
-13.5
 70
   192
  0
VERTEX
  5
1228
  8
0
 10
-32.60000000017689
 20
-213.9005002503088
 30
-13.5
 70
   192
  0
VERTEX
  5
1229
  8
0
 10
-32.60000000017691
 20
-246.0994997496913
 30
-13.5
 70
   192
  0
VERTEX
  5
122A
  8
0
 10
-31.9301270190991
 20
-248.5994997496913
 30
-13.5
 70
   192
  0
VERTEX
  5
122B
  8
0
 10
-30.1000000001769
 20
-250.4296267686134
 30
-13.5
 70
   192
  0
VERTEX
  5
122C
  8
0
 10
-27.60000000017689
 20
-251.0994997496913
 30
-13.5
 70
   192
  0
VERTEX
  5
122D
  8
0
 10
-22.94791833698075
 20
-251.0994997496913
 30
-13.5
 70
   192
  0
VERTEX
  5
122E
  8
0
 10
-21.69791833698075
 20
-250.7645632591524
 30
-13.5
 70
   192
  0
VERTEX
  5
122F
  8
0
 10
-20.78285482751965
 20
-249.8494997496913
 30
-13.5
 70
   192
  0
VERTEX
  5
1230
  8
0
 10
-20.44791833698076
 20
-248.5994997496913
 30
-13.5
 70
   192
  0
VERTEX
  5
1231
  8
0
 10
0.0
 20
0.0
 30
0.0
 70
   128
 71
     1
 72
    26
 73
   -25
  0
VERTEX
  5
1232
  8
0
 10
0.0
 20
0.0
 30
0.0
 70
   128
 71
    -1
 72
    25
 73
   -24
  0
VERTEX
  5
1233
  8
0
 10
0.0
 20
0.0
 30
0.0
 70
   128
 71
    -1
 72
    24
 73
   -23
  0
VERTEX
  5
1234
  8
0
 10
0.0
 20
0.0
 30
0.0
 70
   128
 71
    -1
 72
    23
 73
   -22
  0
VERTEX
  5
1235
  8
0
 10
0.0
 20
0.0
 30
0.0
 70
   128
 71
    -1
 72
    22
 73
   -21
  0
VERTEX
  5
1236
  8
0
 10
0.0
 20
0.0
 30
0.0
 70
   128
 71
    -1
 72
    21
 73
   -20
  0
VERTEX
  5
1237
  8
0
 10
0.0
 20
0.0
 30
0.0
 70
   128
 71
    -1
 72
    20
 73
   -19
  0
VERTEX
  5
1238
  8
0
 10
0.0
 20
0.0
 30
0.0
 70
   128
 71
    -1
 72
    19
 73
   -18
  0
VERTEX
  5
1239
  8
0
 10
0.0
 20
0.0
 30
0.0
 70
   128
 71
    -1
 72
    18
 73
   -17
  0
VERTEX
  5
123A
  8
0
 10
0.0
 20
0.0
 30
0.0
 70
   128
 71
    -1
 72
    17
 73
   -16
  0
VERTEX
  5
123B
  8
0
 10
0.0
 20
0.0
 30
0.0
 70
   128
 71
    -1
 72
    16
 73
   -15
  0
VERTEX
  5
123C
  8
0
 10
0.0
 20
0.0
 30
0.0
 70
   128
 71
    15
 72
   -14
 73
    -2
  0
VERTEX
  5
123D
  8
0
 10
0.0
 20
0.0
 30
0.0
 70
   128
 71
   -15
 72
     2
 73
    -1
  0
VERTEX
  5
123E
  8
0
 10
0.0
 20
0.0
 30
0.0
 70
   128
 71
    14
 72
    13
 73
   -12
  0
VERTEX
  5
123F
  8
0
 10
0.0
 20
0.0
 30
0.0
 70
   128
 71
   -14
 72
    12
 73
   -11
  0
VERTEX
  5
1240
  8
0
 10
0.0
 20
0.0
 30
0.0
 70
   128
 71
   -14
 72
    11
 73
   -10
  0
VERTEX
  5
1241
  8
0
 10
0.0
 20
0.0
 30
0.0
 70
   128
 71
   -14
 72
    10
 73
    -9
  0
VERTEX
  5
1242
  8
0
 10
0.0
 20
0.0
 30
0.0
 70
   128
 71
   -14
 72
    -9
 73
    -2
  0
VERTEX
  5
1243
  8
0
 10
0.0
 20
0.0
 30
0.0
 70
   128
 71
     9
 72
     8
 73
    -7
  0
VERTEX
  5
1244
  8
0
 10
0.0
 20
0.0
 30
0.0
 70
   128
 71
    -9
 72
     7
 73
    -6
  0
VERTEX
  5
1245
  8
0
 10
0.0
 20
0.0
 30
0.0
 70
   128
 71
    -9
 72
     6
 73
    -5
  0
VERTEX
  5
1246
  8
0
 10
0.0
 20
0.0
 30
0.0
 70
   128
 71
    -9
 72
     5
 73
    -4
  0
VERTEX
  5
1247
  8
0
 10
0.0
 20
0.0
 30
0.0
 70
   128
 71
    -9
 72
     4
 73
    -3
  0
VERTEX
  5
1248
  8
0
 10
0.0
 20
0.0
 30
0.0
 70
   128
 71
    -9
 72
     3
 73
    -2
  0
SEQEND
  5
17D0
  8
0
  0
POLYLINE
  5
1249
  8
0
 66
     1
 10
0.0
 20
0.0
 30
0.0
 70
    64
 71
    26
 72
    24
  0
VERTEX
  5
124A
  8
0
 10
-20.44791833698076
 20
-248.5994997496913
 30
0.0
 70
   192
  0
VERTEX
  5
124B
  8
0
 10
-20.44791833698075
 20
-246.8994997496912
 30
0.0
 70
   192
  0
VERTEX
  5
124C
  8
0
 10
20.44791833698075
 20
-246.8994997496912
 30
0.0
 70
   192
  0
VERTEX
  5
124D
  8
0
 10
20.44791833698075
 20
-248.5994997496913
 30
0.0
 70
   192
  0
VERTEX
  5
124E
  8
0
 10
20.78285482751963
 20
-249.8494997496913
 30
0.0
 70
   192
  0
VERTEX
  5
124F
  8
0
 10
21.69791833698073
 20
-250.7645632591524
 30
0.0
 70
   192
  0
VERTEX
  5
1250
  8
0
 10
22.94791833698075
 20
-251.0994997496913
 30
0.0
 70
   192
  0
VERTEX
  5
1251
  8
0
 10
27.6000000001769
 20
-251.0994997496913
 30
0.0
 70
   192
  0
VERTEX
  5
1252
  8
0
 10
30.1000000001769
 20
-250.4296267686134
 30
0.0
 70
   192
  0
VERTEX
  5
1253
  8
0
 10
31.9301270190991
 20
-248.5994997496913
 30
0.0
 70
   192
  0
VERTEX
  5
1254
  8
0
 10
32.60000000017691
 20
-246.0994997496913
 30
0.0
 70
   192
  0
VERTEX
  5
1255
  8
0
 10
32.60000000017689
 20
-213.9005002503088
 30
0.0
 70
   192
  0
VERTEX
  5
1256
  8
0
 10
31.9301270190991
 20
-211.4005002503088
 30
0.0
 70
   192
  0
VERTEX
  5
1257
  8
0
 10
30.1000000001769
 20
-209.5703732313866
 30
0.0
 70
   192
  0
VERTEX
  5
1258
  8
0
 10
27.6000000001769
 20
-208.9005002503088
 30
0.0
 70
   192
  0
VERTEX
  5
1259
  8
0
 10
-27.60000000017689
 20
-208.9005002503088
 30
0.0
 70
   192
  0
VERTEX
  5
125A
  8
0
 10
-30.1000000001769
 20
-209.5703732313866
 30
0.0
 70
   192
  0
VERTEX
  5
125B
  8
0
 10
-31.93012701909909
 20
-211.4005002503088
 30
0.0
 70
   192
  0
VERTEX
  5
125C
  8
0
 10
-32.6000000001769
 20
-213.9005002503088
 30
0.0
 70
   192
  0
VERTEX
  5
125D
  8
0
 10
-32.6000000001769
 20
-246.0994997496913
 30
0.0
 70
   192
  0
VERTEX
  5
125E
  8
0
 10
-31.9301270190991
 20
-248.5994997496913
 30
0.0
 70
   192
  0
VERTEX
  5
125F
  8
0
 10
-30.1000000001769
 20
-250.4296267686134
 30
0.0
 70
   192
  0
VERTEX
  5
1260
  8
0
 10
-27.60000000017689
 20
-251.0994997496913
 30
0.0
 70
   192
  0
VERTEX
  5
1261
  8
0
 10
-22.94791833698075
 20
-251.0994997496913
 30
0.0
 70
   192
  0
VERTEX
  5
1262
  8
0
 10
-21.69791833698075
 20
-250.7645632591524
 30
0.0
 70
   192
  0
VERTEX
  5
1263
  8
0
 10
-20.78285482751965
 20
-249.8494997496913
 30
0.0
 70
   192
  0
VERTEX
  5
1264
  8
0
 10
0.0
 20
0.0
 30
0.0
 70
   128
 71
    26
 72
     1
 73
    -2
  0
VERTEX
  5
1265
  8
0
 10
0.0
 20
0.0
 30
0.0
 70
   128
 71
    25
 72
   -26
 73
    -2
  0
VERTEX
  5
1266
  8
0
 10
0.0
 20
0.0
 30
0.0
 70
   128
 71
    24
 72
   -25
 73
    -2
  0
VERTEX
  5
1267
  8
0
 10
0.0
 20
0.0
 30
0.0
 70
   128
 71
    23
 72
   -24
 73
    -2
  0
VERTEX
  5
1268
  8
0
 10
0.0
 20
0.0
 30
0.0
 70
   128
 71
    22
 72
   -23
 73
    -2
  0
VERTEX
  5
1269
  8
0
 10
0.0
 20
0.0
 30
0.0
 70
   128
 71
    21
 72
   -22
 73
    -2
  0
VERTEX
  5
126A
  8
0
 10
0.0
 20
0.0
 30
0.0
 70
   128
 71
    20
 72
   -21
 73
    -2
  0
VERTEX
  5
126B
  8
0
 10
0.0
 20
0.0
 30
0.0
 70
   128
 71
    19
 72
   -20
 73
    -2
  0
VERTEX
  5
126C
  8
0
 10
0.0
 20
0.0
 30
0.0
 70
   128
 71
    18
 72
   -19
 73
    -2
  0
VERTEX
  5
126D
  8
0
 10
0.0
 20
0.0
 30
0.0
 70
   128
 71
    17
 72
   -18
 73
    -2
  0
VERTEX
  5
126E
  8
0
 10
0.0
 20
0.0
 30
0.0
 70
   128
 71
    16
 72
   -17
 73
    -2
  0
VERTEX
  5
126F
  8
0
 10
0.0
 20
0.0
 30
0.0
 70
   128
 71
    -3
 72
    15
 73
   -16
  0
VERTEX
  5
1270
  8
0
 10
0.0
 20
0.0
 30
0.0
 70
   128
 71
     2
 72
    -3
 73
   -16
  0
VERTEX
  5
1271
  8
0
 10
0.0
 20
0.0
 30
0.0
 70
   128
 71
    13
 72
    14
 73
   -15
  0
VERTEX
  5
1272
  8
0
 10
0.0
 20
0.0
 30
0.0
 70
   128
 71
    12
 72
   -13
 73
   -15
  0
VERTEX
  5
1273
  8
0
 10
0.0
 20
0.0
 30
0.0
 70
   128
 71
    11
 72
   -12
 73
   -15
  0
VERTEX
  5
1274
  8
0
 10
0.0
 20
0.0
 30
0.0
 70
   128
 71
    10
 72
   -11
 73
   -15
  0
VERTEX
  5
1275
  8
0
 10
0.0
 20
0.0
 30
0.0
 70
   128
 71
    -3
 72
   -10
 73
   -15
  0
VERTEX
  5
1276
  8
0
 10
0.0
 20
0.0
 30
0.0
 70
   128
 71
     8
 72
     9
 73
   -10
  0
VERTEX
  5
1277
  8
0
 10
0.0
 20
0.0
 30
0.0
 70
   128
 71
     7
 72
    -8
 73
   -10
  0
VERTEX
  5
1278
  8
0
 10
0.0
 20
0.0
 30
0.0
 70
   128
 71
     6
 72
    -7
 73
   -10
  0
VERTEX
  5
1279
  8
0
 10
0.0
 20
0.0
 30
0.0
 70
   128
 71
     5
 72
    -6
 73
   -10
  0
VERTEX
  5
127A
  8
0
 10
0.0
 20
0.0
 30
0.0
 70
   128
 71
     4
 72
    -5
 73
   -10
  0
VERTEX
  5
127B
  8
0
 10
0.0
 20
0.0
 30
0.0
 70
   128
 71
     3
 72
    -4
 73
   -10
  0
SEQEND
  5
17D1
  8
0
  0
ENDBLK
  5
17C1
  8
0
  0
BLOCK
  8
0
  2
*X8
 70
     1
 10
0.0
 20
0.0
 30
0.0
  3
*X8
  1

  0
POLYLINE
  5
127D
  8
0
 66
     1
 10
0.0
 20
0.0
 30
0.0
 70
    64
 71
    24
 72
    26
  0
VERTEX
  5
127E
  8
0
 10
-230.0000000000001
 20
-297.0000000000001
 30
-1.0
 70
   192
  0
VERTEX
  5
127F
  8
0
 10
-227.5000000000001
 20
-296.3301270189223
 30
-1.0
 70
   192
  0
VERTEX
  5
1280
  8
0
 10
-225.669872981078
 20
-294.5000000000001
 30
-1.0
 70
   192
  0
VERTEX
  5
1281
  8
0
 10
-225.0000000000002
 20
-292.0000000000002
 30
-1.0
 70
   192
  0
VERTEX
  5
1282
  8
0
 10
-225.0000000000002
 20
-230.0
 30
-1.0
 70
   192
  0
VERTEX
  5
1283
  8
0
 10
-225.669872981078
 20
-227.5
 30
-1.0
 70
   192
  0
VERTEX
  5
1284
  8
0
 10
-227.5000000000002
 20
-225.6698729810778
 30
-1.0
 70
   192
  0
VERTEX
  5
1285
  8
0
 10
-230.0000000000002
 20
-225.0000000000001
 30
-1.0
 70
   192
  0
VERTEX
  5
1286
  8
0
 10
-292.0000000000002
 20
-225.0000000000002
 30
-1.0
 70
   192
  0
VERTEX
  5
1287
  8
0
 10
-294.5000000000002
 20
-225.669872981078
 30
-1.0
 70
   192
  0
VERTEX
  5
1288
  8
0
 10
-296.3301270189224
 20
-227.5000000000002
 30
-1.0
 70
   192
  0
VERTEX
  5
1289
  8
0
 10
-297.0000000000001
 20
-230.0000000000001
 30
-1.0
 70
   192
  0
VERTEX
  5
128A
  8
0
 10
-297.0000000000002
 20
-292.0000000000003
 30
-1.0
 70
   192
  0
VERTEX
  5
128B
  8
0
 10
-296.3301270189224
 20
-294.5000000000003
 30
-1.0
 70
   192
  0
VERTEX
  5
128C
  8
0
 10
-294.5000000000002
 20
-296.3301270189225
 30
-1.0
 70
   192
  0
VERTEX
  5
128D
  8
0
 10
-292.0000000000002
 20
-297.0000000000002
 30
-1.0
 70
   192
  0
VERTEX
  5
128E
  8
0
 10
-277.0000000000003
 20
-235.0000000000002
 30
-1.0
 70
   192
  0
VERTEX
  5
128F
  8
0
 10
-277.0000000000003
 20
-272.4124907648517
 30
-1.0
 70
   192
  0
VERTEX
  5
1290
  8
0
 10
-287.0000000000003
 20
-272.4124907648516
 30
-1.0
 70
   192
  0
VERTEX
  5
1291
  8
0
 10
-287.0000000000002
 20
-235.0000000000002
 30
-1.0
 70
   192
  0
VERTEX
  5
1292
  8
0
 10
-235.0000000000001
 20
-287.0000000000002
 30
-1.0
 70
   192
  0
VERTEX
  5
1293
  8
0
 10
-272.4124907648516
 20
-287.0000000000003
 30
-1.0
 70
   192
  0
VERTEX
  5
1294
  8
0
 10
-272.4124907648516
 20
-277.0000000000002
 30
-1.0
 70
   192
  0
VERTEX
  5
1295
  8
0
 10
-235.0000000000002
 20
-277.0000000000001
 30
-1.0
 70
   192
  0
VERTEX
  5
1296
  8
0
 10
0.0
 20
0.0
 30
0.0
 70
   128
 71
   -17
 72
     9
 73
    -8
  0
VERTEX
  5
1297
  8
0
 10
0.0
 20
0.0
 30
0.0
 70
   128
 71
    24
 72
   -23
 73
   -18
  0
VERTEX
  5
1298
  8
0
 10
0.0
 20
0.0
 30
0.0
 70
   128
 71
   -24
 72
    18
 73
   -17
  0
VERTEX
  5
1299
  8
0
 10
0.0
 20
0.0
 30
0.0
 70
   128
 71
   -24
 72
   -17
 73
    -8
  0
VERTEX
  5
129A
  8
0
 10
0.0
 20
0.0
 30
0.0
 70
   128
 71
   -24
 72
     8
 73
    -7
  0
VERTEX
  5
129B
  8
0
 10
0.0
 20
0.0
 30
0.0
 70
   128
 71
   -24
 72
     7
 73
    -6
  0
VERTEX
  5
129C
  8
0
 10
0.0
 20
0.0
 30
0.0
 70
   128
 71
   -24
 72
     6
 73
    -5
  0
VERTEX
  5
129D
  8
0
 10
0.0
 20
0.0
 30
0.0
 70
   128
 71
     5
 72
    -4
 73
   -24
  0
VERTEX
  5
129E
  8
0
 10
0.0
 20
0.0
 30
0.0
 70
   128
 71
    -4
 72
    21
 73
   -24
  0
VERTEX
  5
129F
  8
0
 10
0.0
 20
0.0
 30
0.0
 70
   128
 71
    22
 72
   -21
 73
    -4
  0
VERTEX
  5
12A0
  8
0
 10
0.0
 20
0.0
 30
0.0
 70
   128
 71
   -22
 72
     4
 73
    -3
  0
VERTEX
  5
12A1
  8
0
 10
0.0
 20
0.0
 30
0.0
 70
   128
 71
   -22
 72
     3
 73
    -2
  0
VERTEX
  5
12A2
  8
0
 10
0.0
 20
0.0
 30
0.0
 70
   128
 71
   -22
 72
     2
 73
    -1
  0
VERTEX
  5
12A3
  8
0
 10
0.0
 20
0.0
 30
0.0
 70
   128
 71
   -22
 72
     1
 73
   -16
  0
VERTEX
  5
12A4
  8
0
 10
0.0
 20
0.0
 30
0.0
 70
   128
 71
   -16
 72
   -18
 73
   -22
  0
VERTEX
  5
12A5
  8
0
 10
0.0
 20
0.0
 30
0.0
 70
   128
 71
   -18
 72
    23
 73
   -22
  0
VERTEX
  5
12A6
  8
0
 10
0.0
 20
0.0
 30
0.0
 70
   128
 71
    16
 72
   -15
 73
   -19
  0
VERTEX
  5
12A7
  8
0
 10
0.0
 20
0.0
 30
0.0
 70
   128
 71
   -16
 72
    19
 73
   -18
  0
VERTEX
  5
12A8
  8
0
 10
0.0
 20
0.0
 30
0.0
 70
   128
 71
    15
 72
    14
 73
   -13
  0
VERTEX
  5
12A9
  8
0
 10
0.0
 20
0.0
 30
0.0
 70
   128
 71
   -15
 72
    13
 73
   -12
  0
VERTEX
  5
12AA
  8
0
 10
0.0
 20
0.0
 30
0.0
 70
   128
 71
   -15
 72
    12
 73
   -11
  0
VERTEX
  5
12AB
  8
0
 10
0.0
 20
0.0
 30
0.0
 70
   128
 71
   -15
 72
    11
 73
   -10
  0
VERTEX
  5
12AC
  8
0
 10
0.0
 20
0.0
 30
0.0
 70
   128
 71
   -15
 72
    10
 73
    -9
  0
VERTEX
  5
12AD
  8
0
 10
0.0
 20
0.0
 30
0.0
 70
   128
 71
   -15
 72
    -9
 73
   -20
  0
VERTEX
  5
12AE
  8
0
 10
0.0
 20
0.0
 30
0.0
 70
   128
 71
   -15
 72
    20
 73
   -19
  0
VERTEX
  5
12AF
  8
0
 10
0.0
 20
0.0
 30
0.0
 70
   128
 71
    -9
 72
    17
 73
   -20
  0
SEQEND
  5
17D4
  8
0
  0
POLYLINE
  5
12B0
  8
0
 66
     1
 10
0.0
 20
0.0
 30
0.0
 70
    64
 71
     4
 72
     2
  0
VERTEX
  5
12B1
  8
0
 10
-230.0000000000001
 20
-297.0000000000001
 30
0.0
 70
   192
  0
VERTEX
  5
12B2
  8
0
 10
-292.0000000000002
 20
-297.0000000000002
 30
0.0
 70
   192
  0
VERTEX
  5
12B3
  8
0
 10
-292.0000000000002
 20
-297.0000000000003
 30
-1.0
 70
   192
  0
VERTEX
  5
12B4
  8
0
 10
-230.0000000000001
 20
-297.0000000000001
 30
-1.0
 70
   192
  0
VERTEX
  5
12B5
  8
0
 10
0.0
 20
0.0
 30
0.0
 70
   128
 71
     3
 72
     4
 73
    -1
  0
VERTEX
  5
12B6
  8
0
 10
0.0
 20
0.0
 30
0.0
 70
   128
 71
     2
 72
    -3
 73
     1
  0
SEQEND
  5
17D5
  8
0
  0
POLYLINE
  5
12B7
  8
0
 66
     1
 10
0.0
 20
0.0
 30
0.0
 70
    64
 71
     8
 72
     6
  0
VERTEX
  5
12B8
  8
0
 10
-296.3301270189224
 20
-294.5000000000003
 30
0.0
 70
   192
  0
VERTEX
  5
12B9
  8
0
 10
-296.3301270189224
 20
-294.5000000000003
 30
-1.0
 70
   192
  0
VERTEX
  5
12BA
  8
0
 10
-294.5000000000002
 20
-296.3301270189225
 30
-1.0
 70
   192
  0
VERTEX
  5
12BB
  8
0
 10
-294.5000000000002
 20
-296.3301270189225
 30
0.0
 70
   192
  0
VERTEX
  5
12BC
  8
0
 10
-297.0000000000002
 20
-292.0000000000003
 30
0.0
 70
   192
  0
VERTEX
  5
12BD
  8
0
 10
-297.0000000000002
 20
-292.0000000000003
 30
-1.0
 70
   192
  0
VERTEX
  5
12BE
  8
0
 10
-292.0000000000002
 20
-297.0000000000003
 30
-1.0
 70
   192
  0
VERTEX
  5
12BF
  8
0
 10
-292.0000000000002
 20
-297.0000000000003
 30
0.0
 70
   192
  0
VERTEX
  5
12C0
  8
0
 10
0.0
 20
0.0
 30
0.0
 70
   128
 71
     1
 72
     2
 73
    -3
  0
VERTEX
  5
12C1
  8
0
 10
0.0
 20
0.0
 30
0.0
 70
   128
 71
    -1
 72
     3
 73
     4
  0
VERTEX
  5
12C2
  8
0
 10
0.0
 20
0.0
 30
0.0
 70
   128
 71
     5
 72
     6
 73
    -2
  0
VERTEX
  5
12C3
  8
0
 10
0.0
 20
0.0
 30
0.0
 70
   128
 71
    -5
 72
     2
 73
     1
  0
VERTEX
  5
12C4
  8
0
 10
0.0
 20
0.0
 30
0.0
 70
   128
 71
     4
 72
     3
 73
    -7
  0
VERTEX
  5
12C5
  8
0
 10
0.0
 20
0.0
 30
0.0
 70
   128
 71
    -4
 72
     7
 73
     8
  0
SEQEND
  5
17D6
  8
0
  0
POLYLINE
  5
12C6
  8
0
 66
     1
 10
0.0
 20
0.0
 30
0.0
 70
    64
 71
     4
 72
     2
  0
VERTEX
  5
12C7
  8
0
 10
-297.0000000000002
 20
-292.0000000000003
 30
0.0
 70
   192
  0
VERTEX
  5
12C8
  8
0
 10
-297.0000000000001
 20
-230.0000000000001
 30
0.0
 70
   192
  0
VERTEX
  5
12C9
  8
0
 10
-297.0000000000001
 20
-230.0000000000001
 30
-1.0
 70
   192
  0
VERTEX
  5
12CA
  8
0
 10
-297.0000000000002
 20
-292.0000000000003
 30
-1.0
 70
   192
  0
VERTEX
  5
12CB
  8
0
 10
0.0
 20
0.0
 30
0.0
 70
   128
 71
     3
 72
     4
 73
    -1
  0
VERTEX
  5
12CC
  8
0
 10
0.0
 20
0.0
 30
0.0
 70
   128
 71
     2
 72
    -3
 73
     1
  0
SEQEND
  5
17D7
  8
0
  0
POLYLINE
  5
12CD
  8
0
 66
     1
 10
0.0
 20
0.0
 30
0.0
 70
    64
 71
     8
 72
     6
  0
VERTEX
  5
12CE
  8
0
 10
-294.5000000000002
 20
-225.669872981078
 30
0.0
 70
   192
  0
VERTEX
  5
12CF
  8
0
 10
-294.5000000000002
 20
-225.669872981078
 30
-1.0
 70
   192
  0
VERTEX
  5
12D0
  8
0
 10
-296.3301270189224
 20
-227.5000000000002
 30
-1.0
 70
   192
  0
VERTEX
  5
12D1
  8
0
 10
-296.3301270189224
 20
-227.5000000000002
 30
0.0
 70
   192
  0
VERTEX
  5
12D2
  8
0
 10
-292.0000000000002
 20
-225.0000000000002
 30
0.0
 70
   192
  0
VERTEX
  5
12D3
  8
0
 10
-292.0000000000002
 20
-225.0000000000002
 30
-1.0
 70
   192
  0
VERTEX
  5
12D4
  8
0
 10
-297.0000000000002
 20
-230.0000000000001
 30
-1.0
 70
   192
  0
VERTEX
  5
12D5
  8
0
 10
-297.0000000000001
 20
-230.0000000000001
 30
0.0
 70
   192
  0
VERTEX
  5
12D6
  8
0
 10
0.0
 20
0.0
 30
0.0
 70
   128
 71
     1
 72
     2
 73
    -3
  0
VERTEX
  5
12D7
  8
0
 10
0.0
 20
0.0
 30
0.0
 70
   128
 71
    -1
 72
     3
 73
     4
  0
VERTEX
  5
12D8
  8
0
 10
0.0
 20
0.0
 30
0.0
 70
   128
 71
     5
 72
     6
 73
    -2
  0
VERTEX
  5
12D9
  8
0
 10
0.0
 20
0.0
 30
0.0
 70
   128
 71
    -5
 72
     2
 73
     1
  0
VERTEX
  5
12DA
  8
0
 10
0.0
 20
0.0
 30
0.0
 70
   128
 71
     4
 72
     3
 73
    -7
  0
VERTEX
  5
12DB
  8
0
 10
0.0
 20
0.0
 30
0.0
 70
   128
 71
    -4
 72
     7
 73
     8
  0
SEQEND
  5
17D8
  8
0
  0
POLYLINE
  5
12DC
  8
0
 66
     1
 10
0.0
 20
0.0
 30
0.0
 70
    64
 71
     4
 72
     2
  0
VERTEX
  5
12DD
  8
0
 10
-292.0000000000002
 20
-225.0000000000002
 30
0.0
 70
   192
  0
VERTEX
  5
12DE
  8
0
 10
-230.0000000000002
 20
-225.0000000000001
 30
0.0
 70
   192
  0
VERTEX
  5
12DF
  8
0
 10
-230.0000000000002
 20
-225.0
 30
-1.0
 70
   192
  0
VERTEX
  5
12E0
  8
0
 10
-292.0000000000002
 20
-225.0000000000002
 30
-1.0
 70
   192
  0
VERTEX
  5
12E1
  8
0
 10
0.0
 20
0.0
 30
0.0
 70
   128
 71
     3
 72
     4
 73
    -1
  0
VERTEX
  5
12E2
  8
0
 10
0.0
 20
0.0
 30
0.0
 70
   128
 71
     2
 72
    -3
 73
     1
  0
SEQEND
  5
17D9
  8
0
  0
POLYLINE
  5
12E3
  8
0
 66
     1
 10
0.0
 20
0.0
 30
0.0
 70
    64
 71
     8
 72
     6
  0
VERTEX
  5
12E4
  8
0
 10
-225.669872981078
 20
-227.5
 30
0.0
 70
   192
  0
VERTEX
  5
12E5
  8
0
 10
-225.669872981078
 20
-227.5
 30
-1.0
 70
   192
  0
VERTEX
  5
12E6
  8
0
 10
-227.5000000000002
 20
-225.6698729810778
 30
-1.0
 70
   192
  0
VERTEX
  5
12E7
  8
0
 10
-227.5000000000002
 20
-225.6698729810778
 30
0.0
 70
   192
  0
VERTEX
  5
12E8
  8
0
 10
-225.0000000000002
 20
-230.0
 30
0.0
 70
   192
  0
VERTEX
  5
12E9
  8
0
 10
-225.0000000000002
 20
-230.0
 30
-1.0
 70
   192
  0
VERTEX
  5
12EA
  8
0
 10
-230.0000000000002
 20
-225.0
 30
-1.0
 70
   192
  0
VERTEX
  5
12EB
  8
0
 10
-230.0000000000002
 20
-225.0
 30
0.0
 70
   192
  0
VERTEX
  5
12EC
  8
0
 10
0.0
 20
0.0
 30
0.0
 70
   128
 71
     1
 72
     2
 73
    -3
  0
VERTEX
  5
12ED
  8
0
 10
0.0
 20
0.0
 30
0.0
 70
   128
 71
    -1
 72
     3
 73
     4
  0
VERTEX
  5
12EE
  8
0
 10
0.0
 20
0.0
 30
0.0
 70
   128
 71
     5
 72
     6
 73
    -2
  0
VERTEX
  5
12EF
  8
0
 10
0.0
 20
0.0
 30
0.0
 70
   128
 71
    -5
 72
     2
 73
     1
  0
VERTEX
  5
12F0
  8
0
 10
0.0
 20
0.0
 30
0.0
 70
   128
 71
     4
 72
     3
 73
    -7
  0
VERTEX
  5
12F1
  8
0
 10
0.0
 20
0.0
 30
0.0
 70
   128
 71
    -4
 72
     7
 73
     8
  0
SEQEND
  5
17DA
  8
0
  0
POLYLINE
  5
12F2
  8
0
 66
     1
 10
0.0
 20
0.0
 30
0.0
 70
    64
 71
     4
 72
     2
  0
VERTEX
  5
12F3
  8
0
 10
-225.0000000000002
 20
-230.0
 30
0.0
 70
   192
  0
VERTEX
  5
12F4
  8
0
 10
-225.0000000000002
 20
-292.0000000000002
 30
0.0
 70
   192
  0
VERTEX
  5
12F5
  8
0
 10
-225.0000000000002
 20
-292.0000000000002
 30
-1.0
 70
   192
  0
VERTEX
  5
12F6
  8
0
 10
-225.0000000000002
 20
-230.0
 30
-1.0
 70
   192
  0
VERTEX
  5
12F7
  8
0
 10
0.0
 20
0.0
 30
0.0
 70
   128
 71
     3
 72
     4
 73
    -1
  0
VERTEX
  5
12F8
  8
0
 10
0.0
 20
0.0
 30
0.0
 70
   128
 71
     2
 72
    -3
 73
     1
  0
SEQEND
  5
17DB
  8
0
  0
POLYLINE
  5
12F9
  8
0
 66
     1
 10
0.0
 20
0.0
 30
0.0
 70
    64
 71
     8
 72
     6
  0
VERTEX
  5
12FA
  8
0
 10
-227.5000000000001
 20
-296.3301270189223
 30
0.0
 70
   192
  0
VERTEX
  5
12FB
  8
0
 10
-227.5000000000001
 20
-296.3301270189223
 30
-1.0
 70
   192
  0
VERTEX
  5
12FC
  8
0
 10
-225.669872981078
 20
-294.5000000000001
 30
-1.0
 70
   192
  0
VERTEX
  5
12FD
  8
0
 10
-225.669872981078
 20
-294.5000000000001
 30
0.0
 70
   192
  0
VERTEX
  5
12FE
  8
0
 10
-230.0000000000001
 20
-297.0000000000001
 30
0.0
 70
   192
  0
VERTEX
  5
12FF
  8
0
 10
-230.0000000000001
 20
-297.0000000000001
 30
-1.0
 70
   192
  0
VERTEX
  5
1300
  8
0
 10
-225.0000000000002
 20
-292.0000000000002
 30
-1.0
 70
   192
  0
VERTEX
  5
1301
  8
0
 10
-225.0000000000002
 20
-292.0000000000002
 30
0.0
 70
   192
  0
VERTEX
  5
1302
  8
0
 10
0.0
 20
0.0
 30
0.0
 70
   128
 71
     1
 72
     2
 73
    -3
  0
VERTEX
  5
1303
  8
0
 10
0.0
 20
0.0
 30
0.0
 70
   128
 71
    -1
 72
     3
 73
     4
  0
VERTEX
  5
1304
  8
0
 10
0.0
 20
0.0
 30
0.0
 70
   128
 71
     5
 72
     6
 73
    -2
  0
VERTEX
  5
1305
  8
0
 10
0.0
 20
0.0
 30
0.0
 70
   128
 71
    -5
 72
     2
 73
     1
  0
VERTEX
  5
1306
  8
0
 10
0.0
 20
0.0
 30
0.0
 70
   128
 71
     4
 72
     3
 73
    -7
  0
VERTEX
  5
1307
  8
0
 10
0.0
 20
0.0
 30
0.0
 70
   128
 71
    -4
 72
     7
 73
     8
  0
SEQEND
  5
17DC
  8
0
  0
POLYLINE
  5
1308
  8
0
 66
     1
 10
0.0
 20
0.0
 30
0.0
 70
    64
 71
    16
 72
    14
  0
VERTEX
  5
1309
  8
0
 10
-292.0000000000002
 20
-297.0000000000002
 30
0.0
 70
   192
  0
VERTEX
  5
130A
  8
0
 10
-230.0000000000001
 20
-297.0000000000001
 30
0.0
 70
   192
  0
VERTEX
  5
130B
  8
0
 10
-227.5000000000001
 20
-296.3301270189223
 30
0.0
 70
   192
  0
VERTEX
  5
130C
  8
0
 10
-225.669872981078
 20
-294.5000000000001
 30
0.0
 70
   192
  0
VERTEX
  5
130D
  8
0
 10
-225.0000000000002
 20
-292.0000000000002
 30
0.0
 70
   192
  0
VERTEX
  5
130E
  8
0
 10
-225.0000000000002
 20
-230.0
 30
0.0
 70
   192
  0
VERTEX
  5
130F
  8
0
 10
-225.669872981078
 20
-227.5
 30
0.0
 70
   192
  0
VERTEX
  5
1310
  8
0
 10
-227.5000000000002
 20
-225.6698729810778
 30
0.0
 70
   192
  0
VERTEX
  5
1311
  8
0
 10
-230.0000000000002
 20
-225.0
 30
0.0
 70
   192
  0
VERTEX
  5
1312
  8
0
 10
-292.0000000000002
 20
-225.0000000000002
 30
0.0
 70
   192
  0
VERTEX
  5
1313
  8
0
 10
-294.5000000000002
 20
-225.669872981078
 30
0.0
 70
   192
  0
VERTEX
  5
1314
  8
0
 10
-296.3301270189224
 20
-227.5000000000002
 30
0.0
 70
   192
  0
VERTEX
  5
1315
  8
0
 10
-297.0000000000002
 20
-230.0000000000001
 30
0.0
 70
   192
  0
VERTEX
  5
1316
  8
0
 10
-297.0000000000002
 20
-292.0000000000003
 30
0.0
 70
   192
  0
VERTEX
  5
1317
  8
0
 10
-296.3301270189224
 20
-294.5000000000003
 30
0.0
 70
   192
  0
VERTEX
  5
1318
  8
0
 10
-294.5000000000002
 20
-296.3301270189225
 30
0.0
 70
   192
  0
VERTEX
  5
1319
  8
0
 10
0.0
 20
0.0
 30
0.0
 70
   128
 71
    15
 72
    16
 73
    -1
  0
VERTEX
  5
131A
  8
0
 10
0.0
 20
0.0
 30
0.0
 70
   128
 71
    14
 72
   -15
 73
    -1
  0
VERTEX
  5
131B
  8
0
 10
0.0
 20
0.0
 30
0.0
 70
   128
 71
    13
 72
   -14
 73
    -1
  0
VERTEX
  5
131C
  8
0
 10
0.0
 20
0.0
 30
0.0
 70
   128
 71
    12
 72
   -13
 73
    -1
  0
VERTEX
  5
131D
  8
0
 10
0.0
 20
0.0
 30
0.0
 70
   128
 71
    11
 72
   -12
 73
    -1
  0
VERTEX
  5
131E
  8
0
 10
0.0
 20
0.0
 30
0.0
 70
   128
 71
    10
 72
   -11
 73
    -1
  0
VERTEX
  5
131F
  8
0
 10
0.0
 20
0.0
 30
0.0
 70
   128
 71
     9
 72
   -10
 73
    -1
  0
VERTEX
  5
1320
  8
0
 10
0.0
 20
0.0
 30
0.0
 70
   128
 71
     8
 72
    -9
 73
    -1
  0
VERTEX
  5
1321
  8
0
 10
0.0
 20
0.0
 30
0.0
 70
   128
 71
     7
 72
    -8
 73
    -1
  0
VERTEX
  5
1322
  8
0
 10
0.0
 20
0.0
 30
0.0
 70
   128
 71
     6
 72
    -7
 73
    -1
  0
VERTEX
  5
1323
  8
0
 10
0.0
 20
0.0
 30
0.0
 70
   128
 71
     5
 72
    -6
 73
    -1
  0
VERTEX
  5
1324
  8
0
 10
0.0
 20
0.0
 30
0.0
 70
   128
 71
     4
 72
    -5
 73
    -1
  0
VERTEX
  5
1325
  8
0
 10
0.0
 20
0.0
 30
0.0
 70
   128
 71
     3
 72
    -4
 73
    -1
  0
VERTEX
  5
1326
  8
0
 10
0.0
 20
0.0
 30
0.0
 70
   128
 71
     2
 72
    -3
 73
     1
  0
SEQEND
  5
17DD
  8
0
  0
POLYLINE
  5
1327
  8
0
 66
     1
 10
0.0
 20
0.0
 30
0.0
 70
    64
 71
     4
 72
     2
  0
VERTEX
  5
1328
  8
0
 10
-287.0000000000002
 20
-235.0000000000002
 30
-1.0
 70
   192
  0
VERTEX
  5
1329
  8
0
 10
-287.0000000000002
 20
-235.0000000000002
 30
-8.0
 70
   192
  0
VERTEX
  5
132A
  8
0
 10
-277.0000000000002
 20
-235.0000000000002
 30
-8.0
 70
   192
  0
VERTEX
  5
132B
  8
0
 10
-277.0000000000002
 20
-235.0000000000002
 30
-1.0
 70
   192
  0
VERTEX
  5
132C
  8
0
 10
0.0
 20
0.0
 30
0.0
 70
   128
 71
     1
 72
     4
 73
    -3
  0
VERTEX
  5
132D
  8
0
 10
0.0
 20
0.0
 30
0.0
 70
   128
 71
    -1
 72
     3
 73
     2
  0
SEQEND
  5
17DE
  8
0
  0
POLYLINE
  5
132E
  8
0
 66
     1
 10
0.0
 20
0.0
 30
0.0
 70
    64
 71
     4
 72
     2
  0
VERTEX
  5
132F
  8
0
 10
-277.0000000000003
 20
-235.0000000000002
 30
-1.0
 70
   192
  0
VERTEX
  5
1330
  8
0
 10
-277.0000000000003
 20
-272.4124907648517
 30
-1.0
 70
   192
  0
VERTEX
  5
1331
  8
0
 10
-277.0000000000003
 20
-272.4124907648517
 30
-8.0
 70
   192
  0
VERTEX
  5
1332
  8
0
 10
-277.0000000000003
 20
-235.0000000000002
 30
-8.0
 70
   192
  0
VERTEX
  5
1333
  8
0
 10
0.0
 20
0.0
 30
0.0
 70
   128
 71
     3
 72
     4
 73
    -1
  0
VERTEX
  5
1334
  8
0
 10
0.0
 20
0.0
 30
0.0
 70
   128
 71
     2
 72
    -3
 73
     1
  0
SEQEND
  5
17DF
  8
0
  0
POLYLINE
  5
1335
  8
0
 66
     1
 10
0.0
 20
0.0
 30
0.0
 70
    64
 71
     4
 72
     2
  0
VERTEX
  5
1336
  8
0
 10
-277.0000000000003
 20
-272.4124907648517
 30
-1.0
 70
   192
  0
VERTEX
  5
1337
  8
0
 10
-287.0000000000003
 20
-272.4124907648517
 30
-1.0
 70
   192
  0
VERTEX
  5
1338
  8
0
 10
-287.0000000000003
 20
-272.4124907648517
 30
-8.0
 70
   192
  0
VERTEX
  5
1339
  8
0
 10
-277.0000000000003
 20
-272.4124907648517
 30
-8.0
 70
   192
  0
VERTEX
  5
133A
  8
0
 10
0.0
 20
0.0
 30
0.0
 70
   128
 71
     3
 72
     4
 73
    -1
  0
VERTEX
  5
133B
  8
0
 10
0.0
 20
0.0
 30
0.0
 70
   128
 71
     2
 72
    -3
 73
     1
  0
SEQEND
  5
17E0
  8
0
  0
POLYLINE
  5
133C
  8
0
 66
     1
 10
0.0
 20
0.0
 30
0.0
 70
    64
 71
     4
 72
     2
  0
VERTEX
  5
133D
  8
0
 10
-287.0000000000003
 20
-272.4124907648517
 30
-1.0
 70
   192
  0
VERTEX
  5
133E
  8
0
 10
-287.0000000000003
 20
-272.4124907648517
 30
-8.0
 70
   192
  0
VERTEX
  5
133F
  8
0
 10
-287.0000000000002
 20
-235.0000000000002
 30
-8.0
 70
   192
  0
VERTEX
  5
1340
  8
0
 10
-287.0000000000003
 20
-235.0000000000002
 30
-1.0
 70
   192
  0
VERTEX
  5
1341
  8
0
 10
0.0
 20
0.0
 30
0.0
 70
   128
 71
     1
 72
     4
 73
    -3
  0
VERTEX
  5
1342
  8
0
 10
0.0
 20
0.0
 30
0.0
 70
   128
 71
    -1
 72
     3
 73
     2
  0
SEQEND
  5
17E1
  8
0
  0
POLYLINE
  5
1343
  8
0
 66
     1
 10
0.0
 20
0.0
 30
0.0
 70
    64
 71
     4
 72
     2
  0
VERTEX
  5
1344
  8
0
 10
-287.0000000000003
 20
-235.0000000000002
 30
-8.0
 70
   192
  0
VERTEX
  5
1345
  8
0
 10
-287.0000000000003
 20
-272.4124907648517
 30
-8.0
 70
   192
  0
VERTEX
  5
1346
  8
0
 10
-277.0000000000003
 20
-272.4124907648517
 30
-8.0
 70
   192
  0
VERTEX
  5
1347
  8
0
 10
-277.0000000000002
 20
-235.0000000000002
 30
-8.0
 70
   192
  0
VERTEX
  5
1348
  8
0
 10
0.0
 20
0.0
 30
0.0
 70
   128
 71
     1
 72
     4
 73
    -3
  0
VERTEX
  5
1349
  8
0
 10
0.0
 20
0.0
 30
0.0
 70
   128
 71
    -1
 72
     3
 73
     2
  0
SEQEND
  5
17E2
  8
0
  0
POLYLINE
  5
134A
  8
0
 66
     1
 10
0.0
 20
0.0
 30
0.0
 70
    64
 71
     4
 72
     2
  0
VERTEX
  5
134B
  8
0
 10
-235.0000000000002
 20
-277.0000000000001
 30
-1.0
 70
   192
  0
VERTEX
  5
134C
  8
0
 10
-235.0000000000002
 20
-277.0000000000001
 30
-8.0
 70
   192
  0
VERTEX
  5
134D
  8
0
 10
-235.0000000000001
 20
-287.0000000000002
 30
-8.0
 70
   192
  0
VERTEX
  5
134E
  8
0
 10
-235.0000000000001
 20
-287.0000000000002
 30
-1.0
 70
   192
  0
VERTEX
  5
134F
  8
0
 10
0.0
 20
0.0
 30
0.0
 70
   128
 71
     1
 72
     4
 73
    -3
  0
VERTEX
  5
1350
  8
0
 10
0.0
 20
0.0
 30
0.0
 70
   128
 71
    -1
 72
     3
 73
     2
  0
SEQEND
  5
17E3
  8
0
  0
POLYLINE
  5
1351
  8
0
 66
     1
 10
0.0
 20
0.0
 30
0.0
 70
    64
 71
     4
 72
     2
  0
VERTEX
  5
1352
  8
0
 10
-235.0000000000001
 20
-287.0000000000002
 30
-1.0
 70
   192
  0
VERTEX
  5
1353
  8
0
 10
-272.4124907648516
 20
-287.0000000000003
 30
-1.0
 70
   192
  0
VERTEX
  5
1354
  8
0
 10
-272.4124907648516
 20
-287.0000000000003
 30
-8.0
 70
   192
  0
VERTEX
  5
1355
  8
0
 10
-235.0000000000001
 20
-287.0000000000002
 30
-8.0
 70
   192
  0
VERTEX
  5
1356
  8
0
 10
0.0
 20
0.0
 30
0.0
 70
   128
 71
     3
 72
     4
 73
    -1
  0
VERTEX
  5
1357
  8
0
 10
0.0
 20
0.0
 30
0.0
 70
   128
 71
     2
 72
    -3
 73
     1
  0
SEQEND
  5
17E4
  8
0
  0
POLYLINE
  5
1358
  8
0
 66
     1
 10
0.0
 20
0.0
 30
0.0
 70
    64
 71
     4
 72
     2
  0
VERTEX
  5
1359
  8
0
 10
-272.4124907648516
 20
-287.0000000000003
 30
-1.0
 70
   192
  0
VERTEX
  5
135A
  8
0
 10
-272.4124907648516
 20
-277.0000000000002
 30
-1.0
 70
   192
  0
VERTEX
  5
135B
  8
0
 10
-272.4124907648516
 20
-277.0000000000002
 30
-8.0
 70
   192
  0
VERTEX
  5
135C
  8
0
 10
-272.4124907648516
 20
-287.0000000000003
 30
-8.0
 70
   192
  0
VERTEX
  5
135D
  8
0
 10
0.0
 20
0.0
 30
0.0
 70
   128
 71
     3
 72
     4
 73
    -1
  0
VERTEX
  5
135E
  8
0
 10
0.0
 20
0.0
 30
0.0
 70
   128
 71
     2
 72
    -3
 73
     1
  0
SEQEND
  5
17E5
  8
0
  0
POLYLINE
  5
135F
  8
0
 66
     1
 10
0.0
 20
0.0
 30
0.0
 70
    64
 71
     4
 72
     2
  0
VERTEX
  5
1360
  8
0
 10
-272.4124907648516
 20
-277.0000000000002
 30
-1.0
 70
   192
  0
VERTEX
  5
1361
  8
0
 10
-272.4124907648516
 20
-277.0000000000002
 30
-8.0
 70
   192
  0
VERTEX
  5
1362
  8
0
 10
-235.0000000000002
 20
-277.0000000000001
 30
-8.0
 70
   192
  0
VERTEX
  5
1363
  8
0
 10
-235.0000000000002
 20
-277.0000000000001
 30
-1.0
 70
   192
  0
VERTEX
  5
1364
  8
0
 10
0.0
 20
0.0
 30
0.0
 70
   128
 71
     1
 72
     4
 73
    -3
  0
VERTEX
  5
1365
  8
0
 10
0.0
 20
0.0
 30
0.0
 70
   128
 71
    -1
 72
     3
 73
     2
  0
SEQEND
  5
17E6
  8
0
  0
POLYLINE
  5
1366
  8
0
 66
     1
 10
0.0
 20
0.0
 30
0.0
 70
    64
 71
     4
 72
     2
  0
VERTEX
  5
1367
  8
0
 10
-235.0000000000002
 20
-277.0000000000001
 30
-8.0
 70
   192
  0
VERTEX
  5
1368
  8
0
 10
-272.4124907648516
 20
-277.0000000000002
 30
-8.0
 70
   192
  0
VERTEX
  5
1369
  8
0
 10
-272.4124907648516
 20
-287.0000000000003
 30
-8.0
 70
   192
  0
VERTEX
  5
136A
  8
0
 10
-235.0000000000001
 20
-287.0000000000002
 30
-8.0
 70
   192
  0
VERTEX
  5
136B
  8
0
 10
0.0
 20
0.0
 30
0.0
 70
   128
 71
     1
 72
     4
 73
    -3
  0
VERTEX
  5
136C
  8
0
 10
0.0
 20
0.0
 30
0.0
 70
   128
 71
    -1
 72
     3
 73
     2
  0
SEQEND
  5
17E7
  8
0
  0
ENDBLK
  5
17D3
  8
0
  0
BLOCK
  8
0
  2
*X9
 70
     1
 10
0.0
 20
0.0
 30
0.0
  3
*X9
  1

  0
POLYLINE
  5
136E
  8
0
 66
     1
 10
0.0
 20
0.0
 30
0.0
 70
    64
 71
     8
 72
     6
  0
VERTEX
  5
136F
  8
0
 10
378.6121276714149
 20
-243.2136031971163
 30
-5.999999999999998
 70
   192
  0
VERTEX
  5
1370
  8
0
 10
431.7843544248314
 20
-126.7370161946844
 30
-5.999999999999998
 70
   192
  0
VERTEX
  5
1371
  8
0
 10
431.7843544248314
 20
-126.7370161946844
 30
-16.0
 70
   192
  0
VERTEX
  5
1372
  8
0
 10
378.6121276714149
 20
-243.2136031971163
 30
-16.0
 70
   192
  0
VERTEX
  5
1373
  8
0
 10
450.0000000000002
 20
0.0000000000002842
 30
-5.999999999999998
 70
   192
  0
VERTEX
  5
1374
  8
0
 10
450.0000000000001
 20
0.0000000000000551
 30
-16.0
 70
   192
  0
VERTEX
  5
1375
  8
0
 10
294.7880594596737
 20
-340.0000000000001
 30
-5.999999999999998
 70
   192
  0
VERTEX
  5
1376
  8
0
 10
294.7880594596737
 20
-340.0000000000001
 30
-16.0
 70
   192
  0
VERTEX
  5
1377
  8
0
 10
0.0
 20
0.0
 30
0.0
 70
   128
 71
     1
 72
     2
 73
    -3
  0
VERTEX
  5
1378
  8
0
 10
0.0
 20
0.0
 30
0.0
 70
   128
 71
     4
 72
    -1
 73
     3
  0
VERTEX
  5
1379
  8
0
 10
0.0
 20
0.0
 30
0.0
 70
   128
 71
     2
 72
     5
 73
    -6
  0
VERTEX
  5
137A
  8
0
 10
0.0
 20
0.0
 30
0.0
 70
   128
 71
     3
 72
    -2
 73
     6
  0
VERTEX
  5
137B
  8
0
 10
0.0
 20
0.0
 30
0.0
 70
   128
 71
     7
 72
     1
 73
    -4
  0
VERTEX
  5
137C
  8
0
 10
0.0
 20
0.0
 30
0.0
 70
   128
 71
     8
 72
    -7
 73
     4
  0
SEQEND
  5
17EA
  8
0
  0
POLYLINE
  5
137D
  8
0
 66
     1
 10
0.0
 20
0.0
 30
0.0
 70
    64
 71
    16
 72
    14
  0
VERTEX
  5
137E
  8
0
 10
100.1344202803415
 20
438.7175604818208
 30
-5.999999999999998
 70
   192
  0
VERTEX
  5
137F
  8
0
 10
-100.1344202803415
 20
438.7175604818208
 30
-5.999999999999998
 70
   192
  0
VERTEX
  5
1380
  8
0
 10
-100.1344202803415
 20
438.7175604818208
 30
-16.0
 70
   192
  0
VERTEX
  5
1381
  8
0
 10
100.1344202803415
 20
438.7175604818208
 30
-16.0
 70
   192
  0
VERTEX
  5
1382
  8
0
 10
-280.5704108364302
 20
351.8241671106135
 30
-5.999999999999998
 70
   192
  0
VERTEX
  5
1383
  8
0
 10
-405.4359905560888
 20
195.2476826029012
 30
-5.999999999999998
 70
   192
  0
VERTEX
  5
1384
  8
0
 10
-405.4359905560888
 20
195.2476826029012
 30
-16.0
 70
   192
  0
VERTEX
  5
1385
  8
0
 10
-280.5704108364302
 20
351.8241671106135
 30
-16.0
 70
   192
  0
VERTEX
  5
1386
  8
0
 10
405.4359905560887
 20
195.2476826029014
 30
-5.999999999999998
 70
   192
  0
VERTEX
  5
1387
  8
0
 10
280.5704108364301
 20
351.8241671106136
 30
-5.999999999999998
 70
   192
  0
VERTEX
  5
1388
  8
0
 10
280.5704108364301
 20
351.8241671106136
 30
-16.0
 70
   192
  0
VERTEX
  5
1389
  8
0
 10
405.4359905560887
 20
195.2476826029014
 30
-16.0
 70
   192
  0
VERTEX
  5
138A
  8
0
 10
450.0000000000001
 20
0.0000000000000551
 30
-5.999999999999998
 70
   192
  0
VERTEX
  5
138B
  8
0
 10
450.0000000000001
 20
0.0000000000000551
 30
-16.0
 70
   192
  0
VERTEX
  5
138C
  8
0
 10
-450.0000000000002
 20
-0.0000000000000284
 30
-5.999999999999998
 70
   192
  0
VERTEX
  5
138D
  8
0
 10
-450.0000000000001
 20
0.0
 30
-16.0
 70
   192
  0
VERTEX
  5
138E
  8
0
 10
0.0
 20
0.0
 30
0.0
 70
   128
 71
     1
 72
     2
 73
    -3
  0
VERTEX
  5
138F
  8
0
 10
0.0
 20
0.0
 30
0.0
 70
   128
 71
     4
 72
    -1
 73
     3
  0
VERTEX
  5
1390
  8
0
 10
0.0
 20
0.0
 30
0.0
 70
   128
 71
     5
 72
     6
 73
    -7
  0
VERTEX
  5
1391
  8
0
 10
0.0
 20
0.0
 30
0.0
 70
   128
 71
     8
 72
    -5
 73
     7
  0
VERTEX
  5
1392
  8
0
 10
0.0
 20
0.0
 30
0.0
 70
   128
 71
     9
 72
    10
 73
   -11
  0
VERTEX
  5
1393
  8
0
 10
0.0
 20
0.0
 30
0.0
 70
   128
 71
    12
 72
    -9
 73
    11
  0
VERTEX
  5
1394
  8
0
 10
0.0
 20
0.0
 30
0.0
 70
   128
 71
    13
 72
     9
 73
   -12
  0
VERTEX
  5
1395
  8
0
 10
0.0
 20
0.0
 30
0.0
 70
   128
 71
    14
 72
   -13
 73
    12
  0
VERTEX
  5
1396
  8
0
 10
0.0
 20
0.0
 30
0.0
 70
   128
 71
    10
 72
     1
 73
    -4
  0
VERTEX
  5
1397
  8
0
 10
0.0
 20
0.0
 30
0.0
 70
   128
 71
    11
 72
   -10
 73
     4
  0
VERTEX
  5
1398
  8
0
 10
0.0
 20
0.0
 30
0.0
 70
   128
 71
     2
 72
     5
 73
    -8
  0
VERTEX
  5
1399
  8
0
 10
0.0
 20
0.0
 30
0.0
 70
   128
 71
     3
 72
    -2
 73
     8
  0
VERTEX
  5
139A
  8
0
 10
0.0
 20
0.0
 30
0.0
 70
   128
 71
     6
 72
    15
 73
   -16
  0
VERTEX
  5
139B
  8
0
 10
0.0
 20
0.0
 30
0.0
 70
   128
 71
     7
 72
    -6
 73
    16
  0
SEQEND
  5
17EB
  8
0
  0
POLYLINE
  5
139C
  8
0
 66
     1
 10
0.0
 20
0.0
 30
0.0
 70
    64
 71
    47
 72
    27
  0
VERTEX
  5
139D
  8
0
 10
50.61322940276506
 20
438.7175604818208
 30
-16.0
 70
   192
  0
VERTEX
  5
139E
  8
0
 10
100.1344202803415
 20
438.7175604818208
 30
-16.0
 70
   192
  0
VERTEX
  5
139F
  8
0
 10
152.5446482422118
 20
413.4781249294676
 30
-16.0
 70
   192
  0
VERTEX
  5
13A0
  8
0
 10
-50.6132294027652
 20
438.7175604818208
 30
-16.0
 70
   192
  0
VERTEX
  5
13A1
  8
0
 10
-0.0000000000002274
 20
451.2500000000001
 30
-16.0
 70
   192
  0
VERTEX
  5
13A2
  8
0
 10
-152.5446482422118
 20
413.4781249294675
 30
-16.0
 70
   192
  0
VERTEX
  5
13A3
  8
0
 10
-100.1344202803415
 20
438.7175604818208
 30
-16.0
 70
   192
  0
VERTEX
  5
13A4
  8
0
 10
210.5599845933893
 20
399.1128354087748
 30
-16.0
 70
   192
  0
VERTEX
  5
13A5
  8
0
 10
243.6588275698427
 20
369.599848751803
 30
-16.0
 70
   192
  0
VERTEX
  5
13A6
  8
0
 10
-243.6588275698433
 20
369.5998487518025
 30
-16.0
 70
   192
  0
VERTEX
  5
13A7
  8
0
 10
-210.5599845933896
 20
399.1128354087747
 30
-16.0
 70
   192
  0
VERTEX
  5
13A8
  8
0
 10
-322.3508650092222
 20
299.4331346883982
 30
-16.0
 70
   192
  0
VERTEX
  5
13A9
  8
0
 10
-280.5704108364302
 20
351.8241671106135
 30
-16.0
 70
   192
  0
VERTEX
  5
13AA
  8
0
 10
280.5704108364301
 20
351.8241671106136
 30
-16.0
 70
   192
  0
VERTEX
  5
13AB
  8
0
 10
322.3508650092224
 20
299.4331346883982
 30
-16.0
 70
   192
  0
VERTEX
  5
13AC
  8
0
 10
372.4640109681796
 20
254.7491374538802
 30
-16.0
 70
   192
  0
VERTEX
  5
13AD
  8
0
 10
385.1966738865335
 20
220.6269829679193
 30
-16.0
 70
   192
  0
VERTEX
  5
13AE
  8
0
 10
-385.1966738865336
 20
220.6269829679189
 30
-16.0
 70
   192
  0
VERTEX
  5
13AF
  8
0
 10
-372.4640109681798
 20
254.7491374538798
 30
-16.0
 70
   192
  0
VERTEX
  5
13B0
  8
0
 10
-422.3984680601302
 20
120.930212851076
 30
-16.0
 70
   192
  0
VERTEX
  5
13B1
  8
0
 10
-405.4359905560888
 20
195.2476826029012
 30
-16.0
 70
   192
  0
VERTEX
  5
13B2
  8
0
 10
405.4359905560887
 20
195.2476826029014
 30
-16.0
 70
   192
  0
VERTEX
  5
13B3
  8
0
 10
422.3984680601303
 20
120.9302128510759
 30
-16.0
 70
   192
  0
VERTEX
  5
13B4
  8
0
 10
448.2994835738578
 20
51.5183028390158
 30
-16.0
 70
   192
  0
VERTEX
  5
13B5
  8
0
 10
444.6671037886937
 20
23.36494493678595
 30
-16.0
 70
   192
  0
VERTEX
  5
13B6
  8
0
 10
-444.6671037886936
 20
23.36494493678555
 30
-16.0
 70
   192
  0
VERTEX
  5
13B7
  8
0
 10
-448.2994835738577
 20
51.51830283901543
 30
-16.0
 70
   192
  0
VERTEX
  5
13B8
  8
0
 10
450.0000000000002
 20
0.0000000000002842
 30
-16.0
 70
   192
  0
VERTEX
  5
13B9
  8
0
 10
431.7843544248314
 20
-126.7370161946844
 30
-16.0
 70
   192
  0
VERTEX
  5
13BA
  8
0
 10
422.7463901881699
 20
-146.5351569161228
 30
-16.0
 70
   192
  0
VERTEX
  5
13BB
  8
0
 10
-422.7463901881696
 20
-146.5351569161234
 30
-16.0
 70
   192
  0
VERTEX
  5
13BC
  8
0
 10
-431.7843544248313
 20
-126.7370161946847
 30
-16.0
 70
   192
  0
VERTEX
  5
13BD
  8
0
 10
-450.0000000000001
 20
-0.0000000000001705
 30
-16.0
 70
   192
  0
VERTEX
  5
13BE
  8
0
 10
-404.6526356939826
 20
-186.1704872045508
 30
-16.0
 70
   192
  0
VERTEX
  5
13BF
  8
0
 10
-420.5424289274514
 20
-163.6173217351989
 30
-16.0
 70
   192
  0
VERTEX
  5
13C0
  8
0
 10
420.5424289274516
 20
-163.6173217351986
 30
-16.0
 70
   192
  0
VERTEX
  5
13C1
  8
0
 10
404.6526356939826
 20
-186.1704872045508
 30
-16.0
 70
   192
  0
VERTEX
  5
13C2
  8
0
 10
378.6121276714149
 20
-243.2136031971163
 30
-16.0
 70
   192
  0
VERTEX
  5
13C3
  8
0
 10
302.7464726722714
 20
-330.8109191602335
 30
-16.0
 70
   192
  0
VERTEX
  5
13C4
  8
0
 10
-302.7464726722705
 20
-330.8109191602346
 30
-16.0
 70
   192
  0
VERTEX
  5
13C5
  8
0
 10
-378.6121276714147
 20
-243.2136031971167
 30
-16.0
 70
   192
  0
VERTEX
  5
13C6
  8
0
 10
295.6069151803948
 20
-340.9444444444446
 30
-16.0
 70
   192
  0
VERTEX
  5
13C7
  8
0
 10
295.2544962605218
 20
-341.2500000018159
 30
-16.0
 70
   192
  0
VERTEX
  5
13C8
  8
0
 10
-295.254496262616
 20
-341.2500000000001
 30
-16.0
 70
   192
  0
VERTEX
  5
13C9
  8
0
 10
-295.6069151803947
 20
-340.9444444444446
 30
-16.0
 70
   192
  0
VERTEX
  5
13CA
  8
0
 10
-294.7880594596734
 20
-340.0000000000003
 30
-16.0
 70
   192
  0
VERTEX
  5
13CB
  8
0
 10
294.7880594596735
 20
-340.0000000000001
 30
-16.0
 70
   192
  0
VERTEX
  5
13CC
  8
0
 10
0.0
 20
0.0
 30
0.0
 70
   128
 71
     4
 72
     1
 73
     5
  0
VERTEX
  5
13CD
  8
0
 10
0.0
 20
0.0
 30
0.0
 70
   128
 71
     3
 72
     2
 73
     1
  0
VERTEX
  5
13CE
  8
0
 10
0.0
 20
0.0
 30
0.0
 70
   128
 71
     4
 72
     7
 73
     6
  0
VERTEX
  5
13CF
  8
0
 10
0.0
 20
0.0
 30
0.0
 70
   128
 71
     3
 72
     9
 73
     8
  0
VERTEX
  5
13D0
  8
0
 10
0.0
 20
0.0
 30
0.0
 70
   128
 71
     6
 72
    11
 73
    10
  0
VERTEX
  5
13D1
  8
0
 10
0.0
 20
0.0
 30
0.0
 70
   128
 71
    10
 72
    13
 73
    12
  0
VERTEX
  5
13D2
  8
0
 10
0.0
 20
0.0
 30
0.0
 70
   128
 71
     9
 72
    15
 73
    14
  0
VERTEX
  5
13D3
  8
0
 10
0.0
 20
0.0
 30
0.0
 70
   128
 71
    15
 72
    17
 73
    16
  0
VERTEX
  5
13D4
  8
0
 10
0.0
 20
0.0
 30
0.0
 70
   128
 71
    12
 72
    19
 73
    18
  0
VERTEX
  5
13D5
  8
0
 10
0.0
 20
0.0
 30
0.0
 70
   128
 71
    18
 72
    21
 73
    20
  0
VERTEX
  5
13D6
  8
0
 10
0.0
 20
0.0
 30
0.0
 70
   128
 71
    17
 72
    23
 73
    22
  0
VERTEX
  5
13D7
  8
0
 10
0.0
 20
0.0
 30
0.0
 70
   128
 71
    23
 72
    25
 73
    24
  0
VERTEX
  5
13D8
  8
0
 10
0.0
 20
0.0
 30
0.0
 70
   128
 71
    20
 72
    27
 73
    26
  0
VERTEX
  5
13D9
  8
0
 10
0.0
 20
0.0
 30
0.0
 70
   128
 71
    30
 72
    29
 73
   -28
  0
VERTEX
  5
13DA
  8
0
 10
0.0
 20
0.0
 30
0.0
 70
   128
 71
    25
 72
   -30
 73
    28
  0
VERTEX
  5
13DB
  8
0
 10
0.0
 20
0.0
 30
0.0
 70
   128
 71
    33
 72
    32
 73
   -31
  0
VERTEX
  5
13DC
  8
0
 10
0.0
 20
0.0
 30
0.0
 70
   128
 71
    26
 72
   -33
 73
    31
  0
VERTEX
  5
13DD
  8
0
 10
0.0
 20
0.0
 30
0.0
 70
   128
 71
    31
 72
    35
 73
    34
  0
VERTEX
  5
13DE
  8
0
 10
0.0
 20
0.0
 30
0.0
 70
   128
 71
    30
 72
    37
 73
    36
  0
VERTEX
  5
13DF
  8
0
 10
0.0
 20
0.0
 30
0.0
 70
   128
 71
    37
 72
    39
 73
    38
  0
VERTEX
  5
13E0
  8
0
 10
0.0
 20
0.0
 30
0.0
 70
   128
 71
    34
 72
    41
 73
    40
  0
VERTEX
  5
13E1
  8
0
 10
0.0
 20
0.0
 30
0.0
 70
   128
 71
    42
 72
    39
 73
   -47
  0
VERTEX
  5
13E2
  8
0
 10
0.0
 20
0.0
 30
0.0
 70
   128
 71
    44
 72
    43
 73
   -42
  0
VERTEX
  5
13E3
  8
0
 10
0.0
 20
0.0
 30
0.0
 70
   128
 71
    45
 72
   -44
 73
   -42
  0
VERTEX
  5
13E4
  8
0
 10
0.0
 20
0.0
 30
0.0
 70
   128
 71
   -46
 72
   -45
 73
   -42
  0
VERTEX
  5
13E5
  8
0
 10
0.0
 20
0.0
 30
0.0
 70
   128
 71
    47
 72
   -46
 73
   -42
  0
VERTEX
  5
13E6
  8
0
 10
0.0
 20
0.0
 30
0.0
 70
   128
 71
    46
 72
    40
 73
   -45
  0
SEQEND
  5
17EC
  8
0
  0
POLYLINE
  5
13E7
  8
0
 66
     1
 10
0.0
 20
0.0
 30
0.0
 70
    64
 71
    26
 72
    24
  0
VERTEX
  5
13E8
  8
0
 10
420.5424289274516
 20
-163.6173217351986
 30
-5.999999999999999
 70
   192
  0
VERTEX
  5
13E9
  8
0
 10
295.606915180395
 20
-340.9444444444445
 30
-5.999999999999999
 70
   192
  0
VERTEX
  5
13EA
  8
0
 10
295.6069151803948
 20
-340.9444444444446
 30
-16.0
 70
   192
  0
VERTEX
  5
13EB
  8
0
 10
420.5424289274516
 20
-163.6173217351986
 30
-16.0
 70
   192
  0
VERTEX
  5
13EC
  8
0
 10
295.2544962626159
 20
-341.2500000000002
 30
-5.999999999999999
 70
   192
  0
VERTEX
  5
13ED
  8
0
 10
295.2544962681598
 20
-341.2500000148567
 30
-16.0
 70
   192
  0
VERTEX
  5
13EE
  8
0
 10
-0.0000000000002274
 20
451.2500000000001
 30
-5.999999999999999
 70
   192
  0
VERTEX
  5
13EF
  8
0
 10
210.5599845933893
 20
399.1128354087748
 30
-5.999999999999999
 70
   192
  0
VERTEX
  5
13F0
  8
0
 10
210.5599845933893
 20
399.1128354087748
 30
-16.0
 70
   192
  0
VERTEX
  5
13F1
  8
0
 10
-0.0000000000002274
 20
451.2500000000001
 30
-16.0
 70
   192
  0
VERTEX
  5
13F2
  8
0
 10
-295.6069151803947
 20
-340.9444444444446
 30
-16.0
 70
   192
  0
VERTEX
  5
13F3
  8
0
 10
-295.254496262616
 20
-341.2500000000001
 30
-16.0
 70
   192
  0
VERTEX
  5
13F4
  8
0
 10
-295.2544962681632
 20
-341.2500000148561
 30
-5.999999999999999
 70
   192
  0
VERTEX
  5
13F5
  8
0
 10
-295.6069151803947
 20
-340.9444444444446
 30
-5.999999999999999
 70
   192
  0
VERTEX
  5
13F6
  8
0
 10
-420.5424289274514
 20
-163.6173217351989
 30
-5.999999999999999
 70
   192
  0
VERTEX
  5
13F7
  8
0
 10
-420.5424289274514
 20
-163.6173217351989
 30
-16.0
 70
   192
  0
VERTEX
  5
13F8
  8
0
 10
-210.5599845933896
 20
399.1128354087747
 30
-16.0
 70
   192
  0
VERTEX
  5
13F9
  8
0
 10
-210.5599845933896
 20
399.1128354087747
 30
-5.999999999999999
 70
   192
  0
VERTEX
  5
13FA
  8
0
 10
372.4640109681796
 20
254.7491374538802
 30
-16.0
 70
   192
  0
VERTEX
  5
13FB
  8
0
 10
372.4640109681796
 20
254.7491374538802
 30
-5.999999999999999
 70
   192
  0
VERTEX
  5
13FC
  8
0
 10
448.2994835738578
 20
51.5183028390158
 30
-5.999999999999999
 70
   192
  0
VERTEX
  5
13FD
  8
0
 10
448.2994835738578
 20
51.5183028390158
 30
-16.0
 70
   192
  0
VERTEX
  5
13FE
  8
0
 10
-448.2994835738577
 20
51.51830283901543
 30
-16.0
 70
   192
  0
VERTEX
  5
13FF
  8
0
 10
-448.2994835738577
 20
51.51830283901543
 30
-5.999999999999999
 70
   192
  0
VERTEX
  5
1400
  8
0
 10
-372.4640109681798
 20
254.7491374538798
 30
-5.999999999999999
 70
   192
  0
VERTEX
  5
1401
  8
0
 10
-372.4640109681798
 20
254.7491374538798
 30
-16.0
 70
   192
  0
VERTEX
  5
1402
  8
0
 10
0.0
 20
0.0
 30
0.0
 70
   128
 71
     1
 72
     2
 73
    -3
  0
VERTEX
  5
1403
  8
0
 10
0.0
 20
0.0
 30
0.0
 70
   128
 71
    -1
 72
     3
 73
     4
  0
VERTEX
  5
1404
  8
0
 10
0.0
 20
0.0
 30
0.0
 70
   128
 71
     2
 72
     5
 73
     6
  0
VERTEX
  5
1405
  8
0
 10
0.0
 20
0.0
 30
0.0
 70
   128
 71
     2
 72
     6
 73
     3
  0
VERTEX
  5
1406
  8
0
 10
0.0
 20
0.0
 30
0.0
 70
   128
 71
     7
 72
     8
 73
    -9
  0
VERTEX
  5
1407
  8
0
 10
0.0
 20
0.0
 30
0.0
 70
   128
 71
    -7
 72
     9
 73
    10
  0
VERTEX
  5
1408
  8
0
 10
0.0
 20
0.0
 30
0.0
 70
   128
 71
    11
 72
    12
 73
    13
  0
VERTEX
  5
1409
  8
0
 10
0.0
 20
0.0
 30
0.0
 70
   128
 71
    11
 72
    13
 73
    14
  0
VERTEX
  5
140A
  8
0
 10
0.0
 20
0.0
 30
0.0
 70
   128
 71
    14
 72
    15
 73
   -16
  0
VERTEX
  5
140B
  8
0
 10
0.0
 20
0.0
 30
0.0
 70
   128
 71
   -14
 72
    16
 73
    11
  0
VERTEX
  5
140C
  8
0
 10
0.0
 20
0.0
 30
0.0
 70
   128
 71
    17
 72
    18
 73
    -7
  0
VERTEX
  5
140D
  8
0
 10
0.0
 20
0.0
 30
0.0
 70
   128
 71
   -17
 72
     7
 73
    10
  0
VERTEX
  5
140E
  8
0
 10
0.0
 20
0.0
 30
0.0
 70
   128
 71
    19
 72
    20
 73
   -21
  0
VERTEX
  5
140F
  8
0
 10
0.0
 20
0.0
 30
0.0
 70
   128
 71
   -19
 72
    21
 73
    22
  0
VERTEX
  5
1410
  8
0
 10
0.0
 20
0.0
 30
0.0
 70
   128
 71
    22
 72
    21
 73
    -1
  0
VERTEX
  5
1411
  8
0
 10
0.0
 20
0.0
 30
0.0
 70
   128
 71
   -22
 72
     1
 73
     4
  0
VERTEX
  5
1412
  8
0
 10
0.0
 20
0.0
 30
0.0
 70
   128
 71
     9
 72
     8
 73
   -20
  0
VERTEX
  5
1413
  8
0
 10
0.0
 20
0.0
 30
0.0
 70
   128
 71
    -9
 72
    20
 73
    19
  0
VERTEX
  5
1414
  8
0
 10
0.0
 20
0.0
 30
0.0
 70
   128
 71
    23
 72
    24
 73
   -25
  0
VERTEX
  5
1415
  8
0
 10
0.0
 20
0.0
 30
0.0
 70
   128
 71
   -23
 72
    25
 73
    26
  0
VERTEX
  5
1416
  8
0
 10
0.0
 20
0.0
 30
0.0
 70
   128
 71
    26
 72
    25
 73
   -18
  0
VERTEX
  5
1417
  8
0
 10
0.0
 20
0.0
 30
0.0
 70
   128
 71
   -26
 72
    18
 73
    17
  0
VERTEX
  5
1418
  8
0
 10
0.0
 20
0.0
 30
0.0
 70
   128
 71
    16
 72
    15
 73
   -24
  0
VERTEX
  5
1419
  8
0
 10
0.0
 20
0.0
 30
0.0
 70
   128
 71
   -16
 72
    24
 73
    23
  0
SEQEND
  5
17ED
  8
0
  0
POLYLINE
  5
141A
  8
0
 66
     1
 10
0.0
 20
0.0
 30
0.0
 70
    64
 71
    47
 72
    27
  0
VERTEX
  5
141B
  8
0
 10
444.6671037886937
 20
23.36494493678589
 30
-5.999999999999472
 70
   192
  0
VERTEX
  5
141C
  8
0
 10
448.2994835738578
 20
51.5183028390158
 30
-5.999999999999999
 70
   192
  0
VERTEX
  5
141D
  8
0
 10
422.3984680601303
 20
120.930212851076
 30
-5.999999999999431
 70
   192
  0
VERTEX
  5
141E
  8
0
 10
422.7463901881699
 20
-146.5351569161228
 30
-5.999999999999571
 70
   192
  0
VERTEX
  5
141F
  8
0
 10
431.7843544248314
 20
-126.7370161946844
 30
-5.999999999999998
 70
   192
  0
VERTEX
  5
1420
  8
0
 10
450.0000000000002
 20
0.0000000000002274
 30
-5.999999999999998
 70
   192
  0
VERTEX
  5
1421
  8
0
 10
404.6526356939825
 20
-186.1704872045511
 30
-5.999999999999599
 70
   192
  0
VERTEX
  5
1422
  8
0
 10
420.5424289274516
 20
-163.6173217351986
 30
-5.999999999999999
 70
   192
  0
VERTEX
  5
1423
  8
0
 10
405.4359905560887
 20
195.2476826029014
 30
-5.999999999999998
 70
   192
  0
VERTEX
  5
1424
  8
0
 10
385.1966738865335
 20
220.6269829679193
 30
-5.999999999999395
 70
   192
  0
VERTEX
  5
1425
  8
0
 10
372.4640109681796
 20
254.7491374538802
 30
-5.999999999999999
 70
   192
  0
VERTEX
  5
1426
  8
0
 10
322.3508650092222
 20
299.4331346883983
 30
-5.999999999999382
 70
   192
  0
VERTEX
  5
1427
  8
0
 10
302.7464726722716
 20
-330.8109191602333
 30
-5.999999999999721
 70
   192
  0
VERTEX
  5
1428
  8
0
 10
378.6121276714149
 20
-243.2136031971163
 30
-5.999999999999998
 70
   192
  0
VERTEX
  5
1429
  8
0
 10
280.5704108364301
 20
351.8241671106136
 30
-5.999999999999998
 70
   192
  0
VERTEX
  5
142A
  8
0
 10
243.6588275698426
 20
369.599848751803
 30
-5.999999999999382
 70
   192
  0
VERTEX
  5
142B
  8
0
 10
210.5599845933893
 20
399.1128354087748
 30
-5.999999999999999
 70
   192
  0
VERTEX
  5
142C
  8
0
 10
152.5446482422118
 20
413.4781249294676
 30
-5.9999999999994
 70
   192
  0
VERTEX
  5
142D
  8
0
 10
100.1344202803415
 20
438.7175604818208
 30
-5.999999999999998
 70
   192
  0
VERTEX
  5
142E
  8
0
 10
50.613229402765
 20
438.7175604818208
 30
-5.999999999999432
 70
   192
  0
VERTEX
  5
142F
  8
0
 10
-0.0000000000002274
 20
451.2500000000001
 30
-5.999999999999999
 70
   192
  0
VERTEX
  5
1430
  8
0
 10
-50.61322940276523
 20
438.7175604818208
 30
-5.999999999999479
 70
   192
  0
VERTEX
  5
1431
  8
0
 10
-100.1344202803415
 20
438.7175604818208
 30
-5.999999999999998
 70
   192
  0
VERTEX
  5
1432
  8
0
 10
-152.5446482422118
 20
413.4781249294675
 30
-5.999999999999538
 70
   192
  0
VERTEX
  5
1433
  8
0
 10
-210.5599845933896
 20
399.1128354087747
 30
-5.999999999999999
 70
   192
  0
VERTEX
  5
1434
  8
0
 10
-243.6588275698432
 20
369.5998487518025
 30
-5.999999999999603
 70
   192
  0
VERTEX
  5
1435
  8
0
 10
294.7880594596737
 20
-340.0000000000001
 30
-5.999999999999998
 70
   192
  0
VERTEX
  5
1436
  8
0
 10
-294.7880594596734
 20
-340.0000000000003
 30
-5.999999999999998
 70
   192
  0
VERTEX
  5
1437
  8
0
 10
-302.7464726722705
 20
-330.8109191602346
 30
-5.999999999999996
 70
   192
  0
VERTEX
  5
1438
  8
0
 10
-295.6069151803947
 20
-340.9444444444446
 30
-5.999999999999999
 70
   192
  0
VERTEX
  5
1439
  8
0
 10
-295.2544962605228
 20
-341.250000001815
 30
-5.999999999999999
 70
   192
  0
VERTEX
  5
143A
  8
0
 10
295.2544962626159
 20
-341.2500000000001
 30
-5.999999999999999
 70
   192
  0
VERTEX
  5
143B
  8
0
 10
295.6069151803948
 20
-340.9444444444446
 30
-5.999999999999999
 70
   192
  0
VERTEX
  5
143C
  8
0
 10
-280.5704108364302
 20
351.8241671106135
 30
-5.999999999999998
 70
   192
  0
VERTEX
  5
143D
  8
0
 10
-322.3508650092222
 20
299.4331346883982
 30
-5.999999999999675
 70
   192
  0
VERTEX
  5
143E
  8
0
 10
-372.4640109681798
 20
254.7491374538798
 30
-5.999999999999999
 70
   192
  0
VERTEX
  5
143F
  8
0
 10
-385.1966738865337
 20
220.6269829679189
 30
-5.999999999999746
 70
   192
  0
VERTEX
  5
1440
  8
0
 10
-404.6526356939826
 20
-186.1704872045508
 30
-5.999999999999967
 70
   192
  0
VERTEX
  5
1441
  8
0
 10
-378.6121276714147
 20
-243.2136031971167
 30
-5.999999999999998
 70
   192
  0
VERTEX
  5
1442
  8
0
 10
-405.4359905560888
 20
195.2476826029012
 30
-5.999999999999998
 70
   192
  0
VERTEX
  5
1443
  8
0
 10
-422.3984680601302
 20
120.9302128510759
 30
-5.999999999999815
 70
   192
  0
VERTEX
  5
1444
  8
0
 10
-422.7463901881696
 20
-146.5351569161234
 30
-5.999999999999956
 70
   192
  0
VERTEX
  5
1445
  8
0
 10
-420.5424289274514
 20
-163.6173217351989
 30
-5.999999999999999
 70
   192
  0
VERTEX
  5
1446
  8
0
 10
-448.2994835738577
 20
51.51830283901543
 30
-5.999999999999999
 70
   192
  0
VERTEX
  5
1447
  8
0
 10
-444.6671037886936
 20
23.36494493678549
 30
-5.999999999999876
 70
   192
  0
VERTEX
  5
1448
  8
0
 10
-450.0000000000001
 20
-0.0000000000001705
 30
-5.999999999999998
 70
   192
  0
VERTEX
  5
1449
  8
0
 10
-431.7843544248313
 20
-126.7370161946847
 30
-5.999999999999998
 70
   192
  0
VERTEX
  5
144A
  8
0
 10
0.0
 20
0.0
 30
0.0
 70
   128
 71
     4
 72
     1
 73
    -6
  0
VERTEX
  5
144B
  8
0
 10
0.0
 20
0.0
 30
0.0
 70
   128
 71
     5
 72
    -4
 73
     6
  0
VERTEX
  5
144C
  8
0
 10
0.0
 20
0.0
 30
0.0
 70
   128
 71
     3
 72
     2
 73
     1
  0
VERTEX
  5
144D
  8
0
 10
0.0
 20
0.0
 30
0.0
 70
   128
 71
     4
 72
     8
 73
     7
  0
VERTEX
  5
144E
  8
0
 10
0.0
 20
0.0
 30
0.0
 70
   128
 71
     3
 72
    10
 73
     9
  0
VERTEX
  5
144F
  8
0
 10
0.0
 20
0.0
 30
0.0
 70
   128
 71
    10
 72
    12
 73
    11
  0
VERTEX
  5
1450
  8
0
 10
0.0
 20
0.0
 30
0.0
 70
   128
 71
     7
 72
    14
 73
    13
  0
VERTEX
  5
1451
  8
0
 10
0.0
 20
0.0
 30
0.0
 70
   128
 71
    12
 72
    16
 73
    15
  0
VERTEX
  5
1452
  8
0
 10
0.0
 20
0.0
 30
0.0
 70
   128
 71
    16
 72
    18
 73
    17
  0
VERTEX
  5
1453
  8
0
 10
0.0
 20
0.0
 30
0.0
 70
   128
 71
    18
 72
    20
 73
    19
  0
VERTEX
  5
1454
  8
0
 10
0.0
 20
0.0
 30
0.0
 70
   128
 71
    20
 72
    22
 73
    21
  0
VERTEX
  5
1455
  8
0
 10
0.0
 20
0.0
 30
0.0
 70
   128
 71
    22
 72
    24
 73
    23
  0
VERTEX
  5
1456
  8
0
 10
0.0
 20
0.0
 30
0.0
 70
   128
 71
    24
 72
    26
 73
    25
  0
VERTEX
  5
1457
  8
0
 10
0.0
 20
0.0
 30
0.0
 70
   128
 71
    30
 72
    29
 73
   -28
  0
VERTEX
  5
1458
  8
0
 10
0.0
 20
0.0
 30
0.0
 70
   128
 71
    32
 72
    31
 73
   -30
  0
VERTEX
  5
1459
  8
0
 10
0.0
 20
0.0
 30
0.0
 70
   128
 71
    33
 72
   -32
 73
   -30
  0
VERTEX
  5
145A
  8
0
 10
0.0
 20
0.0
 30
0.0
 70
   128
 71
   -27
 72
   -33
 73
   -30
  0
VERTEX
  5
145B
  8
0
 10
0.0
 20
0.0
 30
0.0
 70
   128
 71
    28
 72
   -27
 73
   -30
  0
VERTEX
  5
145C
  8
0
 10
0.0
 20
0.0
 30
0.0
 70
   128
 71
    27
 72
    13
 73
   -33
  0
VERTEX
  5
145D
  8
0
 10
0.0
 20
0.0
 30
0.0
 70
   128
 71
    26
 72
    35
 73
    34
  0
VERTEX
  5
145E
  8
0
 10
0.0
 20
0.0
 30
0.0
 70
   128
 71
    35
 72
    37
 73
    36
  0
VERTEX
  5
145F
  8
0
 10
0.0
 20
0.0
 30
0.0
 70
   128
 71
    29
 72
    39
 73
    38
  0
VERTEX
  5
1460
  8
0
 10
0.0
 20
0.0
 30
0.0
 70
   128
 71
    37
 72
    41
 73
    40
  0
VERTEX
  5
1461
  8
0
 10
0.0
 20
0.0
 30
0.0
 70
   128
 71
    38
 72
    43
 73
    42
  0
VERTEX
  5
1462
  8
0
 10
0.0
 20
0.0
 30
0.0
 70
   128
 71
    41
 72
    45
 73
    44
  0
VERTEX
  5
1463
  8
0
 10
0.0
 20
0.0
 30
0.0
 70
   128
 71
    47
 72
    46
 73
   -45
  0
VERTEX
  5
1464
  8
0
 10
0.0
 20
0.0
 30
0.0
 70
   128
 71
    42
 72
   -47
 73
    45
  0
SEQEND
  5
17EE
  8
0
  0
POLYLINE
  5
1465
  8
0
 66
     1
 10
0.0
 20
0.0
 30
0.0
 70
    64
 71
     8
 72
     6
  0
VERTEX
  5
1466
  8
0
 10
-431.7843544248313
 20
-126.7370161946847
 30
-5.999999999999998
 70
   192
  0
VERTEX
  5
1467
  8
0
 10
-378.6121276714147
 20
-243.2136031971167
 30
-5.999999999999998
 70
   192
  0
VERTEX
  5
1468
  8
0
 10
-378.6121276714147
 20
-243.2136031971167
 30
-16.0
 70
   192
  0
VERTEX
  5
1469
  8
0
 10
-431.7843544248313
 20
-126.7370161946847
 30
-16.0
 70
   192
  0
VERTEX
  5
146A
  8
0
 10
-294.7880594596734
 20
-340.0000000000003
 30
-5.999999999999998
 70
   192
  0
VERTEX
  5
146B
  8
0
 10
-294.7880594596734
 20
-340.0000000000002
 30
-16.0
 70
   192
  0
VERTEX
  5
146C
  8
0
 10
-450.0000000000001
 20
0.0
 30
-5.999999999999998
 70
   192
  0
VERTEX
  5
146D
  8
0
 10
-450.0000000000001
 20
0.0
 30
-16.0
 70
   192
  0
VERTEX
  5
146E
  8
0
 10
0.0
 20
0.0
 30
0.0
 70
   128
 71
     1
 72
     2
 73
    -3
  0
VERTEX
  5
146F
  8
0
 10
0.0
 20
0.0
 30
0.0
 70
   128
 71
     4
 72
    -1
 73
     3
  0
VERTEX
  5
1470
  8
0
 10
0.0
 20
0.0
 30
0.0
 70
   128
 71
     2
 72
     5
 73
    -6
  0
VERTEX
  5
1471
  8
0
 10
0.0
 20
0.0
 30
0.0
 70
   128
 71
     3
 72
    -2
 73
     6
  0
VERTEX
  5
1472
  8
0
 10
0.0
 20
0.0
 30
0.0
 70
   128
 71
     7
 72
     1
 73
    -4
  0
VERTEX
  5
1473
  8
0
 10
0.0
 20
0.0
 30
0.0
 70
   128
 71
     8
 72
    -7
 73
     4
  0
SEQEND
  5
17EF
  8
0
  0
POLYLINE
  5
1474
  8
0
 66
     1
 10
0.0
 20
0.0
 30
0.0
 70
    64
 71
     4
 72
     2
  0
VERTEX
  5
1475
  8
0
 10
-295.2544962681632
 20
-341.2500000148561
 30
-16.0
 70
   192
  0
VERTEX
  5
1476
  8
0
 10
-295.2544962629562
 20
-341.2500000000001
 30
-5.999999999999999
 70
   192
  0
VERTEX
  5
1477
  8
0
 10
295.2544962681598
 20
-341.2500000148567
 30
-5.999999999999933
 70
   192
  0
VERTEX
  5
1478
  8
0
 10
295.2544962629548
 20
-341.2500000000001
 30
-16.0
 70
   192
  0
VERTEX
  5
1479
  8
0
 10
0.0
 20
0.0
 30
0.0
 70
   128
 71
     1
 72
     4
 73
    -3
  0
VERTEX
  5
147A
  8
0
 10
0.0
 20
0.0
 30
0.0
 70
   128
 71
    -1
 72
     3
 73
     2
  0
SEQEND
  5
17F0
  8
0
  0
POLYLINE
  5
147B
  8
0
 66
     1
 10
0.0
 20
0.0
 30
0.0
 70
    64
 71
     4
 72
     2
  0
VERTEX
  5
147C
  8
0
 10
-294.7880594596734
 20
-340.0000000000002
 30
-5.999999999999998
 70
   192
  0
VERTEX
  5
147D
  8
0
 10
-294.7880594596733
 20
-340.0000000000001
 30
-16.0
 70
   192
  0
VERTEX
  5
147E
  8
0
 10
294.7880594596735
 20
-340.0000000000001
 30
-16.0
 70
   192
  0
VERTEX
  5
147F
  8
0
 10
294.7880594596735
 20
-340.0000000000001
 30
-5.999999999999998
 70
   192
  0
VERTEX
  5
1480
  8
0
 10
0.0
 20
0.0
 30
0.0
 70
   128
 71
     1
 72
     4
 73
    -3
  0
VERTEX
  5
1481
  8
0
 10
0.0
 20
0.0
 30
0.0
 70
   128
 71
    -1
 72
     3
 73
     2
  0
SEQEND
  5
17F1
  8
0
  0
ENDBLK
  5
17E9
  8
0
  0
BLOCK
  8
0
  2
*X10
 70
     1
 10
0.0
 20
0.0
 30
0.0
  3
*X10
  1

  0
POLYLINE
  5
1483
  8
0
 66
     1
 10
0.0
 20
0.0
 30
0.0
 70
    64
 71
    14
 72
    12
  0
VERTEX
  5
1484
  8
0
 10
-85.69719999403391
 20
-294.8925442435901
 30
-6.75
 70
   192
  0
VERTEX
  5
1485
  8
0
 10
-82.24999999998694
 20
-296.5000000000007
 30
-6.75
 70
   192
  0
VERTEX
  5
1486
  8
0
 10
-82.24999999998717
 20
-292.5000000000035
 30
-6.75
 70
   192
  0
VERTEX
  5
1487
  8
0
 10
-82.63302222155798
 20
-292.3213938048439
 30
-6.75
 70
   192
  0
VERTEX
  5
1488
  8
0
 10
-82.24999999998705
 20
-294.5000000000035
 30
-4.749999999999998
 70
   192
  0
VERTEX
  5
1489
  8
0
 10
-84.16511110779595
 20
-293.606969024217
 30
-4.750000000000011
 70
   192
  0
VERTEX
  5
148A
  8
0
 10
-82.24999999998697
 20
-295.9142135623766
 30
-5.335786437626903
 70
   192
  0
VERTEX
  5
148B
  8
0
 10
-85.24846154863536
 20
-294.5160079795611
 30
-5.335786437626912
 70
   192
  0
VERTEX
  5
148C
  8
0
 10
-82.24999999998714
 20
-293.0857864376304
 30
-5.335786437626903
 70
   192
  0
VERTEX
  5
148D
  8
0
 10
-83.08176066695654
 20
-292.6979300688729
 30
-5.335786437626912
 70
   192
  0
VERTEX
  5
148E
  8
0
 10
-83.54061454719103
 20
-296.3109528054226
 30
-6.75
 70
   192
  0
VERTEX
  5
148F
  8
0
 10
-84.72279040131392
 20
-295.759695151361
 30
-6.75
 70
   192
  0
VERTEX
  5
1490
  8
0
 10
-82.39340161634681
 20
-292.4789947561605
 30
-6.75
 70
   192
  0
VERTEX
  5
1491
  8
0
 10
-82.52475448903074
 20
-292.4177439057092
 30
-6.75
 70
   192
  0
VERTEX
  5
1492
  8
0
 10
0.0
 20
0.0
 30
0.0
 70
   128
 71
    11
 72
     2
 73
     7
  0
VERTEX
  5
1493
  8
0
 10
0.0
 20
0.0
 30
0.0
 70
   128
 71
    12
 72
    11
 73
    -7
  0
VERTEX
  5
1494
  8
0
 10
0.0
 20
0.0
 30
0.0
 70
   128
 71
   -12
 72
     7
 73
     8
  0
VERTEX
  5
1495
  8
0
 10
0.0
 20
0.0
 30
0.0
 70
   128
 71
     8
 72
     1
 73
    12
  0
VERTEX
  5
1496
  8
0
 10
0.0
 20
0.0
 30
0.0
 70
   128
 71
     8
 72
     7
 73
    -5
  0
VERTEX
  5
1497
  8
0
 10
0.0
 20
0.0
 30
0.0
 70
   128
 71
    -8
 72
     5
 73
     6
  0
VERTEX
  5
1498
  8
0
 10
0.0
 20
0.0
 30
0.0
 70
   128
 71
     6
 72
     5
 73
    -9
  0
VERTEX
  5
1499
  8
0
 10
0.0
 20
0.0
 30
0.0
 70
   128
 71
    -6
 72
     9
 73
    10
  0
VERTEX
  5
149A
  8
0
 10
0.0
 20
0.0
 30
0.0
 70
   128
 71
    14
 72
     4
 73
    10
  0
VERTEX
  5
149B
  8
0
 10
0.0
 20
0.0
 30
0.0
 70
   128
 71
    10
 72
     9
 73
   -13
  0
VERTEX
  5
149C
  8
0
 10
0.0
 20
0.0
 30
0.0
 70
   128
 71
   -10
 72
    13
 73
    14
  0
VERTEX
  5
149D
  8
0
 10
0.0
 20
0.0
 30
0.0
 70
   128
 71
     9
 72
     3
 73
    13
  0
SEQEND
  5
17F4
  8
0
  0
POLYLINE
  5
149E
  8
0
 66
     1
 10
0.0
 20
0.0
 30
0.0
 70
    64
 71
    14
 72
    12
  0
VERTEX
  5
149F
  8
0
 10
-94.6133711544032
 20
-286.9874049485067
 30
-6.75
 70
   192
  0
VERTEX
  5
14A0
  8
0
 10
-87.43056919836718
 20
-286.6038999595921
 30
-6.75
 70
   192
  0
VERTEX
  5
14A1
  8
0
 10
-90.49474697084308
 20
-289.1750503983382
 30
-6.75
 70
   192
  0
VERTEX
  5
14A2
  8
0
 10
-91.2928360770694
 20
-289.2176620637731
 30
-6.75
 70
   192
  0
VERTEX
  5
14A3
  8
0
 10
-88.96265808460512
 20
-287.8894751789651
 30
-8.74999999999999
 70
   192
  0
VERTEX
  5
14A4
  8
0
 10
-92.95310361573631
 20
-288.1025335061399
 30
-8.750000000000012
 70
   192
  0
VERTEX
  5
14A5
  8
0
 10
-87.87930764376571
 20
-286.980436223621
 30
-8.164213562373087
 70
   192
  0
VERTEX
  5
14A6
  8
0
 10
-94.12709005091156
 20
-287.3140185411427
 30
-8.164213562373103
 70
   192
  0
VERTEX
  5
14A7
  8
0
 10
-90.04600852544453
 20
-288.7985141343092
 30
-8.164213562373089
 70
   192
  0
VERTEX
  5
14A8
  8
0
 10
-91.77911718056106
 20
-288.8910484711371
 30
-8.164213562373105
 70
   192
  0
VERTEX
  5
14A9
  8
0
 10
-89.74123999173652
 20
-285.1423310470918
 30
-6.75
 70
   192
  0
VERTEX
  5
14AA
  8
0
 10
-92.47146591075854
 20
-285.2881035836614
 30
-6.75
 70
   192
  0
VERTEX
  5
14AB
  8
0
 10
-90.7514881701064
 20
-289.0126538525048
 30
-6.75
 70
   192
  0
VERTEX
  5
14AC
  8
0
 10
-91.0548466055533
 20
-289.0288508010125
 30
-6.75
 70
   192
  0
VERTEX
  5
14AD
  8
0
 10
0.0
 20
0.0
 30
0.0
 70
   128
 71
    11
 72
     2
 73
     7
  0
VERTEX
  5
14AE
  8
0
 10
0.0
 20
0.0
 30
0.0
 70
   128
 71
    12
 72
    11
 73
    -7
  0
VERTEX
  5
14AF
  8
0
 10
0.0
 20
0.0
 30
0.0
 70
   128
 71
   -12
 72
     7
 73
     8
  0
VERTEX
  5
14B0
  8
0
 10
0.0
 20
0.0
 30
0.0
 70
   128
 71
     8
 72
     1
 73
    12
  0
VERTEX
  5
14B1
  8
0
 10
0.0
 20
0.0
 30
0.0
 70
   128
 71
     8
 72
     7
 73
    -5
  0
VERTEX
  5
14B2
  8
0
 10
0.0
 20
0.0
 30
0.0
 70
   128
 71
    -8
 72
     5
 73
     6
  0
VERTEX
  5
14B3
  8
0
 10
0.0
 20
0.0
 30
0.0
 70
   128
 71
     6
 72
     5
 73
    -9
  0
VERTEX
  5
14B4
  8
0
 10
0.0
 20
0.0
 30
0.0
 70
   128
 71
    -6
 72
     9
 73
    10
  0
VERTEX
  5
14B5
  8
0
 10
0.0
 20
0.0
 30
0.0
 70
   128
 71
    14
 72
     4
 73
    10
  0
VERTEX
  5
14B6
  8
0
 10
0.0
 20
0.0
 30
0.0
 70
   128
 71
    10
 72
     9
 73
   -13
  0
VERTEX
  5
14B7
  8
0
 10
0.0
 20
0.0
 30
0.0
 70
   128
 71
   -10
 72
    13
 73
    14
  0
VERTEX
  5
14B8
  8
0
 10
0.0
 20
0.0
 30
0.0
 70
   128
 71
     9
 72
     3
 73
    13
  0
SEQEND
  5
17F5
  8
0
  0
POLYLINE
  5
14B9
  8
0
 66
     1
 10
0.0
 20
0.0
 30
0.0
 70
    64
 71
    14
 72
    12
  0
VERTEX
  5
14BA
  8
0
 10
-107.0694308016298
 20
-302.3961000404093
 30
-6.75
 70
   192
  0
VERTEX
  5
14BB
  8
0
 10
-99.88662884559382
 20
-302.0125950514945
 30
-6.75
 70
   192
  0
VERTEX
  5
14BC
  8
0
 10
-103.2071639229276
 20
-299.7823379362283
 30
-6.75
 70
   192
  0
VERTEX
  5
14BD
  8
0
 10
-104.0052530291539
 20
-299.824949601663
 30
-6.75
 70
   192
  0
VERTEX
  5
14BE
  8
0
 10
-101.5468963842607
 20
-300.8974664938614
 30
-4.750000000000007
 70
   192
  0
VERTEX
  5
14BF
  8
0
 10
-105.5373419153918
 20
-301.1105248210362
 30
-4.749999999999986
 70
   192
  0
VERTEX
  5
14C0
  8
0
 10
-100.3729099490854
 20
-301.6859814588585
 30
-5.33578643762691
 70
   192
  0
VERTEX
  5
14C1
  8
0
 10
-106.6206923562312
 20
-302.0195637763803
 30
-5.335786437626895
 70
   192
  0
VERTEX
  5
14C2
  8
0
 10
-102.7208828194359
 20
-300.1089515288642
 30
-5.33578643762691
 70
   192
  0
VERTEX
  5
14C3
  8
0
 10
-104.4539914745525
 20
-300.2014858656921
 30
-5.335786437626894
 70
   192
  0
VERTEX
  5
14C4
  8
0
 10
-102.0285340892384
 20
-303.7118964163399
 30
-6.75
 70
   192
  0
VERTEX
  5
14C5
  8
0
 10
-104.7587600082604
 20
-303.8576689529095
 30
-6.75
 70
   192
  0
VERTEX
  5
14C6
  8
0
 10
-103.4451533944437
 20
-299.9711491989888
 30
-6.75
 70
   192
  0
VERTEX
  5
14C7
  8
0
 10
-103.7485118298906
 20
-299.9873461474965
 30
-6.75
 70
   192
  0
VERTEX
  5
14C8
  8
0
 10
0.0
 20
0.0
 30
0.0
 70
   128
 71
    11
 72
     2
 73
     7
  0
VERTEX
  5
14C9
  8
0
 10
0.0
 20
0.0
 30
0.0
 70
   128
 71
    12
 72
    11
 73
    -7
  0
VERTEX
  5
14CA
  8
0
 10
0.0
 20
0.0
 30
0.0
 70
   128
 71
   -12
 72
     7
 73
     8
  0
VERTEX
  5
14CB
  8
0
 10
0.0
 20
0.0
 30
0.0
 70
   128
 71
     8
 72
     1
 73
    12
  0
VERTEX
  5
14CC
  8
0
 10
0.0
 20
0.0
 30
0.0
 70
   128
 71
     8
 72
     7
 73
    -5
  0
VERTEX
  5
14CD
  8
0
 10
0.0
 20
0.0
 30
0.0
 70
   128
 71
    -8
 72
     5
 73
     6
  0
VERTEX
  5
14CE
  8
0
 10
0.0
 20
0.0
 30
0.0
 70
   128
 71
     6
 72
     5
 73
    -9
  0
VERTEX
  5
14CF
  8
0
 10
0.0
 20
0.0
 30
0.0
 70
   128
 71
    -6
 72
     9
 73
    10
  0
VERTEX
  5
14D0
  8
0
 10
0.0
 20
0.0
 30
0.0
 70
   128
 71
    14
 72
     4
 73
    10
  0
VERTEX
  5
14D1
  8
0
 10
0.0
 20
0.0
 30
0.0
 70
   128
 71
    10
 72
     9
 73
   -13
  0
VERTEX
  5
14D2
  8
0
 10
0.0
 20
0.0
 30
0.0
 70
   128
 71
   -10
 72
    13
 73
    14
  0
VERTEX
  5
14D3
  8
0
 10
0.0
 20
0.0
 30
0.0
 70
   128
 71
     9
 72
     3
 73
    13
  0
SEQEND
  5
17F6
  8
0
  0
POLYLINE
  5
14D4
  8
0
 66
     1
 10
0.0
 20
0.0
 30
0.0
 70
    64
 71
    16
 72
    14
  0
VERTEX
  5
14D5
  8
0
 10
-109.7772095986782
 20
-293.2403048486468
 30
-6.75
 70
   192
  0
VERTEX
  5
14D6
  8
0
 10
-108.8028000059652
 20
-294.107455756413
 30
-6.75
 70
   192
  0
VERTEX
  5
14D7
  8
0
 10
-109.2515384513616
 20
-294.4839920204402
 30
-8.164213562373087
 70
   192
  0
VERTEX
  5
14D8
  8
0
 10
-110.9593854527921
 20
-292.6890471945857
 30
-6.75
 70
   192
  0
VERTEX
  5
14D9
  8
0
 10
-112.2499999999872
 20
-292.7679491924345
 30
-7.75
 70
   192
  0
VERTEX
  5
14DA
  8
0
 10
-112.2499999999872
 20
-292.5000000000034
 30
-6.75
 70
   192
  0
VERTEX
  5
14DB
  8
0
 10
-110.334888892201
 20
-295.3930309757843
 30
-8.74999999999999
 70
   192
  0
VERTEX
  5
14DC
  8
0
 10
-112.2499999999871
 20
-294.5000000000034
 30
-8.750000000000002
 70
   192
  0
VERTEX
  5
14DD
  8
0
 10
-112.2499999999871
 20
-293.5000000000034
 30
-8.482050807568879
 70
   192
  0
VERTEX
  5
14DE
  8
0
 10
-112.249999999987
 20
-295.5000000000034
 30
-8.482050807568879
 70
   192
  0
VERTEX
  5
14DF
  8
0
 10
-111.4182393330404
 20
-296.3020699311284
 30
-8.164213562373089
 70
   192
  0
VERTEX
  5
14E0
  8
0
 10
-112.1065983836363
 20
-296.5210052438477
 30
-6.75
 70
   192
  0
VERTEX
  5
14E1
  8
0
 10
-112.2499999999869
 20
-296.5000000000034
 30
-6.75
 70
   192
  0
VERTEX
  5
14E2
  8
0
 10
-112.249999999987
 20
-296.2320508075723
 30
-7.750000000000002
 70
   192
  0
VERTEX
  5
14E3
  8
0
 10
-111.9752455109614
 20
-296.5822560942985
 30
-6.75
 70
   192
  0
VERTEX
  5
14E4
  8
0
 10
-111.866977778439
 20
-296.6786061951574
 30
-6.75
 70
   192
  0
VERTEX
  5
14E5
  8
0
 10
0.0
 20
0.0
 30
0.0
 70
   128
 71
     1
 72
     2
 73
     3
  0
VERTEX
  5
14E6
  8
0
 10
0.0
 20
0.0
 30
0.0
 70
   128
 71
     4
 72
     1
 73
     5
  0
VERTEX
  5
14E7
  8
0
 10
0.0
 20
0.0
 30
0.0
 70
   128
 71
     5
 72
     6
 73
     4
  0
VERTEX
  5
14E8
  8
0
 10
0.0
 20
0.0
 30
0.0
 70
   128
 71
     3
 72
     7
 73
     8
  0
VERTEX
  5
14E9
  8
0
 10
0.0
 20
0.0
 30
0.0
 70
   128
 71
     3
 72
     8
 73
     9
  0
VERTEX
  5
14EA
  8
0
 10
0.0
 20
0.0
 30
0.0
 70
   128
 71
    10
 72
     8
 73
     7
  0
VERTEX
  5
14EB
  8
0
 10
0.0
 20
0.0
 30
0.0
 70
   128
 71
    10
 72
     7
 73
    11
  0
VERTEX
  5
14EC
  8
0
 10
0.0
 20
0.0
 30
0.0
 70
   128
 71
    12
 72
    13
 73
    14
  0
VERTEX
  5
14ED
  8
0
 10
0.0
 20
0.0
 30
0.0
 70
   128
 71
    14
 72
    15
 73
    12
  0
VERTEX
  5
14EE
  8
0
 10
0.0
 20
0.0
 30
0.0
 70
   128
 71
    14
 72
    11
 73
    16
  0
VERTEX
  5
14EF
  8
0
 10
0.0
 20
0.0
 30
0.0
 70
   128
 71
    14
 72
    16
 73
    15
  0
VERTEX
  5
14F0
  8
0
 10
0.0
 20
0.0
 30
0.0
 70
   128
 71
     5
 72
     1
 73
     3
  0
VERTEX
  5
14F1
  8
0
 10
0.0
 20
0.0
 30
0.0
 70
   128
 71
     5
 72
     3
 73
     9
  0
VERTEX
  5
14F2
  8
0
 10
0.0
 20
0.0
 30
0.0
 70
   128
 71
    10
 72
    11
 73
    14
  0
SEQEND
  5
17F7
  8
0
  0
POLYLINE
  5
14F3
  8
0
 66
     1
 10
0.0
 20
0.0
 30
0.0
 70
    64
 71
    10
 72
     8
  0
VERTEX
  5
14F4
  8
0
 10
-82.24999999998717
 20
-292.5000000000007
 30
-6.75
 70
   192
  0
VERTEX
  5
14F5
  8
0
 10
-82.24999999998694
 20
-296.5000000000035
 30
-6.75
 70
   192
  0
VERTEX
  5
14F6
  8
0
 10
-72.24999999999851
 20
-296.5000000000003
 30
-6.75
 70
   192
  0
VERTEX
  5
14F7
  8
0
 10
-72.24999999999851
 20
-292.5000000000003
 30
-6.75
 70
   192
  0
VERTEX
  5
14F8
  8
0
 10
-72.24999999999851
 20
-294.5000000000003
 30
-4.749999999999998
 70
   192
  0
VERTEX
  5
14F9
  8
0
 10
-82.24999999998705
 20
-294.5000000000035
 30
-4.749999999999998
 70
   192
  0
VERTEX
  5
14FA
  8
0
 10
-72.24999999999851
 20
-293.0857864376272
 30
-5.335786437626903
 70
   192
  0
VERTEX
  5
14FB
  8
0
 10
-82.24999999998714
 20
-293.0857864376304
 30
-5.335786437626903
 70
   192
  0
VERTEX
  5
14FC
  8
0
 10
-72.24999999999851
 20
-295.9142135623734
 30
-5.335786437626904
 70
   192
  0
VERTEX
  5
14FD
  8
0
 10
-82.24999999998697
 20
-295.9142135623766
 30
-5.335786437626903
 70
   192
  0
VERTEX
  5
14FE
  8
0
 10
0.0
 20
0.0
 30
0.0
 70
   128
 71
     7
 72
     4
 73
    -1
  0
VERTEX
  5
14FF
  8
0
 10
0.0
 20
0.0
 30
0.0
 70
   128
 71
    -7
 72
     1
 73
     8
  0
VERTEX
  5
1500
  8
0
 10
0.0
 20
0.0
 30
0.0
 70
   128
 71
     6
 72
     5
 73
    -7
  0
VERTEX
  5
1501
  8
0
 10
0.0
 20
0.0
 30
0.0
 70
   128
 71
    -6
 72
     7
 73
     8
  0
VERTEX
  5
1502
  8
0
 10
0.0
 20
0.0
 30
0.0
 70
   128
 71
    10
 72
     9
 73
    -5
  0
VERTEX
  5
1503
  8
0
 10
0.0
 20
0.0
 30
0.0
 70
   128
 71
   -10
 72
     5
 73
     6
  0
VERTEX
  5
1504
  8
0
 10
0.0
 20
0.0
 30
0.0
 70
   128
 71
     2
 72
     3
 73
    -9
  0
VERTEX
  5
1505
  8
0
 10
0.0
 20
0.0
 30
0.0
 70
   128
 71
    -2
 72
     9
 73
    10
  0
SEQEND
  5
17F8
  8
0
  0
POLYLINE
  5
1506
  8
0
 66
     1
 10
0.0
 20
0.0
 30
0.0
 70
    64
 71
    10
 72
     8
  0
VERTEX
  5
1507
  8
0
 10
-87.43056919836715
 20
-286.6038999595921
 30
-6.75
 70
   192
  0
VERTEX
  5
1508
  8
0
 10
-90.49474697084308
 20
-289.1750503983382
 30
-6.75
 70
   192
  0
VERTEX
  5
1509
  8
0
 10
-85.69719999403394
 20
-294.8925442435901
 30
-6.75
 70
   192
  0
VERTEX
  5
150A
  8
0
 10
-82.633022221558
 20
-292.3213938048439
 30
-6.75
 70
   192
  0
VERTEX
  5
150B
  8
0
 10
-84.16511110779595
 20
-293.606969024217
 30
-4.750000000000011
 70
   192
  0
VERTEX
  5
150C
  8
0
 10
-88.96265808460512
 20
-287.8894751789651
 30
-4.750000000000011
 70
   192
  0
VERTEX
  5
150D
  8
0
 10
-83.08176066695654
 20
-292.6979300688729
 30
-5.335786437626912
 70
   192
  0
VERTEX
  5
150E
  8
0
 10
-87.87930764376571
 20
-286.980436223621
 30
-5.335786437626912
 70
   192
  0
VERTEX
  5
150F
  8
0
 10
-85.24846154863536
 20
-294.5160079795611
 30
-5.335786437626912
 70
   192
  0
VERTEX
  5
1510
  8
0
 10
-90.04600852544453
 20
-288.7985141343092
 30
-5.335786437626912
 70
   192
  0
VERTEX
  5
1511
  8
0
 10
0.0
 20
0.0
 30
0.0
 70
   128
 71
     7
 72
     4
 73
    -1
  0
VERTEX
  5
1512
  8
0
 10
0.0
 20
0.0
 30
0.0
 70
   128
 71
    -7
 72
     1
 73
     8
  0
VERTEX
  5
1513
  8
0
 10
0.0
 20
0.0
 30
0.0
 70
   128
 71
     6
 72
     5
 73
    -7
  0
VERTEX
  5
1514
  8
0
 10
0.0
 20
0.0
 30
0.0
 70
   128
 71
    -6
 72
     7
 73
     8
  0
VERTEX
  5
1515
  8
0
 10
0.0
 20
0.0
 30
0.0
 70
   128
 71
    10
 72
     9
 73
    -5
  0
VERTEX
  5
1516
  8
0
 10
0.0
 20
0.0
 30
0.0
 70
   128
 71
   -10
 72
     5
 73
     6
  0
VERTEX
  5
1517
  8
0
 10
0.0
 20
0.0
 30
0.0
 70
   128
 71
     2
 72
     3
 73
    -9
  0
VERTEX
  5
1518
  8
0
 10
0.0
 20
0.0
 30
0.0
 70
   128
 71
    -2
 72
     9
 73
    10
  0
SEQEND
  5
17F9
  8
0
  0
POLYLINE
  5
1519
  8
0
 66
     1
 10
0.0
 20
0.0
 30
0.0
 70
    64
 71
    10
 72
     8
  0
VERTEX
  5
151A
  8
0
 10
-103.2071639229276
 20
-299.7823379362283
 30
-6.75
 70
   192
  0
VERTEX
  5
151B
  8
0
 10
-99.88662884559378
 20
-302.0125950514945
 30
-6.75
 70
   192
  0
VERTEX
  5
151C
  8
0
 10
-91.29283607706941
 20
-289.2176620637731
 30
-6.75
 70
   192
  0
VERTEX
  5
151D
  8
0
 10
-94.6133711544032
 20
-286.9874049485067
 30
-6.75
 70
   192
  0
VERTEX
  5
151E
  8
0
 10
-92.95310361573631
 20
-288.1025335061399
 30
-4.749999999999988
 70
   192
  0
VERTEX
  5
151F
  8
0
 10
-101.5468963842607
 20
-300.8974664938614
 30
-4.750000000000007
 70
   192
  0
VERTEX
  5
1520
  8
0
 10
-94.12709005091156
 20
-287.3140185411427
 30
-5.335786437626895
 70
   192
  0
VERTEX
  5
1521
  8
0
 10
-102.7208828194359
 20
-300.1089515288642
 30
-5.33578643762691
 70
   192
  0
VERTEX
  5
1522
  8
0
 10
-91.77911718056106
 20
-288.8910484711371
 30
-5.335786437626896
 70
   192
  0
VERTEX
  5
1523
  8
0
 10
-100.3729099490854
 20
-301.6859814588585
 30
-5.33578643762691
 70
   192
  0
VERTEX
  5
1524
  8
0
 10
0.0
 20
0.0
 30
0.0
 70
   128
 71
     7
 72
     4
 73
    -1
  0
VERTEX
  5
1525
  8
0
 10
0.0
 20
0.0
 30
0.0
 70
   128
 71
    -7
 72
     1
 73
     8
  0
VERTEX
  5
1526
  8
0
 10
0.0
 20
0.0
 30
0.0
 70
   128
 71
     6
 72
     5
 73
    -7
  0
VERTEX
  5
1527
  8
0
 10
0.0
 20
0.0
 30
0.0
 70
   128
 71
    -6
 72
     7
 73
     8
  0
VERTEX
  5
1528
  8
0
 10
0.0
 20
0.0
 30
0.0
 70
   128
 71
    10
 72
     9
 73
    -5
  0
VERTEX
  5
1529
  8
0
 10
0.0
 20
0.0
 30
0.0
 70
   128
 71
   -10
 72
     5
 73
     6
  0
VERTEX
  5
152A
  8
0
 10
0.0
 20
0.0
 30
0.0
 70
   128
 71
     2
 72
     3
 73
    -9
  0
VERTEX
  5
152B
  8
0
 10
0.0
 20
0.0
 30
0.0
 70
   128
 71
    -2
 72
     9
 73
    10
  0
SEQEND
  5
17FA
  8
0
  0
POLYLINE
  5
152C
  8
0
 66
     1
 10
0.0
 20
0.0
 30
0.0
 70
    64
 71
    10
 72
     8
  0
VERTEX
  5
152D
  8
0
 10
-108.8028000059631
 20
-294.1074557564112
 30
-6.75
 70
   192
  0
VERTEX
  5
152E
  8
0
 10
-111.866977778439
 20
-296.6786061951574
 30
-6.75
 70
   192
  0
VERTEX
  5
152F
  8
0
 10
-107.0694308016298
 20
-302.3961000404093
 30
-6.75
 70
   192
  0
VERTEX
  5
1530
  8
0
 10
-104.0052530291539
 20
-299.824949601663
 30
-6.75
 70
   192
  0
VERTEX
  5
1531
  8
0
 10
-105.5373419153918
 20
-301.1105248210362
 30
-4.749999999999986
 70
   192
  0
VERTEX
  5
1532
  8
0
 10
-110.334888892201
 20
-295.3930309757843
 30
-4.750000000000011
 70
   192
  0
VERTEX
  5
1533
  8
0
 10
-104.4539914745525
 20
-300.2014858656921
 30
-5.335786437626894
 70
   192
  0
VERTEX
  5
1534
  8
0
 10
-109.2515384513616
 20
-294.4839920204402
 30
-5.335786437626912
 70
   192
  0
VERTEX
  5
1535
  8
0
 10
-106.6206923562312
 20
-302.0195637763803
 30
-5.335786437626895
 70
   192
  0
VERTEX
  5
1536
  8
0
 10
-111.4182393330404
 20
-296.3020699311284
 30
-5.335786437626912
 70
   192
  0
VERTEX
  5
1537
  8
0
 10
0.0
 20
0.0
 30
0.0
 70
   128
 71
     7
 72
     4
 73
    -1
  0
VERTEX
  5
1538
  8
0
 10
0.0
 20
0.0
 30
0.0
 70
   128
 71
    -7
 72
     1
 73
     8
  0
VERTEX
  5
1539
  8
0
 10
0.0
 20
0.0
 30
0.0
 70
   128
 71
     6
 72
     5
 73
    -7
  0
VERTEX
  5
153A
  8
0
 10
0.0
 20
0.0
 30
0.0
 70
   128
 71
    -6
 72
     7
 73
     8
  0
VERTEX
  5
153B
  8
0
 10
0.0
 20
0.0
 30
0.0
 70
   128
 71
    10
 72
     9
 73
    -5
  0
VERTEX
  5
153C
  8
0
 10
0.0
 20
0.0
 30
0.0
 70
   128
 71
   -10
 72
     5
 73
     6
  0
VERTEX
  5
153D
  8
0
 10
0.0
 20
0.0
 30
0.0
 70
   128
 71
     2
 72
     3
 73
    -9
  0
VERTEX
  5
153E
  8
0
 10
0.0
 20
0.0
 30
0.0
 70
   128
 71
    -2
 72
     9
 73
    10
  0
SEQEND
  5
17FB
  8
0
  0
POLYLINE
  5
153F
  8
0
 66
     1
 10
0.0
 20
0.0
 30
0.0
 70
    64
 71
    12
 72
    10
  0
VERTEX
  5
1540
  8
0
 10
-112.2499999999871
 20
-293.5000000000034
 30
-8.482050807568879
 70
   192
  0
VERTEX
  5
1541
  8
0
 10
-112.2499999999871
 20
-294.5000000000034
 30
-8.750000000000002
 70
   192
  0
VERTEX
  5
1542
  8
0
 10
-122.2499999999871
 20
-294.5000000000034
 30
-8.75
 70
   192
  0
VERTEX
  5
1543
  8
0
 10
-122.2499999999872
 20
-293.0857864376302
 30
-8.164213562373096
 70
   192
  0
VERTEX
  5
1544
  8
0
 10
-122.2499999999872
 20
-292.5000000000034
 30
-6.75
 70
   192
  0
VERTEX
  5
1545
  8
0
 10
-112.2499999999872
 20
-292.5000000000034
 30
-6.75
 70
   192
  0
VERTEX
  5
1546
  8
0
 10
-112.2499999999872
 20
-292.7679491924345
 30
-7.75
 70
   192
  0
VERTEX
  5
1547
  8
0
 10
-112.2499999999872
 20
-292.7679491924345
 30
-5.749999999999998
 70
   192
  0
VERTEX
  5
1548
  8
0
 10
-122.2499999999872
 20
-293.0857864376302
 30
-5.335786437626903
 70
   192
  0
VERTEX
  5
1549
  8
0
 10
-122.2499999999871
 20
-294.5000000000034
 30
-4.749999999999998
 70
   192
  0
VERTEX
  5
154A
  8
0
 10
-112.2499999999871
 20
-294.5000000000034
 30
-4.75
 70
   192
  0
VERTEX
  5
154B
  8
0
 10
-112.2499999999871
 20
-293.5000000000034
 30
-5.017949192431121
 70
   192
  0
VERTEX
  5
154C
  8
0
 10
0.0
 20
0.0
 30
0.0
 70
   128
 71
     1
 72
     2
 73
     3
  0
VERTEX
  5
154D
  8
0
 10
0.0
 20
0.0
 30
0.0
 70
   128
 71
     1
 72
     3
 73
     4
  0
VERTEX
  5
154E
  8
0
 10
0.0
 20
0.0
 30
0.0
 70
   128
 71
     4
 72
     5
 73
     6
  0
VERTEX
  5
154F
  8
0
 10
0.0
 20
0.0
 30
0.0
 70
   128
 71
     4
 72
     6
 73
     7
  0
VERTEX
  5
1550
  8
0
 10
0.0
 20
0.0
 30
0.0
 70
   128
 71
     8
 72
     6
 73
     5
  0
VERTEX
  5
1551
  8
0
 10
0.0
 20
0.0
 30
0.0
 70
   128
 71
     8
 72
     5
 73
     9
  0
VERTEX
  5
1552
  8
0
 10
0.0
 20
0.0
 30
0.0
 70
   128
 71
     9
 72
    10
 73
    11
  0
VERTEX
  5
1553
  8
0
 10
0.0
 20
0.0
 30
0.0
 70
   128
 71
     9
 72
    11
 73
    12
  0
VERTEX
  5
1554
  8
0
 10
0.0
 20
0.0
 30
0.0
 70
   128
 71
     1
 72
     4
 73
     7
  0
VERTEX
  5
1555
  8
0
 10
0.0
 20
0.0
 30
0.0
 70
   128
 71
     8
 72
     9
 73
    12
  0
SEQEND
  5
17FC
  8
0
  0
POLYLINE
  5
1556
  8
0
 66
     1
 10
0.0
 20
0.0
 30
0.0
 70
    64
 71
    18
 72
    19
  0
VERTEX
  5
1557
  8
0
 10
111.6016129777148
 20
-288.6373077091911
 30
-8.250000000000002
 70
   192
  0
VERTEX
  5
1558
  8
0
 10
111.2029570616657
 20
-288.9390491617183
 30
-6.749999999999999
 70
   192
  0
VERTEX
  5
1559
  8
0
 10
93.97898163397517
 20
-281.9999999999985
 30
-6.75
 70
   192
  0
VERTEX
  5
155A
  8
0
 10
72.25000000000075
 20
-281.2677669529648
 30
-8.51776695296637
 70
   192
  0
VERTEX
  5
155B
  8
0
 10
72.25000000000075
 20
-279.4999999999985
 30
-9.250000000000002
 70
   192
  0
VERTEX
  5
155C
  8
0
 10
113.1962366419112
 20
-287.4303418990822
 30
-9.250000000000002
 70
   192
  0
VERTEX
  5
155D
  8
0
 10
117.2500000000001
 20
-330.0000000000001
 30
-9.250000000000002
 70
   192
  0
VERTEX
  5
155E
  8
0
 10
115.4822330470337
 20
-330.0
 30
-8.51776695296637
 70
   192
  0
VERTEX
  5
155F
  8
0
 10
114.7908603061077
 20
-286.2233760889734
 30
-8.250000000000005
 70
   192
  0
VERTEX
  5
1560
  8
0
 10
72.25000000000075
 20
-277.7322330470321
 30
-8.51776695296637
 70
   192
  0
VERTEX
  5
1561
  8
0
 10
119.0177669529665
 20
-330.0000000000001
 30
-8.51776695296637
 70
   192
  0
VERTEX
  5
1562
  8
0
 10
93.97898163397517
 20
-276.9999999999984
 30
-6.75
 70
   192
  0
VERTEX
  5
1563
  8
0
 10
115.1895162221568
 20
-285.9216346364462
 30
-6.749999999999999
 70
   192
  0
VERTEX
  5
1564
  8
0
 10
119.7500000000016
 20
-308.2710183659972
 30
-6.750000000000001
 70
   192
  0
VERTEX
  5
1565
  8
0
 10
119.7500000000001
 20
-330.0000000000001
 30
-6.75
 70
   192
  0
VERTEX
  5
1566
  8
0
 10
72.25000000000075
 20
-276.9999999999985
 30
-6.75
 70
   192
  0
VERTEX
  5
1567
  8
0
 10
114.7500000000001
 20
-330.0
 30
-6.75
 70
   192
  0
VERTEX
  5
1568
  8
0
 10
72.25000000000075
 20
-281.9999999999985
 30
-6.75
 70
   192
  0
VERTEX
  5
1569
  8
0
 10
0.0
 20
0.0
 30
0.0
 70
   128
 71
     1
 72
     2
 73
     3
  0
VERTEX
  5
156A
  8
0
 10
0.0
 20
0.0
 30
0.0
 70
   128
 71
     4
 72
     5
 73
     6
  0
VERTEX
  5
156B
  8
0
 10
0.0
 20
0.0
 30
0.0
 70
   128
 71
     4
 72
     6
 73
     1
  0
VERTEX
  5
156C
  8
0
 10
0.0
 20
0.0
 30
0.0
 70
   128
 71
     1
 72
     6
 73
     7
  0
VERTEX
  5
156D
  8
0
 10
0.0
 20
0.0
 30
0.0
 70
   128
 71
     1
 72
     7
 73
     8
  0
VERTEX
  5
156E
  8
0
 10
0.0
 20
0.0
 30
0.0
 70
   128
 71
     9
 72
     6
 73
     5
  0
VERTEX
  5
156F
  8
0
 10
0.0
 20
0.0
 30
0.0
 70
   128
 71
     9
 72
     5
 73
    10
  0
VERTEX
  5
1570
  8
0
 10
0.0
 20
0.0
 30
0.0
 70
   128
 71
    11
 72
     7
 73
     6
  0
VERTEX
  5
1571
  8
0
 10
0.0
 20
0.0
 30
0.0
 70
   128
 71
    11
 72
     6
 73
     9
  0
VERTEX
  5
1572
  8
0
 10
0.0
 20
0.0
 30
0.0
 70
   128
 71
    12
 72
    13
 73
     9
  0
VERTEX
  5
1573
  8
0
 10
0.0
 20
0.0
 30
0.0
 70
   128
 71
     9
 72
    13
 73
    14
  0
VERTEX
  5
1574
  8
0
 10
0.0
 20
0.0
 30
0.0
 70
   128
 71
     9
 72
    14
 73
    15
  0
VERTEX
  5
1575
  8
0
 10
0.0
 20
0.0
 30
0.0
 70
   128
 71
     9
 72
    15
 73
    11
  0
VERTEX
  5
1576
  8
0
 10
0.0
 20
0.0
 30
0.0
 70
   128
 71
    16
 72
    12
 73
     9
  0
VERTEX
  5
1577
  8
0
 10
0.0
 20
0.0
 30
0.0
 70
   128
 71
    16
 72
     9
 73
    10
  0
VERTEX
  5
1578
  8
0
 10
0.0
 20
0.0
 30
0.0
 70
   128
 71
     2
 72
     1
 73
     8
  0
VERTEX
  5
1579
  8
0
 10
0.0
 20
0.0
 30
0.0
 70
   128
 71
     2
 72
     8
 73
    17
  0
VERTEX
  5
157A
  8
0
 10
0.0
 20
0.0
 30
0.0
 70
   128
 71
     4
 72
     1
 73
     3
  0
VERTEX
  5
157B
  8
0
 10
0.0
 20
0.0
 30
0.0
 70
   128
 71
     4
 72
     3
 73
    18
  0
SEQEND
  5
17FD
  8
0
  0
POLYLINE
  5
157C
  8
0
 66
     1
 10
0.0
 20
0.0
 30
0.0
 70
    64
 71
     4
 72
     2
  0
VERTEX
  5
157D
  8
0
 10
-72.24999999999855
 20
-276.9999999999999
 30
-13.5
 70
   192
  0
VERTEX
  5
157E
  8
0
 10
-72.24999999999855
 20
-276.9999999999999
 30
-0.5
 70
   192
  0
VERTEX
  5
157F
  8
0
 10
-67.24999999999869
 20
-276.9999999999999
 30
-0.5
 70
   192
  0
VERTEX
  5
1580
  8
0
 10
-67.24999999999869
 20
-276.9999999999999
 30
-13.5
 70
   192
  0
VERTEX
  5
1581
  8
0
 10
0.0
 20
0.0
 30
0.0
 70
   128
 71
     3
 72
     4
 73
    -1
  0
VERTEX
  5
1582
  8
0
 10
0.0
 20
0.0
 30
0.0
 70
   128
 71
     2
 72
    -3
 73
     1
  0
SEQEND
  5
17FE
  8
0
  0
POLYLINE
  5
1583
  8
0
 66
     1
 10
0.0
 20
0.0
 30
0.0
 70
    64
 71
     8
 72
     6
  0
VERTEX
  5
1584
  8
0
 10
-62.9198729810764
 20
-274.4999999999999
 30
-13.5
 70
   192
  0
VERTEX
  5
1585
  8
0
 10
-64.74999999999864
 20
-276.3301270189221
 30
-13.5
 70
   192
  0
VERTEX
  5
1586
  8
0
 10
-64.74999999999864
 20
-276.3301270189221
 30
-0.5
 70
   192
  0
VERTEX
  5
1587
  8
0
 10
-62.9198729810764
 20
-274.4999999999999
 30
-0.5
 70
   192
  0
VERTEX
  5
1588
  8
0
 10
-67.24999999999869
 20
-276.9999999999999
 30
-13.5
 70
   192
  0
VERTEX
  5
1589
  8
0
 10
-67.24999999999869
 20
-276.9999999999999
 30
-0.5
 70
   192
  0
VERTEX
  5
158A
  8
0
 10
-62.24999999999858
 20
-271.9999999999998
 30
-13.5
 70
   192
  0
VERTEX
  5
158B
  8
0
 10
-62.24999999999858
 20
-271.9999999999998
 30
-0.5
 70
   192
  0
VERTEX
  5
158C
  8
0
 10
0.0
 20
0.0
 30
0.0
 70
   128
 71
     1
 72
     2
 73
    -3
  0
VERTEX
  5
158D
  8
0
 10
0.0
 20
0.0
 30
0.0
 70
   128
 71
     4
 72
    -1
 73
     3
  0
VERTEX
  5
158E
  8
0
 10
0.0
 20
0.0
 30
0.0
 70
   128
 71
     2
 72
     5
 73
    -6
  0
VERTEX
  5
158F
  8
0
 10
0.0
 20
0.0
 30
0.0
 70
   128
 71
     3
 72
    -2
 73
     6
  0
VERTEX
  5
1590
  8
0
 10
0.0
 20
0.0
 30
0.0
 70
   128
 71
     7
 72
     1
 73
    -4
  0
VERTEX
  5
1591
  8
0
 10
0.0
 20
0.0
 30
0.0
 70
   128
 71
     8
 72
    -7
 73
     4
  0
SEQEND
  5
17FF
  8
0
  0
POLYLINE
  5
1592
  8
0
 66
     1
 10
0.0
 20
0.0
 30
0.0
 70
    64
 71
     4
 72
     2
  0
VERTEX
  5
1593
  8
0
 10
-62.24999999999858
 20
-271.9999999999998
 30
-0.5
 70
   192
  0
VERTEX
  5
1594
  8
0
 10
-62.24999999999858
 20
-271.9999999999998
 30
-13.5
 70
   192
  0
VERTEX
  5
1595
  8
0
 10
-62.24999999999858
 20
-266.9999999999999
 30
-13.5
 70
   192
  0
VERTEX
  5
1596
  8
0
 10
-62.24999999999858
 20
-266.9999999999999
 30
-0.5
 70
   192
  0
VERTEX
  5
1597
  8
0
 10
0.0
 20
0.0
 30
0.0
 70
   128
 71
     1
 72
     4
 73
    -3
  0
VERTEX
  5
1598
  8
0
 10
0.0
 20
0.0
 30
0.0
 70
   128
 71
    -1
 72
     3
 73
     2
  0
SEQEND
  5
1800
  8
0
  0
POLYLINE
  5
1599
  8
0
 66
     1
 10
0.0
 20
0.0
 30
0.0
 70
    64
 71
     4
 72
     2
  0
VERTEX
  5
159A
  8
0
 10
72.25000000000159
 20
-297.0000000000001
 30
-13.5
 70
   192
  0
VERTEX
  5
159B
  8
0
 10
72.25000000000159
 20
-297.0000000000001
 30
-0.5
 70
   192
  0
VERTEX
  5
159C
  8
0
 10
67.25000000000158
 20
-297.0000000000001
 30
-0.5
 70
   192
  0
VERTEX
  5
159D
  8
0
 10
67.25000000000158
 20
-297.0000000000001
 30
-13.5
 70
   192
  0
VERTEX
  5
159E
  8
0
 10
0.0
 20
0.0
 30
0.0
 70
   128
 71
     3
 72
     4
 73
    -1
  0
VERTEX
  5
159F
  8
0
 10
0.0
 20
0.0
 30
0.0
 70
   128
 71
     2
 72
    -3
 73
     1
  0
SEQEND
  5
1801
  8
0
  0
POLYLINE
  5
15A0
  8
0
 66
     1
 10
0.0
 20
0.0
 30
0.0
 70
    64
 71
     8
 72
     6
  0
VERTEX
  5
15A1
  8
0
 10
62.91987298107926
 20
-299.5000000000001
 30
-13.5
 70
   192
  0
VERTEX
  5
15A2
  8
0
 10
64.7500000000015
 20
-297.6698729810778
 30
-13.5
 70
   192
  0
VERTEX
  5
15A3
  8
0
 10
64.7500000000015
 20
-297.6698729810778
 30
-0.5
 70
   192
  0
VERTEX
  5
15A4
  8
0
 10
62.91987298107926
 20
-299.5000000000001
 30
-0.5
 70
   192
  0
VERTEX
  5
15A5
  8
0
 10
67.25000000000158
 20
-297.0000000000001
 30
-13.5
 70
   192
  0
VERTEX
  5
15A6
  8
0
 10
67.25000000000158
 20
-297.0000000000001
 30
-0.5
 70
   192
  0
VERTEX
  5
15A7
  8
0
 10
62.25000000000143
 20
-302.0000000000002
 30
-13.5
 70
   192
  0
VERTEX
  5
15A8
  8
0
 10
62.25000000000144
 20
-302.0000000000002
 30
-0.5
 70
   192
  0
VERTEX
  5
15A9
  8
0
 10
0.0
 20
0.0
 30
0.0
 70
   128
 71
     1
 72
     2
 73
    -3
  0
VERTEX
  5
15AA
  8
0
 10
0.0
 20
0.0
 30
0.0
 70
   128
 71
     4
 72
    -1
 73
     3
  0
VERTEX
  5
15AB
  8
0
 10
0.0
 20
0.0
 30
0.0
 70
   128
 71
     2
 72
     5
 73
    -6
  0
VERTEX
  5
15AC
  8
0
 10
0.0
 20
0.0
 30
0.0
 70
   128
 71
     3
 72
    -2
 73
     6
  0
VERTEX
  5
15AD
  8
0
 10
0.0
 20
0.0
 30
0.0
 70
   128
 71
     7
 72
     1
 73
    -4
  0
VERTEX
  5
15AE
  8
0
 10
0.0
 20
0.0
 30
0.0
 70
   128
 71
     8
 72
    -7
 73
     4
  0
SEQEND
  5
1802
  8
0
  0
POLYLINE
  5
15AF
  8
0
 66
     1
 10
0.0
 20
0.0
 30
0.0
 70
    64
 71
     4
 72
     2
  0
VERTEX
  5
15B0
  8
0
 10
62.25000000000143
 20
-302.0000000000002
 30
-0.5
 70
   192
  0
VERTEX
  5
15B1
  8
0
 10
62.25000000000143
 20
-302.0000000000002
 30
-13.5
 70
   192
  0
VERTEX
  5
15B2
  8
0
 10
62.25000000000143
 20
-306.9999999999994
 30
-13.5
 70
   192
  0
VERTEX
  5
15B3
  8
0
 10
62.25000000000143
 20
-306.9999999999994
 30
-0.5
 70
   192
  0
VERTEX
  5
15B4
  8
0
 10
0.0
 20
0.0
 30
0.0
 70
   128
 71
     1
 72
     4
 73
    -3
  0
VERTEX
  5
15B5
  8
0
 10
0.0
 20
0.0
 30
0.0
 70
   128
 71
    -1
 72
     3
 73
     2
  0
SEQEND
  5
1803
  8
0
  0
POLYLINE
  5
15B6
  8
0
 66
     1
 10
0.0
 20
0.0
 30
0.0
 70
    64
 71
     6
 72
     4
  0
VERTEX
  5
15B7
  8
0
 10
72.25000000000163
 20
-306.9999999999993
 30
0.0
 70
   192
  0
VERTEX
  5
15B8
  8
0
 10
-72.24999999999847
 20
-307.0000000000007
 30
0.0
 70
   192
  0
VERTEX
  5
15B9
  8
0
 10
-72.24999999999847
 20
-307.0000000000007
 30
-13.5
 70
   192
  0
VERTEX
  5
15BA
  8
0
 10
62.25000000000144
 20
-306.9999999999994
 30
-13.5
 70
   192
  0
VERTEX
  5
15BB
  8
0
 10
62.25000000000143
 20
-306.9999999999994
 30
-0.5
 70
   192
  0
VERTEX
  5
15BC
  8
0
 10
72.25000000000163
 20
-306.9999999999993
 30
-0.5
 70
   192
  0
VERTEX
  5
15BD
  8
0
 10
0.0
 20
0.0
 30
0.0
 70
   128
 71
     3
 72
     4
 73
    -5
  0
VERTEX
  5
15BE
  8
0
 10
0.0
 20
0.0
 30
0.0
 70
   128
 71
     2
 72
    -3
 73
    -5
  0
VERTEX
  5
15BF
  8
0
 10
0.0
 20
0.0
 30
0.0
 70
   128
 71
    -5
 72
     1
 73
    -2
  0
VERTEX
  5
15C0
  8
0
 10
0.0
 20
0.0
 30
0.0
 70
   128
 71
     5
 72
     6
 73
    -1
  0
SEQEND
  5
1804
  8
0
  0
POLYLINE
  5
15C1
  8
0
 66
     1
 10
0.0
 20
0.0
 30
0.0
 70
    64
 71
    14
 72
    14
  0
VERTEX
  5
15C2
  8
0
 10
-72.24999999999847
 20
-307.0000000000007
 30
0.0
 70
   192
  0
VERTEX
  5
15C3
  8
0
 10
-72.24999999999848
 20
-307.0000000000007
 30
-13.5
 70
   192
  0
VERTEX
  5
15C4
  8
0
 10
-72.24999999999855
 20
-276.9999999999999
 30
-13.5
 70
   192
  0
VERTEX
  5
15C5
  8
0
 10
-72.24999999999855
 20
-276.9999999999999
 30
-0.5
 70
   192
  0
VERTEX
  5
15C6
  8
0
 10
-72.24999999999856
 20
-266.9999999999999
 30
-0.5
 70
   192
  0
VERTEX
  5
15C7
  8
0
 10
-72.24999999999856
 20
-266.9999999999999
 30
0.0
 70
   192
  0
VERTEX
  5
15C8
  8
0
 10
-72.24999999999851
 20
-296.5000000000003
 30
-6.75
 70
   192
  0
VERTEX
  5
15C9
  8
0
 10
-72.24999999999851
 20
-295.9142135623734
 30
-5.335786437626904
 70
   192
  0
VERTEX
  5
15CA
  8
0
 10
-72.24999999999851
 20
-294.5000000000003
 30
-4.749999999999998
 70
   192
  0
VERTEX
  5
15CB
  8
0
 10
-72.24999999999851
 20
-293.0857864376272
 30
-5.335786437626903
 70
   192
  0
VERTEX
  5
15CC
  8
0
 10
-72.24999999999851
 20
-292.5000000000003
 30
-6.75
 70
   192
  0
VERTEX
  5
15CD
  8
0
 10
-72.24999999999851
 20
-293.0857864376272
 30
-8.164213562373096
 70
   192
  0
VERTEX
  5
15CE
  8
0
 10
-72.24999999999851
 20
-294.5000000000003
 30
-8.750000000000002
 70
   192
  0
VERTEX
  5
15CF
  8
0
 10
-72.24999999999851
 20
-295.9142135623734
 30
-8.164213562373096
 70
   192
  0
VERTEX
  5
15D0
  8
0
 10
0.0
 20
0.0
 30
0.0
 70
   128
 71
     8
 72
    -7
 73
    -1
  0
VERTEX
  5
15D1
  8
0
 10
0.0
 20
0.0
 30
0.0
 70
   128
 71
    -1
 72
     9
 73
    -8
  0
VERTEX
  5
15D2
  8
0
 10
0.0
 20
0.0
 30
0.0
 70
   128
 71
    -9
 72
    -1
 73
    -4
  0
VERTEX
  5
15D3
  8
0
 10
0.0
 20
0.0
 30
0.0
 70
   128
 71
    -4
 72
    10
 73
    -9
  0
VERTEX
  5
15D4
  8
0
 10
0.0
 20
0.0
 30
0.0
 70
   128
 71
    -4
 72
    11
 73
   -10
  0
VERTEX
  5
15D5
  8
0
 10
0.0
 20
0.0
 30
0.0
 70
   128
 71
     4
 72
    -3
 73
   -12
  0
VERTEX
  5
15D6
  8
0
 10
0.0
 20
0.0
 30
0.0
 70
   128
 71
    -4
 72
    12
 73
   -11
  0
VERTEX
  5
15D7
  8
0
 10
0.0
 20
0.0
 30
0.0
 70
   128
 71
    -3
 72
    13
 73
   -12
  0
VERTEX
  5
15D8
  8
0
 10
0.0
 20
0.0
 30
0.0
 70
   128
 71
     3
 72
    -2
 73
   -13
  0
VERTEX
  5
15D9
  8
0
 10
0.0
 20
0.0
 30
0.0
 70
   128
 71
    -2
 72
    14
 73
   -13
  0
VERTEX
  5
15DA
  8
0
 10
0.0
 20
0.0
 30
0.0
 70
   128
 71
     2
 72
    -1
 73
    -7
  0
VERTEX
  5
15DB
  8
0
 10
0.0
 20
0.0
 30
0.0
 70
   128
 71
    -2
 72
     7
 73
   -14
  0
VERTEX
  5
15DC
  8
0
 10
0.0
 20
0.0
 30
0.0
 70
   128
 71
     1
 72
    -6
 73
    -4
  0
VERTEX
  5
15DD
  8
0
 10
0.0
 20
0.0
 30
0.0
 70
   128
 71
     6
 72
     5
 73
    -4
  0
SEQEND
  5
1805
  8
0
  0
POLYLINE
  5
15DE
  8
0
 66
     1
 10
0.0
 20
0.0
 30
0.0
 70
    64
 71
     6
 72
     4
  0
VERTEX
  5
15DF
  8
0
 10
-72.24999999999856
 20
-266.9999999999999
 30
0.0
 70
   192
  0
VERTEX
  5
15E0
  8
0
 10
-72.24999999999856
 20
-266.9999999999999
 30
-0.5
 70
   192
  0
VERTEX
  5
15E1
  8
0
 10
-62.24999999999858
 20
-266.9999999999999
 30
-0.5
 70
   192
  0
VERTEX
  5
15E2
  8
0
 10
-62.24999999999859
 20
-266.9999999999999
 30
-13.5
 70
   192
  0
VERTEX
  5
15E3
  8
0
 10
72.25000000000145
 20
-266.9999999999993
 30
-13.5
 70
   192
  0
VERTEX
  5
15E4
  8
0
 10
72.25000000000145
 20
-266.9999999999993
 30
0.0
 70
   192
  0
VERTEX
  5
15E5
  8
0
 10
0.0
 20
0.0
 30
0.0
 70
   128
 71
     3
 72
     2
 73
    -1
  0
VERTEX
  5
15E6
  8
0
 10
0.0
 20
0.0
 30
0.0
 70
   128
 71
    -3
 72
     1
 73
    -6
  0
VERTEX
  5
15E7
  8
0
 10
0.0
 20
0.0
 30
0.0
 70
   128
 71
     6
 72
     5
 73
    -4
  0
VERTEX
  5
15E8
  8
0
 10
0.0
 20
0.0
 30
0.0
 70
   128
 71
    -6
 72
     4
 73
    -3
  0
SEQEND
  5
1806
  8
0
  0
POLYLINE
  5
15E9
  8
0
 66
     1
 10
0.0
 20
0.0
 30
0.0
 70
    64
 71
    14
 72
    14
  0
VERTEX
  5
15EA
  8
0
 10
72.25000000000145
 20
-266.9999999999993
 30
0.0
 70
   192
  0
VERTEX
  5
15EB
  8
0
 10
72.25000000000162
 20
-306.9999999999993
 30
0.0
 70
   192
  0
VERTEX
  5
15EC
  8
0
 10
72.25000000000163
 20
-306.9999999999993
 30
-0.5
 70
   192
  0
VERTEX
  5
15ED
  8
0
 10
72.25000000000158
 20
-297.0000000000001
 30
-0.5
 70
   192
  0
VERTEX
  5
15EE
  8
0
 10
72.25000000000159
 20
-297.0000000000001
 30
-13.5
 70
   192
  0
VERTEX
  5
15EF
  8
0
 10
72.25000000000145
 20
-266.9999999999993
 30
-13.5
 70
   192
  0
VERTEX
  5
15F0
  8
0
 10
72.25000000000075
 20
-281.9999999999985
 30
-6.75
 70
   192
  0
VERTEX
  5
15F1
  8
0
 10
72.25000000000075
 20
-281.2677669529648
 30
-4.982233047033629
 70
   192
  0
VERTEX
  5
15F2
  8
0
 10
72.25000000000075
 20
-279.4999999999985
 30
-4.249999999999997
 70
   192
  0
VERTEX
  5
15F3
  8
0
 10
72.25000000000075
 20
-277.7322330470321
 30
-4.982233047033629
 70
   192
  0
VERTEX
  5
15F4
  8
0
 10
72.25000000000075
 20
-276.9999999999985
 30
-6.75
 70
   192
  0
VERTEX
  5
15F5
  8
0
 10
72.25000000000075
 20
-277.7322330470321
 30
-8.51776695296637
 70
   192
  0
VERTEX
  5
15F6
  8
0
 10
72.25000000000075
 20
-279.4999999999985
 30
-9.250000000000002
 70
   192
  0
VERTEX
  5
15F7
  8
0
 10
72.25000000000075
 20
-281.2677669529648
 30
-8.51776695296637
 70
   192
  0
VERTEX
  5
15F8
  8
0
 10
0.0
 20
0.0
 30
0.0
 70
   128
 71
     2
 72
     3
 73
    -4
  0
VERTEX
  5
15F9
  8
0
 10
0.0
 20
0.0
 30
0.0
 70
   128
 71
     1
 72
    -2
 73
    -4
  0
VERTEX
  5
15FA
  8
0
 10
0.0
 20
0.0
 30
0.0
 70
   128
 71
    -4
 72
     7
 73
    -8
  0
VERTEX
  5
15FB
  8
0
 10
0.0
 20
0.0
 30
0.0
 70
   128
 71
     8
 72
    -9
 73
    -4
  0
VERTEX
  5
15FC
  8
0
 10
0.0
 20
0.0
 30
0.0
 70
   128
 71
    -9
 72
    -1
 73
    -4
  0
VERTEX
  5
15FD
  8
0
 10
0.0
 20
0.0
 30
0.0
 70
   128
 71
     9
 72
   -10
 73
    -1
  0
VERTEX
  5
15FE
  8
0
 10
0.0
 20
0.0
 30
0.0
 70
   128
 71
   -11
 72
     6
 73
    -1
  0
VERTEX
  5
15FF
  8
0
 10
0.0
 20
0.0
 30
0.0
 70
   128
 71
    10
 72
   -11
 73
    -1
  0
VERTEX
  5
1600
  8
0
 10
0.0
 20
0.0
 30
0.0
 70
   128
 71
    11
 72
   -12
 73
    -6
  0
VERTEX
  5
1601
  8
0
 10
0.0
 20
0.0
 30
0.0
 70
   128
 71
    12
 72
   -13
 73
    -6
  0
VERTEX
  5
1602
  8
0
 10
0.0
 20
0.0
 30
0.0
 70
   128
 71
     5
 72
    -6
 73
   -13
  0
VERTEX
  5
1603
  8
0
 10
0.0
 20
0.0
 30
0.0
 70
   128
 71
    13
 72
   -14
 73
    -5
  0
VERTEX
  5
1604
  8
0
 10
0.0
 20
0.0
 30
0.0
 70
   128
 71
    -7
 72
     4
 73
    -5
  0
VERTEX
  5
1605
  8
0
 10
0.0
 20
0.0
 30
0.0
 70
   128
 71
    14
 72
    -7
 73
    -5
  0
SEQEND
  5
1807
  8
0
  0
POLYLINE
  5
1606
  8
0
 66
     1
 10
0.0
 20
0.0
 30
0.0
 70
    64
 71
    14
 72
    12
  0
VERTEX
  5
1607
  8
0
 10
62.25000000000143
 20
-306.9999999999994
 30
-13.5
 70
   192
  0
VERTEX
  5
1608
  8
0
 10
62.25000000000144
 20
-302.0000000000002
 30
-13.5
 70
   192
  0
VERTEX
  5
1609
  8
0
 10
62.91987298107926
 20
-299.5000000000001
 30
-13.5
 70
   192
  0
VERTEX
  5
160A
  8
0
 10
64.7500000000015
 20
-297.6698729810778
 30
-13.5
 70
   192
  0
VERTEX
  5
160B
  8
0
 10
67.25000000000158
 20
-297.0000000000001
 30
-13.5
 70
   192
  0
VERTEX
  5
160C
  8
0
 10
72.25000000000158
 20
-297.0000000000001
 30
-13.5
 70
   192
  0
VERTEX
  5
160D
  8
0
 10
72.25000000000145
 20
-266.9999999999993
 30
-13.5
 70
   192
  0
VERTEX
  5
160E
  8
0
 10
-62.24999999999858
 20
-266.9999999999999
 30
-13.5
 70
   192
  0
VERTEX
  5
160F
  8
0
 10
-62.24999999999858
 20
-271.9999999999998
 30
-13.5
 70
   192
  0
VERTEX
  5
1610
  8
0
 10
-62.9198729810764
 20
-274.4999999999999
 30
-13.5
 70
   192
  0
VERTEX
  5
1611
  8
0
 10
-64.74999999999864
 20
-276.3301270189221
 30
-13.5
 70
   192
  0
VERTEX
  5
1612
  8
0
 10
-67.24999999999869
 20
-276.9999999999999
 30
-13.5
 70
   192
  0
VERTEX
  5
1613
  8
0
 10
-72.24999999999855
 20
-276.9999999999999
 30
-13.5
 70
   192
  0
VERTEX
  5
1614
  8
0
 10
-72.24999999999847
 20
-307.0000000000007
 30
-13.5
 70
   192
  0
VERTEX
  5
1615
  8
0
 10
0.0
 20
0.0
 30
0.0
 70
   128
 71
     2
 72
    -1
 73
    -9
  0
VERTEX
  5
1616
  8
0
 10
0.0
 20
0.0
 30
0.0
 70
   128
 71
    -2
 72
     9
 73
    -8
  0
VERTEX
  5
1617
  8
0
 10
0.0
 20
0.0
 30
0.0
 70
   128
 71
    -8
 72
     3
 73
    -2
  0
VERTEX
  5
1618
  8
0
 10
0.0
 20
0.0
 30
0.0
 70
   128
 71
     8
 72
    -7
 73
    -3
  0
VERTEX
  5
1619
  8
0
 10
0.0
 20
0.0
 30
0.0
 70
   128
 71
    -7
 72
     4
 73
    -3
  0
VERTEX
  5
161A
  8
0
 10
0.0
 20
0.0
 30
0.0
 70
   128
 71
    -7
 72
     5
 73
    -4
  0
VERTEX
  5
161B
  8
0
 10
0.0
 20
0.0
 30
0.0
 70
   128
 71
     7
 72
     6
 73
    -5
  0
VERTEX
  5
161C
  8
0
 10
0.0
 20
0.0
 30
0.0
 70
   128
 71
    -1
 72
    10
 73
    -9
  0
VERTEX
  5
161D
  8
0
 10
0.0
 20
0.0
 30
0.0
 70
   128
 71
     1
 72
   -14
 73
   -10
  0
VERTEX
  5
161E
  8
0
 10
0.0
 20
0.0
 30
0.0
 70
   128
 71
   -14
 72
    11
 73
   -10
  0
VERTEX
  5
161F
  8
0
 10
0.0
 20
0.0
 30
0.0
 70
   128
 71
   -14
 72
    12
 73
   -11
  0
VERTEX
  5
1620
  8
0
 10
0.0
 20
0.0
 30
0.0
 70
   128
 71
    14
 72
    13
 73
   -12
  0
SEQEND
  5
1808
  8
0
  0
POLYLINE
  5
1621
  8
0
 66
     1
 10
0.0
 20
0.0
 30
0.0
 70
    64
 71
     4
 72
     2
  0
VERTEX
  5
1622
  8
0
 10
72.25000000000145
 20
-266.9999999999993
 30
0.0
 70
   192
  0
VERTEX
  5
1623
  8
0
 10
-72.24999999999856
 20
-266.9999999999999
 30
0.0
 70
   192
  0
VERTEX
  5
1624
  8
0
 10
-72.24999999999848
 20
-307.0000000000007
 30
0.0
 70
   192
  0
VERTEX
  5
1625
  8
0
 10
72.25000000000163
 20
-306.9999999999993
 30
0.0
 70
   192
  0
VERTEX
  5
1626
  8
0
 10
0.0
 20
0.0
 30
0.0
 70
   128
 71
     3
 72
     4
 73
    -1
  0
VERTEX
  5
1627
  8
0
 10
0.0
 20
0.0
 30
0.0
 70
   128
 71
     2
 72
    -3
 73
     1
  0
SEQEND
  5
1809
  8
0
  0
POLYLINE
  5
1628
  8
0
 66
     1
 10
0.0
 20
0.0
 30
0.0
 70
    64
 71
     7
 72
     5
  0
VERTEX
  5
1629
  8
0
 10
72.25000000000162
 20
-306.9999999999993
 30
-0.5
 70
   192
  0
VERTEX
  5
162A
  8
0
 10
72.25000000000159
 20
-297.0000000000001
 30
-0.5
 70
   192
  0
VERTEX
  5
162B
  8
0
 10
67.25000000000158
 20
-297.0000000000001
 30
-0.5
 70
   192
  0
VERTEX
  5
162C
  8
0
 10
64.7500000000015
 20
-297.6698729810778
 30
-0.5
 70
   192
  0
VERTEX
  5
162D
  8
0
 10
62.91987298107926
 20
-299.5000000000001
 30
-0.5
 70
   192
  0
VERTEX
  5
162E
  8
0
 10
62.25000000000143
 20
-302.0000000000002
 30
-0.5
 70
   192
  0
VERTEX
  5
162F
  8
0
 10
62.25000000000144
 20
-306.9999999999994
 30
-0.5
 70
   192
  0
VERTEX
  5
1630
  8
0
 10
0.0
 20
0.0
 30
0.0
 70
   128
 71
     1
 72
     7
 73
    -6
  0
VERTEX
  5
1631
  8
0
 10
0.0
 20
0.0
 30
0.0
 70
   128
 71
    -1
 72
     6
 73
    -5
  0
VERTEX
  5
1632
  8
0
 10
0.0
 20
0.0
 30
0.0
 70
   128
 71
    -1
 72
     5
 73
    -4
  0
VERTEX
  5
1633
  8
0
 10
0.0
 20
0.0
 30
0.0
 70
   128
 71
    -1
 72
     4
 73
    -3
  0
VERTEX
  5
1634
  8
0
 10
0.0
 20
0.0
 30
0.0
 70
   128
 71
    -1
 72
     3
 73
     2
  0
SEQEND
  5
180A
  8
0
  0
POLYLINE
  5
1635
  8
0
 66
     1
 10
0.0
 20
0.0
 30
0.0
 70
    64
 71
     7
 72
     5
  0
VERTEX
  5
1636
  8
0
 10
-62.24999999999859
 20
-266.9999999999999
 30
-0.5
 70
   192
  0
VERTEX
  5
1637
  8
0
 10
-72.24999999999856
 20
-266.9999999999999
 30
-0.5
 70
   192
  0
VERTEX
  5
1638
  8
0
 10
-72.24999999999855
 20
-276.9999999999999
 30
-0.5
 70
   192
  0
VERTEX
  5
1639
  8
0
 10
-67.24999999999869
 20
-276.9999999999999
 30
-0.5
 70
   192
  0
VERTEX
  5
163A
  8
0
 10
-64.74999999999864
 20
-276.3301270189221
 30
-0.5
 70
   192
  0
VERTEX
  5
163B
  8
0
 10
-62.9198729810764
 20
-274.4999999999999
 30
-0.5
 70
   192
  0
VERTEX
  5
163C
  8
0
 10
-62.24999999999858
 20
-271.9999999999998
 30
-0.5
 70
   192
  0
VERTEX
  5
163D
  8
0
 10
0.0
 20
0.0
 30
0.0
 70
   128
 71
     1
 72
     7
 73
    -6
  0
VERTEX
  5
163E
  8
0
 10
0.0
 20
0.0
 30
0.0
 70
   128
 71
    -1
 72
     6
 73
    -5
  0
VERTEX
  5
163F
  8
0
 10
0.0
 20
0.0
 30
0.0
 70
   128
 71
    -1
 72
     5
 73
    -4
  0
VERTEX
  5
1640
  8
0
 10
0.0
 20
0.0
 30
0.0
 70
   128
 71
    -1
 72
     4
 73
    -3
  0
VERTEX
  5
1641
  8
0
 10
0.0
 20
0.0
 30
0.0
 70
   128
 71
    -1
 72
     3
 73
     2
  0
SEQEND
  5
180B
  8
0
  0
POLYLINE
  5
1642
  8
0
 66
     1
 10
0.0
 20
0.0
 30
0.0
 70
    64
 71
    18
 72
    19
  0
VERTEX
  5
1643
  8
0
 10
114.7908603061077
 20
-286.2233760889735
 30
-5.25
 70
   192
  0
VERTEX
  5
1644
  8
0
 10
115.1895162221568
 20
-285.9216346364462
 30
-6.749999999999999
 70
   192
  0
VERTEX
  5
1645
  8
0
 10
93.97898163397517
 20
-276.9999999999984
 30
-6.75
 70
   192
  0
VERTEX
  5
1646
  8
0
 10
119.7500000000016
 20
-308.2710183659972
 30
-6.750000000000001
 70
   192
  0
VERTEX
  5
1647
  8
0
 10
72.25000000000075
 20
-277.7322330470321
 30
-4.982233047033629
 70
   192
  0
VERTEX
  5
1648
  8
0
 10
72.25000000000075
 20
-279.4999999999985
 30
-4.249999999999997
 70
   192
  0
VERTEX
  5
1649
  8
0
 10
113.1962366419113
 20
-287.4303418990822
 30
-4.249999999999998
 70
   192
  0
VERTEX
  5
164A
  8
0
 10
117.2500000000001
 20
-330.0000000000001
 30
-4.249999999999997
 70
   192
  0
VERTEX
  5
164B
  8
0
 10
119.0177669529665
 20
-330.0000000000001
 30
-4.982233047033629
 70
   192
  0
VERTEX
  5
164C
  8
0
 10
111.6016129777149
 20
-288.6373077091912
 30
-5.250000000000001
 70
   192
  0
VERTEX
  5
164D
  8
0
 10
72.25000000000075
 20
-281.2677669529648
 30
-4.982233047033629
 70
   192
  0
VERTEX
  5
164E
  8
0
 10
115.4822330470337
 20
-330.0
 30
-4.982233047033629
 70
   192
  0
VERTEX
  5
164F
  8
0
 10
93.97898163397517
 20
-281.9999999999985
 30
-6.75
 70
   192
  0
VERTEX
  5
1650
  8
0
 10
111.2029570616657
 20
-288.9390491617183
 30
-6.749999999999999
 70
   192
  0
VERTEX
  5
1651
  8
0
 10
114.7500000000001
 20
-330.0
 30
-6.75
 70
   192
  0
VERTEX
  5
1652
  8
0
 10
72.25000000000075
 20
-281.9999999999985
 30
-6.75
 70
   192
  0
VERTEX
  5
1653
  8
0
 10
119.7500000000001
 20
-330.0000000000001
 30
-6.75
 70
   192
  0
VERTEX
  5
1654
  8
0
 10
72.25000000000075
 20
-276.9999999999985
 30
-6.75
 70
   192
  0
VERTEX
  5
1655
  8
0
 10
0.0
 20
0.0
 30
0.0
 70
   128
 71
     1
 72
     2
 73
     3
  0
VERTEX
  5
1656
  8
0
 10
0.0
 20
0.0
 30
0.0
 70
   128
 71
     4
 72
     2
 73
     1
  0
VERTEX
  5
1657
  8
0
 10
0.0
 20
0.0
 30
0.0
 70
   128
 71
     5
 72
     6
 73
     7
  0
VERTEX
  5
1658
  8
0
 10
0.0
 20
0.0
 30
0.0
 70
   128
 71
     5
 72
     7
 73
     1
  0
VERTEX
  5
1659
  8
0
 10
0.0
 20
0.0
 30
0.0
 70
   128
 71
     1
 72
     7
 73
     8
  0
VERTEX
  5
165A
  8
0
 10
0.0
 20
0.0
 30
0.0
 70
   128
 71
     1
 72
     8
 73
     9
  0
VERTEX
  5
165B
  8
0
 10
0.0
 20
0.0
 30
0.0
 70
   128
 71
    10
 72
     7
 73
     6
  0
VERTEX
  5
165C
  8
0
 10
0.0
 20
0.0
 30
0.0
 70
   128
 71
    10
 72
     6
 73
    11
  0
VERTEX
  5
165D
  8
0
 10
0.0
 20
0.0
 30
0.0
 70
   128
 71
    12
 72
     8
 73
     7
  0
VERTEX
  5
165E
  8
0
 10
0.0
 20
0.0
 30
0.0
 70
   128
 71
    12
 72
     7
 73
    10
  0
VERTEX
  5
165F
  8
0
 10
0.0
 20
0.0
 30
0.0
 70
   128
 71
    13
 72
    14
 73
    10
  0
VERTEX
  5
1660
  8
0
 10
0.0
 20
0.0
 30
0.0
 70
   128
 71
    10
 72
    14
 73
    15
  0
VERTEX
  5
1661
  8
0
 10
0.0
 20
0.0
 30
0.0
 70
   128
 71
    10
 72
    15
 73
    12
  0
VERTEX
  5
1662
  8
0
 10
0.0
 20
0.0
 30
0.0
 70
   128
 71
    16
 72
    13
 73
    10
  0
VERTEX
  5
1663
  8
0
 10
0.0
 20
0.0
 30
0.0
 70
   128
 71
    16
 72
    10
 73
    11
  0
VERTEX
  5
1664
  8
0
 10
0.0
 20
0.0
 30
0.0
 70
   128
 71
     4
 72
     1
 73
     9
  0
VERTEX
  5
1665
  8
0
 10
0.0
 20
0.0
 30
0.0
 70
   128
 71
     4
 72
     9
 73
    17
  0
VERTEX
  5
1666
  8
0
 10
0.0
 20
0.0
 30
0.0
 70
   128
 71
     5
 72
     1
 73
     3
  0
VERTEX
  5
1667
  8
0
 10
0.0
 20
0.0
 30
0.0
 70
   128
 71
     5
 72
     3
 73
    18
  0
SEQEND
  5
180C
  8
0
  0
POLYLINE
  5
1668
  8
0
 66
     1
 10
0.0
 20
0.0
 30
0.0
 70
    64
 71
     8
 72
     6
  0
VERTEX
  5
1669
  8
0
 10
119.7500000000001
 20
-330.0000000000001
 30
-6.75
 70
   192
  0
VERTEX
  5
166A
  8
0
 10
119.0177669529665
 20
-330.0000000000001
 30
-8.51776695296637
 70
   192
  0
VERTEX
  5
166B
  8
0
 10
117.2500000000001
 20
-330.0000000000001
 30
-9.250000000000002
 70
   192
  0
VERTEX
  5
166C
  8
0
 10
115.4822330470337
 20
-330.0
 30
-8.51776695296637
 70
   192
  0
VERTEX
  5
166D
  8
0
 10
114.7500000000001
 20
-330.0
 30
-6.75
 70
   192
  0
VERTEX
  5
166E
  8
0
 10
115.4822330470337
 20
-330.0
 30
-4.982233047033629
 70
   192
  0
VERTEX
  5
166F
  8
0
 10
117.2500000000001
 20
-330.0000000000001
 30
-4.249999999999997
 70
   192
  0
VERTEX
  5
1670
  8
0
 10
119.0177669529665
 20
-330.0000000000001
 30
-4.982233047033629
 70
   192
  0
VERTEX
  5
1671
  8
0
 10
0.0
 20
0.0
 30
0.0
 70
   128
 71
     1
 72
     8
 73
    -7
  0
VERTEX
  5
1672
  8
0
 10
0.0
 20
0.0
 30
0.0
 70
   128
 71
    -1
 72
     7
 73
    -6
  0
VERTEX
  5
1673
  8
0
 10
0.0
 20
0.0
 30
0.0
 70
   128
 71
    -1
 72
     6
 73
    -5
  0
VERTEX
  5
1674
  8
0
 10
0.0
 20
0.0
 30
0.0
 70
   128
 71
    -1
 72
     5
 73
    -4
  0
VERTEX
  5
1675
  8
0
 10
0.0
 20
0.0
 30
0.0
 70
   128
 71
    -1
 72
     4
 73
    -3
  0
VERTEX
  5
1676
  8
0
 10
0.0
 20
0.0
 30
0.0
 70
   128
 71
    -1
 72
     3
 73
     2
  0
SEQEND
  5
180D
  8
0
  0
POLYLINE
  5
1677
  8
0
 66
     1
 10
0.0
 20
0.0
 30
0.0
 70
    64
 71
    10
 72
     8
  0
VERTEX
  5
1678
  8
0
 10
-82.24999999998694
 20
-296.5000000000007
 30
-6.75
 70
   192
  0
VERTEX
  5
1679
  8
0
 10
-82.24999999998717
 20
-292.5000000000035
 30
-6.75
 70
   192
  0
VERTEX
  5
167A
  8
0
 10
-72.24999999999851
 20
-292.5000000000003
 30
-6.75
 70
   192
  0
VERTEX
  5
167B
  8
0
 10
-72.24999999999851
 20
-296.5000000000003
 30
-6.75
 70
   192
  0
VERTEX
  5
167C
  8
0
 10
-72.24999999999851
 20
-294.5000000000003
 30
-8.750000000000002
 70
   192
  0
VERTEX
  5
167D
  8
0
 10
-82.24999999998705
 20
-294.5000000000035
 30
-8.750000000000002
 70
   192
  0
VERTEX
  5
167E
  8
0
 10
-72.24999999999851
 20
-295.9142135623734
 30
-8.164213562373096
 70
   192
  0
VERTEX
  5
167F
  8
0
 10
-82.24999999998697
 20
-295.9142135623766
 30
-8.164213562373096
 70
   192
  0
VERTEX
  5
1680
  8
0
 10
-72.24999999999851
 20
-293.0857864376272
 30
-8.164213562373096
 70
   192
  0
VERTEX
  5
1681
  8
0
 10
-82.24999999998714
 20
-293.0857864376304
 30
-8.164213562373096
 70
   192
  0
VERTEX
  5
1682
  8
0
 10
0.0
 20
0.0
 30
0.0
 70
   128
 71
     8
 72
     7
 73
    -4
  0
VERTEX
  5
1683
  8
0
 10
0.0
 20
0.0
 30
0.0
 70
   128
 71
    -8
 72
     4
 73
     1
  0
VERTEX
  5
1684
  8
0
 10
0.0
 20
0.0
 30
0.0
 70
   128
 71
     6
 72
     5
 73
    -7
  0
VERTEX
  5
1685
  8
0
 10
0.0
 20
0.0
 30
0.0
 70
   128
 71
    -6
 72
     7
 73
     8
  0
VERTEX
  5
1686
  8
0
 10
0.0
 20
0.0
 30
0.0
 70
   128
 71
    10
 72
     9
 73
    -5
  0
VERTEX
  5
1687
  8
0
 10
0.0
 20
0.0
 30
0.0
 70
   128
 71
   -10
 72
     5
 73
     6
  0
VERTEX
  5
1688
  8
0
 10
0.0
 20
0.0
 30
0.0
 70
   128
 71
     2
 72
     3
 73
    -9
  0
VERTEX
  5
1689
  8
0
 10
0.0
 20
0.0
 30
0.0
 70
   128
 71
    -2
 72
     9
 73
    10
  0
SEQEND
  5
180E
  8
0
  0
POLYLINE
  5
168A
  8
0
 66
     1
 10
0.0
 20
0.0
 30
0.0
 70
    64
 71
    14
 72
    12
  0
VERTEX
  5
168B
  8
0
 10
-82.633022221558
 20
-292.3213938048439
 30
-6.75
 70
   192
  0
VERTEX
  5
168C
  8
0
 10
-82.24999999998717
 20
-292.5000000000007
 30
-6.75
 70
   192
  0
VERTEX
  5
168D
  8
0
 10
-82.24999999998694
 20
-296.5000000000035
 30
-6.75
 70
   192
  0
VERTEX
  5
168E
  8
0
 10
-85.69719999403391
 20
-294.8925442435901
 30
-6.75
 70
   192
  0
VERTEX
  5
168F
  8
0
 10
-82.24999999998705
 20
-294.5000000000035
 30
-8.750000000000002
 70
   192
  0
VERTEX
  5
1690
  8
0
 10
-84.16511110779595
 20
-293.606969024217
 30
-8.74999999999999
 70
   192
  0
VERTEX
  5
1691
  8
0
 10
-82.24999999998714
 20
-293.0857864376304
 30
-8.164213562373096
 70
   192
  0
VERTEX
  5
1692
  8
0
 10
-83.08176066695654
 20
-292.6979300688729
 30
-8.164213562373087
 70
   192
  0
VERTEX
  5
1693
  8
0
 10
-82.24999999998697
 20
-295.9142135623766
 30
-8.164213562373096
 70
   192
  0
VERTEX
  5
1694
  8
0
 10
-85.24846154863536
 20
-294.5160079795611
 30
-8.164213562373089
 70
   192
  0
VERTEX
  5
1695
  8
0
 10
-82.39340161634681
 20
-292.4789947561605
 30
-6.75
 70
   192
  0
VERTEX
  5
1696
  8
0
 10
-82.52475448903074
 20
-292.4177439057092
 30
-6.75
 70
   192
  0
VERTEX
  5
1697
  8
0
 10
-84.72279040131392
 20
-295.759695151361
 30
-6.75
 70
   192
  0
VERTEX
  5
1698
  8
0
 10
-83.54061454719103
 20
-296.3109528054226
 30
-6.75
 70
   192
  0
VERTEX
  5
1699
  8
0
 10
0.0
 20
0.0
 30
0.0
 70
   128
 71
    11
 72
     2
 73
     7
  0
VERTEX
  5
169A
  8
0
 10
0.0
 20
0.0
 30
0.0
 70
   128
 71
    12
 72
    11
 73
    -7
  0
VERTEX
  5
169B
  8
0
 10
0.0
 20
0.0
 30
0.0
 70
   128
 71
   -12
 72
     7
 73
     8
  0
VERTEX
  5
169C
  8
0
 10
0.0
 20
0.0
 30
0.0
 70
   128
 71
     8
 72
     1
 73
    12
  0
VERTEX
  5
169D
  8
0
 10
0.0
 20
0.0
 30
0.0
 70
   128
 71
     8
 72
     7
 73
    -5
  0
VERTEX
  5
169E
  8
0
 10
0.0
 20
0.0
 30
0.0
 70
   128
 71
    -8
 72
     5
 73
     6
  0
VERTEX
  5
169F
  8
0
 10
0.0
 20
0.0
 30
0.0
 70
   128
 71
     6
 72
     5
 73
    -9
  0
VERTEX
  5
16A0
  8
0
 10
0.0
 20
0.0
 30
0.0
 70
   128
 71
    -6
 72
     9
 73
    10
  0
VERTEX
  5
16A1
  8
0
 10
0.0
 20
0.0
 30
0.0
 70
   128
 71
    13
 72
     4
 73
    10
  0
VERTEX
  5
16A2
  8
0
 10
0.0
 20
0.0
 30
0.0
 70
   128
 71
    10
 72
     9
 73
   -14
  0
VERTEX
  5
16A3
  8
0
 10
0.0
 20
0.0
 30
0.0
 70
   128
 71
   -10
 72
    14
 73
    13
  0
VERTEX
  5
16A4
  8
0
 10
0.0
 20
0.0
 30
0.0
 70
   128
 71
     9
 72
     3
 73
    14
  0
SEQEND
  5
180F
  8
0
  0
POLYLINE
  5
16A5
  8
0
 66
     1
 10
0.0
 20
0.0
 30
0.0
 70
    64
 71
    10
 72
     8
  0
VERTEX
  5
16A6
  8
0
 10
-90.4947469708431
 20
-289.1750503983382
 30
-6.75
 70
   192
  0
VERTEX
  5
16A7
  8
0
 10
-87.43056919836717
 20
-286.6038999595921
 30
-6.75
 70
   192
  0
VERTEX
  5
16A8
  8
0
 10
-82.63302222155804
 20
-292.321393804844
 30
-6.75
 70
   192
  0
VERTEX
  5
16A9
  8
0
 10
-85.69719999403391
 20
-294.8925442435901
 30
-6.75
 70
   192
  0
VERTEX
  5
16AA
  8
0
 10
-84.16511110779595
 20
-293.606969024217
 30
-8.74999999999999
 70
   192
  0
VERTEX
  5
16AB
  8
0
 10
-88.96265808460512
 20
-287.8894751789651
 30
-8.74999999999999
 70
   192
  0
VERTEX
  5
16AC
  8
0
 10
-85.24846154863536
 20
-294.5160079795611
 30
-8.164213562373089
 70
   192
  0
VERTEX
  5
16AD
  8
0
 10
-90.04600852544453
 20
-288.7985141343092
 30
-8.164213562373089
 70
   192
  0
VERTEX
  5
16AE
  8
0
 10
-83.08176066695654
 20
-292.6979300688729
 30
-8.164213562373087
 70
   192
  0
VERTEX
  5
16AF
  8
0
 10
-87.87930764376571
 20
-286.980436223621
 30
-8.164213562373087
 70
   192
  0
VERTEX
  5
16B0
  8
0
 10
0.0
 20
0.0
 30
0.0
 70
   128
 71
     8
 72
     7
 73
    -4
  0
VERTEX
  5
16B1
  8
0
 10
0.0
 20
0.0
 30
0.0
 70
   128
 71
    -8
 72
     4
 73
     1
  0
VERTEX
  5
16B2
  8
0
 10
0.0
 20
0.0
 30
0.0
 70
   128
 71
     6
 72
     5
 73
    -7
  0
VERTEX
  5
16B3
  8
0
 10
0.0
 20
0.0
 30
0.0
 70
   128
 71
    -6
 72
     7
 73
     8
  0
VERTEX
  5
16B4
  8
0
 10
0.0
 20
0.0
 30
0.0
 70
   128
 71
    10
 72
     9
 73
    -5
  0
VERTEX
  5
16B5
  8
0
 10
0.0
 20
0.0
 30
0.0
 70
   128
 71
   -10
 72
     5
 73
     6
  0
VERTEX
  5
16B6
  8
0
 10
0.0
 20
0.0
 30
0.0
 70
   128
 71
     2
 72
     3
 73
    -9
  0
VERTEX
  5
16B7
  8
0
 10
0.0
 20
0.0
 30
0.0
 70
   128
 71
    -2
 72
     9
 73
    10
  0
SEQEND
  5
1810
  8
0
  0
POLYLINE
  5
16B8
  8
0
 66
     1
 10
0.0
 20
0.0
 30
0.0
 70
    64
 71
    14
 72
    12
  0
VERTEX
  5
16B9
  8
0
 10
-91.29283607706942
 20
-289.217662063773
 30
-6.75
 70
   192
  0
VERTEX
  5
16BA
  8
0
 10
-90.49474697084312
 20
-289.1750503983382
 30
-6.75
 70
   192
  0
VERTEX
  5
16BB
  8
0
 10
-87.43056919836717
 20
-286.6038999595921
 30
-6.75
 70
   192
  0
VERTEX
  5
16BC
  8
0
 10
-94.61337115440315
 20
-286.9874049485068
 30
-6.75
 70
   192
  0
VERTEX
  5
16BD
  8
0
 10
-88.96265808460512
 20
-287.8894751789651
 30
-4.750000000000011
 70
   192
  0
VERTEX
  5
16BE
  8
0
 10
-92.95310361573631
 20
-288.1025335061399
 30
-4.749999999999988
 70
   192
  0
VERTEX
  5
16BF
  8
0
 10
-90.04600852544453
 20
-288.7985141343092
 30
-5.335786437626912
 70
   192
  0
VERTEX
  5
16C0
  8
0
 10
-91.77911718056106
 20
-288.8910484711371
 30
-5.335786437626896
 70
   192
  0
VERTEX
  5
16C1
  8
0
 10
-87.87930764376571
 20
-286.980436223621
 30
-5.335786437626912
 70
   192
  0
VERTEX
  5
16C2
  8
0
 10
-94.12709005091156
 20
-287.3140185411427
 30
-5.335786437626895
 70
   192
  0
VERTEX
  5
16C3
  8
0
 10
-90.7514881701064
 20
-289.0126538525048
 30
-6.75
 70
   192
  0
VERTEX
  5
16C4
  8
0
 10
-91.0548466055533
 20
-289.0288508010125
 30
-6.75
 70
   192
  0
VERTEX
  5
16C5
  8
0
 10
-92.47146591075854
 20
-285.2881035836614
 30
-6.75
 70
   192
  0
VERTEX
  5
16C6
  8
0
 10
-89.74123999173652
 20
-285.1423310470918
 30
-6.75
 70
   192
  0
VERTEX
  5
16C7
  8
0
 10
0.0
 20
0.0
 30
0.0
 70
   128
 71
    11
 72
     2
 73
     7
  0
VERTEX
  5
16C8
  8
0
 10
0.0
 20
0.0
 30
0.0
 70
   128
 71
    12
 72
    11
 73
    -7
  0
VERTEX
  5
16C9
  8
0
 10
0.0
 20
0.0
 30
0.0
 70
   128
 71
   -12
 72
     7
 73
     8
  0
VERTEX
  5
16CA
  8
0
 10
0.0
 20
0.0
 30
0.0
 70
   128
 71
     8
 72
     1
 73
    12
  0
VERTEX
  5
16CB
  8
0
 10
0.0
 20
0.0
 30
0.0
 70
   128
 71
     8
 72
     7
 73
    -5
  0
VERTEX
  5
16CC
  8
0
 10
0.0
 20
0.0
 30
0.0
 70
   128
 71
    -8
 72
     5
 73
     6
  0
VERTEX
  5
16CD
  8
0
 10
0.0
 20
0.0
 30
0.0
 70
   128
 71
     6
 72
     5
 73
    -9
  0
VERTEX
  5
16CE
  8
0
 10
0.0
 20
0.0
 30
0.0
 70
   128
 71
    -6
 72
     9
 73
    10
  0
VERTEX
  5
16CF
  8
0
 10
0.0
 20
0.0
 30
0.0
 70
   128
 71
    13
 72
     4
 73
    10
  0
VERTEX
  5
16D0
  8
0
 10
0.0
 20
0.0
 30
0.0
 70
   128
 71
    10
 72
     9
 73
   -14
  0
VERTEX
  5
16D1
  8
0
 10
0.0
 20
0.0
 30
0.0
 70
   128
 71
   -10
 72
    14
 73
    13
  0
VERTEX
  5
16D2
  8
0
 10
0.0
 20
0.0
 30
0.0
 70
   128
 71
     9
 72
     3
 73
    14
  0
SEQEND
  5
1811
  8
0
  0
POLYLINE
  5
16D3
  8
0
 66
     1
 10
0.0
 20
0.0
 30
0.0
 70
    64
 71
    10
 72
     8
  0
VERTEX
  5
16D4
  8
0
 10
-99.88662884559378
 20
-302.0125950514945
 30
-6.75
 70
   192
  0
VERTEX
  5
16D5
  8
0
 10
-103.2071639229276
 20
-299.7823379362283
 30
-6.75
 70
   192
  0
VERTEX
  5
16D6
  8
0
 10
-94.6133711544032
 20
-286.9874049485068
 30
-6.75
 70
   192
  0
VERTEX
  5
16D7
  8
0
 10
-91.29283607706942
 20
-289.217662063773
 30
-6.75
 70
   192
  0
VERTEX
  5
16D8
  8
0
 10
-92.95310361573631
 20
-288.1025335061399
 30
-8.750000000000012
 70
   192
  0
VERTEX
  5
16D9
  8
0
 10
-101.5468963842607
 20
-300.8974664938614
 30
-8.749999999999993
 70
   192
  0
VERTEX
  5
16DA
  8
0
 10
-91.77911718056106
 20
-288.8910484711371
 30
-8.164213562373105
 70
   192
  0
VERTEX
  5
16DB
  8
0
 10
-100.3729099490854
 20
-301.6859814588585
 30
-8.16421356237309
 70
   192
  0
VERTEX
  5
16DC
  8
0
 10
-94.12709005091156
 20
-287.3140185411427
 30
-8.164213562373103
 70
   192
  0
VERTEX
  5
16DD
  8
0
 10
-102.7208828194359
 20
-300.1089515288642
 30
-8.16421356237309
 70
   192
  0
VERTEX
  5
16DE
  8
0
 10
0.0
 20
0.0
 30
0.0
 70
   128
 71
     8
 72
     7
 73
    -4
  0
VERTEX
  5
16DF
  8
0
 10
0.0
 20
0.0
 30
0.0
 70
   128
 71
    -8
 72
     4
 73
     1
  0
VERTEX
  5
16E0
  8
0
 10
0.0
 20
0.0
 30
0.0
 70
   128
 71
     6
 72
     5
 73
    -7
  0
VERTEX
  5
16E1
  8
0
 10
0.0
 20
0.0
 30
0.0
 70
   128
 71
    -6
 72
     7
 73
     8
  0
VERTEX
  5
16E2
  8
0
 10
0.0
 20
0.0
 30
0.0
 70
   128
 71
    10
 72
     9
 73
    -5
  0
VERTEX
  5
16E3
  8
0
 10
0.0
 20
0.0
 30
0.0
 70
   128
 71
   -10
 72
     5
 73
     6
  0
VERTEX
  5
16E4
  8
0
 10
0.0
 20
0.0
 30
0.0
 70
   128
 71
     2
 72
     3
 73
    -9
  0
VERTEX
  5
16E5
  8
0
 10
0.0
 20
0.0
 30
0.0
 70
   128
 71
    -2
 72
     9
 73
    10
  0
SEQEND
  5
1812
  8
0
  0
POLYLINE
  5
16E6
  8
0
 66
     1
 10
0.0
 20
0.0
 30
0.0
 70
    64
 71
    14
 72
    12
  0
VERTEX
  5
16E7
  8
0
 10
-104.0052530291539
 20
-299.824949601663
 30
-6.75
 70
   192
  0
VERTEX
  5
16E8
  8
0
 10
-103.2071639229276
 20
-299.7823379362283
 30
-6.75
 70
   192
  0
VERTEX
  5
16E9
  8
0
 10
-99.88662884559378
 20
-302.0125950514945
 30
-6.75
 70
   192
  0
VERTEX
  5
16EA
  8
0
 10
-107.0694308016298
 20
-302.3961000404092
 30
-6.75
 70
   192
  0
VERTEX
  5
16EB
  8
0
 10
-101.5468963842607
 20
-300.8974664938614
 30
-8.749999999999993
 70
   192
  0
VERTEX
  5
16EC
  8
0
 10
-105.5373419153918
 20
-301.1105248210362
 30
-8.750000000000014
 70
   192
  0
VERTEX
  5
16ED
  8
0
 10
-102.7208828194359
 20
-300.1089515288642
 30
-8.16421356237309
 70
   192
  0
VERTEX
  5
16EE
  8
0
 10
-104.4539914745525
 20
-300.2014858656921
 30
-8.164213562373105
 70
   192
  0
VERTEX
  5
16EF
  8
0
 10
-100.3729099490854
 20
-301.6859814588585
 30
-8.16421356237309
 70
   192
  0
VERTEX
  5
16F0
  8
0
 10
-106.6206923562312
 20
-302.0195637763803
 30
-8.164213562373105
 70
   192
  0
VERTEX
  5
16F1
  8
0
 10
-103.4451533944437
 20
-299.9711491989888
 30
-6.75
 70
   192
  0
VERTEX
  5
16F2
  8
0
 10
-103.7485118298906
 20
-299.9873461474965
 30
-6.75
 70
   192
  0
VERTEX
  5
16F3
  8
0
 10
-104.7587600082604
 20
-303.8576689529095
 30
-6.75
 70
   192
  0
VERTEX
  5
16F4
  8
0
 10
-102.0285340892384
 20
-303.7118964163399
 30
-6.75
 70
   192
  0
VERTEX
  5
16F5
  8
0
 10
0.0
 20
0.0
 30
0.0
 70
   128
 71
    11
 72
     2
 73
     7
  0
VERTEX
  5
16F6
  8
0
 10
0.0
 20
0.0
 30
0.0
 70
   128
 71
    12
 72
    11
 73
    -7
  0
VERTEX
  5
16F7
  8
0
 10
0.0
 20
0.0
 30
0.0
 70
   128
 71
   -12
 72
     7
 73
     8
  0
VERTEX
  5
16F8
  8
0
 10
0.0
 20
0.0
 30
0.0
 70
   128
 71
     8
 72
     1
 73
    12
  0
VERTEX
  5
16F9
  8
0
 10
0.0
 20
0.0
 30
0.0
 70
   128
 71
     8
 72
     7
 73
    -5
  0
VERTEX
  5
16FA
  8
0
 10
0.0
 20
0.0
 30
0.0
 70
   128
 71
    -8
 72
     5
 73
     6
  0
VERTEX
  5
16FB
  8
0
 10
0.0
 20
0.0
 30
0.0
 70
   128
 71
     6
 72
     5
 73
    -9
  0
VERTEX
  5
16FC
  8
0
 10
0.0
 20
0.0
 30
0.0
 70
   128
 71
    -6
 72
     9
 73
    10
  0
VERTEX
  5
16FD
  8
0
 10
0.0
 20
0.0
 30
0.0
 70
   128
 71
    13
 72
     4
 73
    10
  0
VERTEX
  5
16FE
  8
0
 10
0.0
 20
0.0
 30
0.0
 70
   128
 71
    10
 72
     9
 73
   -14
  0
VERTEX
  5
16FF
  8
0
 10
0.0
 20
0.0
 30
0.0
 70
   128
 71
   -10
 72
    14
 73
    13
  0
VERTEX
  5
1700
  8
0
 10
0.0
 20
0.0
 30
0.0
 70
   128
 71
     9
 72
     3
 73
    14
  0
SEQEND
  5
1813
  8
0
  0
POLYLINE
  5
1701
  8
0
 66
     1
 10
0.0
 20
0.0
 30
0.0
 70
    64
 71
    10
 72
     8
  0
VERTEX
  5
1702
  8
0
 10
-111.866977778439
 20
-296.6786061951574
 30
-6.75
 70
   192
  0
VERTEX
  5
1703
  8
0
 10
-108.802800005963
 20
-294.1074557564112
 30
-6.75
 70
   192
  0
VERTEX
  5
1704
  8
0
 10
-104.0052530291539
 20
-299.8249496016631
 30
-6.75
 70
   192
  0
VERTEX
  5
1705
  8
0
 10
-107.0694308016298
 20
-302.3961000404093
 30
-6.75
 70
   192
  0
VERTEX
  5
1706
  8
0
 10
-105.5373419153918
 20
-301.1105248210362
 30
-8.750000000000014
 70
   192
  0
VERTEX
  5
1707
  8
0
 10
-110.334888892201
 20
-295.3930309757843
 30
-8.74999999999999
 70
   192
  0
VERTEX
  5
1708
  8
0
 10
-106.6206923562312
 20
-302.0195637763803
 30
-8.164213562373105
 70
   192
  0
VERTEX
  5
1709
  8
0
 10
-111.4182393330404
 20
-296.3020699311284
 30
-8.164213562373089
 70
   192
  0
VERTEX
  5
170A
  8
0
 10
-104.4539914745525
 20
-300.2014858656921
 30
-8.164213562373105
 70
   192
  0
VERTEX
  5
170B
  8
0
 10
-109.2515384513616
 20
-294.4839920204402
 30
-8.164213562373087
 70
   192
  0
VERTEX
  5
170C
  8
0
 10
0.0
 20
0.0
 30
0.0
 70
   128
 71
     8
 72
     7
 73
    -4
  0
VERTEX
  5
170D
  8
0
 10
0.0
 20
0.0
 30
0.0
 70
   128
 71
    -8
 72
     4
 73
     1
  0
VERTEX
  5
170E
  8
0
 10
0.0
 20
0.0
 30
0.0
 70
   128
 71
     6
 72
     5
 73
    -7
  0
VERTEX
  5
170F
  8
0
 10
0.0
 20
0.0
 30
0.0
 70
   128
 71
    -6
 72
     7
 73
     8
  0
VERTEX
  5
1710
  8
0
 10
0.0
 20
0.0
 30
0.0
 70
   128
 71
    10
 72
     9
 73
    -5
  0
VERTEX
  5
1711
  8
0
 10
0.0
 20
0.0
 30
0.0
 70
   128
 71
   -10
 72
     5
 73
     6
  0
VERTEX
  5
1712
  8
0
 10
0.0
 20
0.0
 30
0.0
 70
   128
 71
     2
 72
     3
 73
    -9
  0
VERTEX
  5
1713
  8
0
 10
0.0
 20
0.0
 30
0.0
 70
   128
 71
    -2
 72
     9
 73
    10
  0
SEQEND
  5
1814
  8
0
  0
POLYLINE
  5
1714
  8
0
 66
     1
 10
0.0
 20
0.0
 30
0.0
 70
    64
 71
    16
 72
    14
  0
VERTEX
  5
1715
  8
0
 10
-111.9752455109614
 20
-296.5822560942985
 30
-6.75
 70
   192
  0
VERTEX
  5
1716
  8
0
 10
-111.8669777784411
 20
-296.6786061951591
 30
-6.75
 70
   192
  0
VERTEX
  5
1717
  8
0
 10
-111.4182393330404
 20
-296.3020699311284
 30
-5.335786437626912
 70
   192
  0
VERTEX
  5
1718
  8
0
 10
-112.1065983836363
 20
-296.5210052438477
 30
-6.75
 70
   192
  0
VERTEX
  5
1719
  8
0
 10
-112.249999999987
 20
-296.2320508075723
 30
-5.749999999999999
 70
   192
  0
VERTEX
  5
171A
  8
0
 10
-112.2499999999869
 20
-296.5000000000034
 30
-6.75
 70
   192
  0
VERTEX
  5
171B
  8
0
 10
-110.334888892201
 20
-295.3930309757843
 30
-4.750000000000011
 70
   192
  0
VERTEX
  5
171C
  8
0
 10
-112.2499999999871
 20
-294.5000000000034
 30
-4.749999999999998
 70
   192
  0
VERTEX
  5
171D
  8
0
 10
-112.249999999987
 20
-295.5000000000034
 30
-5.017949192431121
 70
   192
  0
VERTEX
  5
171E
  8
0
 10
-112.2499999999871
 20
-293.5000000000034
 30
-5.017949192431121
 70
   192
  0
VERTEX
  5
171F
  8
0
 10
-109.2515384513616
 20
-294.4839920204402
 30
-5.335786437626912
 70
   192
  0
VERTEX
  5
1720
  8
0
 10
-110.9593854527921
 20
-292.6890471945857
 30
-6.75
 70
   192
  0
VERTEX
  5
1721
  8
0
 10
-112.2499999999872
 20
-292.5000000000034
 30
-6.75
 70
   192
  0
VERTEX
  5
1722
  8
0
 10
-112.2499999999872
 20
-292.7679491924345
 30
-5.749999999999998
 70
   192
  0
VERTEX
  5
1723
  8
0
 10
-108.802800005963
 20
-294.1074557564112
 30
-6.75
 70
   192
  0
VERTEX
  5
1724
  8
0
 10
-109.7772095986782
 20
-293.2403048486468
 30
-6.75
 70
   192
  0
VERTEX
  5
1725
  8
0
 10
0.0
 20
0.0
 30
0.0
 70
   128
 71
     1
 72
     2
 73
     3
  0
VERTEX
  5
1726
  8
0
 10
0.0
 20
0.0
 30
0.0
 70
   128
 71
     4
 72
     1
 73
     5
  0
VERTEX
  5
1727
  8
0
 10
0.0
 20
0.0
 30
0.0
 70
   128
 71
     5
 72
     6
 73
     4
  0
VERTEX
  5
1728
  8
0
 10
0.0
 20
0.0
 30
0.0
 70
   128
 71
     3
 72
     7
 73
     8
  0
VERTEX
  5
1729
  8
0
 10
0.0
 20
0.0
 30
0.0
 70
   128
 71
     3
 72
     8
 73
     9
  0
VERTEX
  5
172A
  8
0
 10
0.0
 20
0.0
 30
0.0
 70
   128
 71
    10
 72
     8
 73
     7
  0
VERTEX
  5
172B
  8
0
 10
0.0
 20
0.0
 30
0.0
 70
   128
 71
    10
 72
     7
 73
    11
  0
VERTEX
  5
172C
  8
0
 10
0.0
 20
0.0
 30
0.0
 70
   128
 71
    12
 72
    13
 73
    14
  0
VERTEX
  5
172D
  8
0
 10
0.0
 20
0.0
 30
0.0
 70
   128
 71
    11
 72
    15
 73
    16
  0
VERTEX
  5
172E
  8
0
 10
0.0
 20
0.0
 30
0.0
 70
   128
 71
     9
 72
     5
 73
     1
  0
VERTEX
  5
172F
  8
0
 10
0.0
 20
0.0
 30
0.0
 70
   128
 71
     9
 72
     1
 73
     3
  0
VERTEX
  5
1730
  8
0
 10
0.0
 20
0.0
 30
0.0
 70
   128
 71
    14
 72
    10
 73
    11
  0
VERTEX
  5
1731
  8
0
 10
0.0
 20
0.0
 30
0.0
 70
   128
 71
    14
 72
    11
 73
    16
  0
VERTEX
  5
1732
  8
0
 10
0.0
 20
0.0
 30
0.0
 70
   128
 71
    14
 72
    16
 73
    12
  0
SEQEND
  5
1815
  8
0
  0
POLYLINE
  5
1733
  8
0
 66
     1
 10
0.0
 20
0.0
 30
0.0
 70
    64
 71
    12
 72
    10
  0
VERTEX
  5
1734
  8
0
 10
-112.249999999987
 20
-295.5000000000034
 30
-5.017949192431121
 70
   192
  0
VERTEX
  5
1735
  8
0
 10
-112.2499999999871
 20
-294.5000000000034
 30
-4.749999999999998
 70
   192
  0
VERTEX
  5
1736
  8
0
 10
-122.2499999999871
 20
-294.5000000000034
 30
-4.75
 70
   192
  0
VERTEX
  5
1737
  8
0
 10
-122.249999999987
 20
-295.9142135623765
 30
-5.335786437626903
 70
   192
  0
VERTEX
  5
1738
  8
0
 10
-122.249999999987
 20
-296.5000000000034
 30
-6.75
 70
   192
  0
VERTEX
  5
1739
  8
0
 10
-112.2499999999869
 20
-296.5000000000034
 30
-6.750000000000001
 70
   192
  0
VERTEX
  5
173A
  8
0
 10
-112.249999999987
 20
-296.2320508075723
 30
-5.749999999999999
 70
   192
  0
VERTEX
  5
173B
  8
0
 10
-112.249999999987
 20
-296.2320508075723
 30
-7.750000000000002
 70
   192
  0
VERTEX
  5
173C
  8
0
 10
-122.249999999987
 20
-295.9142135623765
 30
-8.164213562373096
 70
   192
  0
VERTEX
  5
173D
  8
0
 10
-122.2499999999871
 20
-294.5000000000034
 30
-8.750000000000002
 70
   192
  0
VERTEX
  5
173E
  8
0
 10
-112.2499999999871
 20
-294.5000000000034
 30
-8.75
 70
   192
  0
VERTEX
  5
173F
  8
0
 10
-112.249999999987
 20
-295.5000000000034
 30
-8.482050807568879
 70
   192
  0
VERTEX
  5
1740
  8
0
 10
0.0
 20
0.0
 30
0.0
 70
   128
 71
     1
 72
     2
 73
     3
  0
VERTEX
  5
1741
  8
0
 10
0.0
 20
0.0
 30
0.0
 70
   128
 71
     1
 72
     3
 73
     4
  0
VERTEX
  5
1742
  8
0
 10
0.0
 20
0.0
 30
0.0
 70
   128
 71
     4
 72
     5
 73
     6
  0
VERTEX
  5
1743
  8
0
 10
0.0
 20
0.0
 30
0.0
 70
   128
 71
     4
 72
     6
 73
     7
  0
VERTEX
  5
1744
  8
0
 10
0.0
 20
0.0
 30
0.0
 70
   128
 71
     8
 72
     6
 73
     5
  0
VERTEX
  5
1745
  8
0
 10
0.0
 20
0.0
 30
0.0
 70
   128
 71
     8
 72
     5
 73
     9
  0
VERTEX
  5
1746
  8
0
 10
0.0
 20
0.0
 30
0.0
 70
   128
 71
     9
 72
    10
 73
    11
  0
VERTEX
  5
1747
  8
0
 10
0.0
 20
0.0
 30
0.0
 70
   128
 71
     9
 72
    11
 73
    12
  0
VERTEX
  5
1748
  8
0
 10
0.0
 20
0.0
 30
0.0
 70
   128
 71
     1
 72
     4
 73
     7
  0
VERTEX
  5
1749
  8
0
 10
0.0
 20
0.0
 30
0.0
 70
   128
 71
     8
 72
     9
 73
    12
  0
SEQEND
  5
1816
  8
0
  0
POLYLINE
  5
174A
  8
0
 66
     1
 10
0.0
 20
0.0
 30
0.0
 70
    64
 71
     8
 72
     6
  0
VERTEX
  5
174B
  8
0
 10
-122.2499999999871
 20
-294.5000000000034
 30
-8.750000000000002
 70
   192
  0
VERTEX
  5
174C
  8
0
 10
-122.249999999987
 20
-295.9142135623765
 30
-8.164213562373096
 70
   192
  0
VERTEX
  5
174D
  8
0
 10
-122.249999999987
 20
-296.5000000000034
 30
-6.75
 70
   192
  0
VERTEX
  5
174E
  8
0
 10
-122.249999999987
 20
-295.9142135623765
 30
-5.335786437626903
 70
   192
  0
VERTEX
  5
174F
  8
0
 10
-122.2499999999871
 20
-294.5000000000034
 30
-4.749999999999998
 70
   192
  0
VERTEX
  5
1750
  8
0
 10
-122.2499999999872
 20
-293.0857864376302
 30
-5.335786437626903
 70
   192
  0
VERTEX
  5
1751
  8
0
 10
-122.2499999999872
 20
-292.5000000000034
 30
-6.75
 70
   192
  0
VERTEX
  5
1752
  8
0
 10
-122.2499999999872
 20
-293.0857864376302
 30
-8.164213562373096
 70
   192
  0
VERTEX
  5
1753
  8
0
 10
0.0
 20
0.0
 30
0.0
 70
   128
 71
     7
 72
     8
 73
    -1
  0
VERTEX
  5
1754
  8
0
 10
0.0
 20
0.0
 30
0.0
 70
   128
 71
     6
 72
    -7
 73
    -1
  0
VERTEX
  5
1755
  8
0
 10
0.0
 20
0.0
 30
0.0
 70
   128
 71
     5
 72
    -6
 73
    -1
  0
VERTEX
  5
1756
  8
0
 10
0.0
 20
0.0
 30
0.0
 70
   128
 71
     4
 72
    -5
 73
    -1
  0
VERTEX
  5
1757
  8
0
 10
0.0
 20
0.0
 30
0.0
 70
   128
 71
     3
 72
    -4
 73
    -1
  0
VERTEX
  5
1758
  8
0
 10
0.0
 20
0.0
 30
0.0
 70
   128
 71
     2
 72
    -3
 73
     1
  0
SEQEND
  5
1817
  8
0
  0
ENDBLK
  5
17F3
  8
0
  0
ENDSEC
  0
SECTION
  2
ENTITIES
  0
INSERT
  5
BD
  8
0
  2
*X1
 10
0.0
 20
0.0
 30
0.0
  0
INSERT
  5
BE
  8
0
  2
*X2
 10
0.0
 20
0.0
 30
0.0
  0
INSERT
  5
BF
  8
0
  2
*X3
 10
0.0
 20
0.0
 30
0.0
  0
INSERT
  5
C0
  8
0
  2
*X4
 10
0.0
 20
0.0
 30
0.0
  0
INSERT
  5
C1
  8
0
  2
*X5
 10
0.0
 20
0.0
 30
0.0
  0
INSERT
  5
C2
  8
0
  2
*X6
 10
0.0
 20
0.0
 30
0.0
  0
INSERT
  5
C3
  8
0
  2
*X7
 10
0.0
 20
0.0
 30
0.0
  0
INSERT
  5
C4
  8
0
  2
*X8
 10
0.0
 20
0.0
 30
0.0
  0
INSERT
  5
C5
  8
0
  2
*X9
 10
0.0
 20
0.0
 30
0.0
  0
INSERT
  5
C6
  8
0
  2
*X10
 10
0.0
 20
0.0
 30
0.0
  0
ENDSEC
  0
EOF
