  0
SECTION
  2
HEADER
  9
$ACADVER
  1
AC1009
  9
$DWGCODEPAGE
  3
ansi_1250
  9
$INSBASE
 10
0.0
 20
0.0
 30
0.0
  9
$EXTMIN
 10
-478.458772614689
 20
-336.5775926411702
 30
-22.0
  9
$EXTMAX
 10
481.5412273853108
 20
343.5524736147291
 30
5.0
  9
$LIMMIN
 10
0.0
 20
0.0
  9
$LIMMAX
 10
420.0
 20
297.0
  9
$ORTHOMODE
 70
     0
  9
$REGENMODE
 70
     1
  9
$FILLMODE
 70
     1
  9
$QTEXTMODE
 70
     0
  9
$MIRRTEXT
 70
     0
  9
$DRAGMODE
 70
     2
  9
$LTSCALE
 40
1.0
  9
$OSMODE
 70
   511
  9
$ATTMODE
 70
     1
  9
$TEXTSIZE
 40
2.5
  9
$TRACEWID
 40
1.0
  9
$TEXTSTYLE
  7
STANDARD
  9
$CLAYER
  8
0
  9
$CELTYPE
  6
BYLAYER
  9
$CECOLOR
 62
   256
  9
$DIMSCALE
 40
1.0
  9
$DIMASZ
 40
2.5
  9
$DIMEXO
 40
0.625
  9
$DIMDLI
 40
3.75
  9
$DIMRND
 40
0.0
  9
$DIMDLE
 40
0.0
  9
$DIMEXE
 40
1.25
  9
$DIMTP
 40
0.0
  9
$DIMTM
 40
0.0
  9
$DIMTXT
 40
2.5
  9
$DIMCEN
 40
-2.5
  9
$DIMTSZ
 40
0.0
  9
$DIMTOL
 70
     0
  9
$DIMLIM
 70
     0
  9
$DIMTIH
 70
     0
  9
$DIMTOH
 70
     0
  9
$DIMSE1
 70
     0
  9
$DIMSE2
 70
     0
  9
$DIMTAD
 70
     1
  9
$DIMZIN
 70
     8
  9
$DIMBLK
  1

  9
$DIMASO
 70
     1
  9
$DIMSHO
 70
     1
  9
$DIMPOST
  1

  9
$DIMAPOST
  1

  9
$DIMALT
 70
     0
  9
$DIMALTD
 70
     3
  9
$DIMALTF
 40
0.03937007874016
  9
$DIMLFAC
 40
1.0
  9
$DIMTOFL
 70
     1
  9
$DIMTVP
 40
0.0
  9
$DIMTIX
 70
     0
  9
$DIMSOXD
 70
     0
  9
$DIMSAH
 70
     0
  9
$DIMBLK1
  1

  9
$DIMBLK2
  1

  9
$DIMSTYLE
  2
ISO-25
  9
$DIMCLRD
 70
     0
  9
$DIMCLRE
 70
     0
  9
$DIMCLRT
 70
     0
  9
$DIMTFAC
 40
1.0
  9
$DIMGAP
 40
0.625
  9
$LUNITS
 70
     2
  9
$LUPREC
 70
     3
  9
$SKETCHINC
 40
1.0
  9
$FILLETRAD
 40
10.0
  9
$AUNITS
 70
     0
  9
$AUPREC
 70
     0
  9
$MENU
  1
.
  9
$ELEVATION
 40
0.0
  9
$PELEVATION
 40
0.0
  9
$THICKNESS
 40
0.0
  9
$LIMCHECK
 70
     0
  9
$CHAMFERA
 40
10.0
  9
$CHAMFERB
 40
10.0
  9
$SKPOLY
 70
     0
  9
$TDCREATE
 40
2455022.720692848
  9
$TDUPDATE
 40
2460489.717720752
  9
$TDINDWG
 40
0.0001345602
  9
$TDUSRTIMER
 40
0.0001345602
  9
$USRTIMER
 70
     1
  9
$ANGBASE
 50
0.0
  9
$ANGDIR
 70
     0
  9
$PDMODE
 70
     0
  9
$PDSIZE
 40
0.0
  9
$PLINEWID
 40
0.0
  9
$COORDS
 70
     1
  9
$SPLFRAME
 70
     0
  9
$SPLINETYPE
 70
     6
  9
$SPLINESEGS
 70
     8
  9
$ATTDIA
 70
     0
  9
$ATTREQ
 70
     1
  9
$HANDLING
 70
     1
  9
$HANDSEED
  5
1A2D
  9
$SURFTAB1
 70
     6
  9
$SURFTAB2
 70
     6
  9
$SURFTYPE
 70
     6
  9
$SURFU
 70
     6
  9
$SURFV
 70
     6
  9
$UCSNAME
  2

  9
$UCSORG
 10
0.0
 20
0.0
 30
0.0
  9
$UCSXDIR
 10
1.0
 20
0.0
 30
0.0
  9
$UCSYDIR
 10
0.0
 20
1.0
 30
0.0
  9
$PUCSNAME
  2

  9
$PUCSORG
 10
0.0
 20
0.0
 30
0.0
  9
$PUCSXDIR
 10
1.0
 20
0.0
 30
0.0
  9
$PUCSYDIR
 10
0.0
 20
1.0
 30
0.0
  9
$USERI1
 70
     0
  9
$USERI2
 70
     0
  9
$USERI3
 70
     0
  9
$USERI4
 70
     0
  9
$USERI5
 70
     0
  9
$USERR1
 40
0.0
  9
$USERR2
 40
0.0
  9
$USERR3
 40
0.0
  9
$USERR4
 40
0.0
  9
$USERR5
 40
0.0
  9
$WORLDVIEW
 70
     1
  9
$SHADEDGE
 70
     3
  9
$SHADEDIF
 70
    70
  9
$TILEMODE
 70
     1
  9
$MAXACTVP
 70
    64
  9
$PLIMCHECK
 70
     0
  9
$PEXTMIN
 10
1.000000000000000E+20
 20
1.000000000000000E+20
 30
1.000000000000000E+20
  9
$PEXTMAX
 10
-1.000000000000000E+20
 20
-1.000000000000000E+20
 30
-1.000000000000000E+20
  9
$PLIMMIN
 10
0.0
 20
0.0
  9
$PLIMMAX
 10
0.0
 20
0.0
  9
$UNITMODE
 70
     0
  9
$VISRETAIN
 70
     1
  9
$PLINEGEN
 70
     0
  9
$PSLTSCALE
 70
     1
  0
ENDSEC
  0
SECTION
  2
TABLES
  0
TABLE
  2
VPORT
 70
     1
  0
VPORT
  2
*ACTIVE
 70
     0
 10
0.0
 20
0.0
 11
1.0
 21
1.0
 12
-93.5082976891254
 22
-63.77474501381031
 13
0.0
 23
0.0
 14
10.0
 24
10.0
 15
10.0
 25
10.0
 16
0.5773502691896226
 26
0.5773502691896226
 36
0.5773502691896226
 17
-134.1869158878504
 27
-0.0000000000000142
 37
0.0000000000000071
 40
705.4582174398499
 41
1.88293897882939
 42
50.0
 43
0.0
 44
0.0
 50
0.0
 51
0.0
 71
    16
 72
  1000
 73
     1
 74
     3
 75
     0
 76
     0
 77
     0
 78
     0
  0
ENDTAB
  0
TABLE
  2
LTYPE
 70
     1
  0
LTYPE
  2
CONTINUOUS
 70
     0
  3
Solid line
 72
    65
 73
     0
 40
0.0
  0
ENDTAB
  0
TABLE
  2
LAYER
 70
     1
  0
LAYER
  2
0
 70
     0
 62
     7
  6
CONTINUOUS
  0
ENDTAB
  0
TABLE
  2
STYLE
 70
     2
  0
STYLE
  2
STANDARD
 70
     0
 40
0.0
 41
1.0
 50
0.0
 71
     0
 42
2.5
  3
arial.ttf
  4

  0
STYLE
  2
ANNOTATIVE
 70
     0
 40
0.0
 41
1.0
 50
0.0
 71
     0
 42
2.5
  3
arial.ttf
  4

  0
ENDTAB
  0
TABLE
  2
VIEW
 70
     0
  0
ENDTAB
  0
TABLE
  2
UCS
 70
     0
  0
ENDTAB
  0
TABLE
  2
APPID
 70
     2
  0
APPID
  2
ACAD
 70
     0
  0
APPID
  2
ACADANNOTATIVE
 70
     0
  0
ENDTAB
  0
TABLE
  2
DIMSTYLE
 70
     2
  0
DIMSTYLE
  2
ISO-25
 70
     0
  3

  4

  5

  6

  7

 40
1.0
 41
2.5
 42
0.625
 43
3.75
 44
1.25
 45
0.0
 46
0.0
 47
0.0
 48
0.0
140
2.5
141
-2.5
142
0.0
143
0.03937007874016
144
1.0
145
0.0
146
1.0
147
0.625
 71
     0
 72
     0
 73
     0
 74
     0
 75
     0
 76
     0
 77
     1
 78
     8
170
     0
171
     3
172
     1
173
     0
174
     0
175
     0
176
     0
177
     0
178
     0
  0
DIMSTYLE
  2
ANNOTATIVE
 70
     0
  3

  4

  5

  6

  7

 40
0.0
 41
2.5
 42
0.625
 43
3.75
 44
1.25
 45
0.0
 46
0.0
 47
0.0
 48
0.0
140
2.5
141
-2.5
142
0.0
143
0.03937007874016
144
1.0
145
0.0
146
1.0
147
0.625
 71
     0
 72
     0
 73
     0
 74
     0
 75
     0
 76
     0
 77
     1
 78
     8
170
     0
171
     3
172
     1
173
     0
174
     0
175
     0
176
     0
177
     0
178
     0
  0
ENDTAB
  0
ENDSEC
  0
SECTION
  2
BLOCKS
  0
BLOCK
  8
0
  2
$MODEL_SPACE
 70
     0
 10
0.0
 20
0.0
 30
0.0
  3
$MODEL_SPACE
  1

  0
ENDBLK
  5
21
  8
0
  0
BLOCK
 67
     1
  8
0
  2
$PAPER_SPACE
 70
     0
 10
0.0
 20
0.0
 30
0.0
  3
$PAPER_SPACE
  1

  0
ENDBLK
  5
1D
 67
     1
  8
0
  0
BLOCK
  8
0
  2
*X1
 70
     1
 10
0.0
 20
0.0
 30
0.0
  3
*X1
  1

  0
POLYLINE
  5
D80
  8
0
 66
     1
 10
0.0
 20
0.0
 30
0.0
 70
    64
 71
     8
 72
     6
  0
VERTEX
  5
D81
  8
0
 10
-426.0176338590765
 20
-75.44715106605034
 30
4.5
 70
   192
  0
VERTEX
  5
D82
  8
0
 10
-426.0176338590765
 20
-75.44715106605034
 30
4.999999999999999
 70
   192
  0
VERTEX
  5
D83
  8
0
 10
-457.4737329702569
 20
-24.97243855290141
 30
4.999999999999999
 70
   192
  0
VERTEX
  5
D84
  8
0
 10
-457.4737329702569
 20
-24.97243855290141
 30
4.5
 70
   192
  0
VERTEX
  5
D85
  8
0
 10
-378.3829783235007
 20
-111.0578568521546
 30
4.5
 70
   192
  0
VERTEX
  5
D86
  8
0
 10
-378.3829783235007
 20
-111.0578568521546
 30
4.999999999999999
 70
   192
  0
VERTEX
  5
D87
  8
0
 10
-468.458772614689
 20
33.47849538820596
 30
4.999999999999999
 70
   192
  0
VERTEX
  5
D88
  8
0
 10
-468.4587726146891
 20
33.47849538820601
 30
4.5
 70
   192
  0
VERTEX
  5
D89
  8
0
 10
0.0
 20
0.0
 30
0.0
 70
   128
 71
     1
 72
     2
 73
    -3
  0
VERTEX
  5
D8A
  8
0
 10
0.0
 20
0.0
 30
0.0
 70
   128
 71
    -1
 72
     3
 73
     4
  0
VERTEX
  5
D8B
  8
0
 10
0.0
 20
0.0
 30
0.0
 70
   128
 71
     5
 72
     6
 73
    -2
  0
VERTEX
  5
D8C
  8
0
 10
0.0
 20
0.0
 30
0.0
 70
   128
 71
    -5
 72
     2
 73
     1
  0
VERTEX
  5
D8D
  8
0
 10
0.0
 20
0.0
 30
0.0
 70
   128
 71
     4
 72
     3
 73
    -7
  0
VERTEX
  5
D8E
  8
0
 10
0.0
 20
0.0
 30
0.0
 70
   128
 71
    -4
 72
     7
 73
     8
  0
SEQEND
  5
197F
  8
0
  0
POLYLINE
  5
D8F
  8
0
 66
     1
 10
0.0
 20
0.0
 30
0.0
 70
    64
 71
     8
 72
     6
  0
VERTEX
  5
D90
  8
0
 10
-433.3815382909526
 20
-82.21271915145121
 30
0.0
 70
   192
  0
VERTEX
  5
D91
  8
0
 10
-433.3815382909526
 20
-82.21271915145121
 30
4.5
 70
   192
  0
VERTEX
  5
D92
  8
0
 10
-466.7914323729732
 20
-28.60293133496548
 30
4.5
 70
   192
  0
VERTEX
  5
D93
  8
0
 10
-466.7914323729732
 20
-28.60293133496548
 30
0.0
 70
   192
  0
VERTEX
  5
D94
  8
0
 10
-382.7882085060947
 20
-120.0352700117658
 30
0.0
 70
   192
  0
VERTEX
  5
D95
  8
0
 10
-382.7882085060947
 20
-120.0352700117659
 30
4.5
 70
   192
  0
VERTEX
  5
D96
  8
0
 10
-478.4587726146889
 20
33.47849538820596
 30
4.5
 70
   192
  0
VERTEX
  5
D97
  8
0
 10
-478.4587726146889
 20
33.47849538820601
 30
0.0
 70
   192
  0
VERTEX
  5
D98
  8
0
 10
0.0
 20
0.0
 30
0.0
 70
   128
 71
     1
 72
     2
 73
    -3
  0
VERTEX
  5
D99
  8
0
 10
0.0
 20
0.0
 30
0.0
 70
   128
 71
    -1
 72
     3
 73
     4
  0
VERTEX
  5
D9A
  8
0
 10
0.0
 20
0.0
 30
0.0
 70
   128
 71
     5
 72
     6
 73
    -2
  0
VERTEX
  5
D9B
  8
0
 10
0.0
 20
0.0
 30
0.0
 70
   128
 71
    -5
 72
     2
 73
     1
  0
VERTEX
  5
D9C
  8
0
 10
0.0
 20
0.0
 30
0.0
 70
   128
 71
     4
 72
     3
 73
    -7
  0
VERTEX
  5
D9D
  8
0
 10
0.0
 20
0.0
 30
0.0
 70
   128
 71
    -4
 72
     7
 73
     8
  0
SEQEND
  5
1980
  8
0
  0
POLYLINE
  5
D9E
  8
0
 66
     1
 10
0.0
 20
0.0
 30
0.0
 70
    64
 71
     8
 72
     6
  0
VERTEX
  5
D9F
  8
0
 10
-468.2032621309316
 20
91.80695412517665
 30
0.0
 70
   192
  0
VERTEX
  5
DA0
  8
0
 10
-468.2032621309316
 20
91.80695412517665
 30
4.5
 70
   192
  0
VERTEX
  5
DA1
  8
0
 10
-438.6668534285316
 20
143.1390605974199
 30
4.5
 70
   192
  0
VERTEX
  5
DA2
  8
0
 10
-438.6668534285316
 20
143.1390605974199
 30
0.0
 70
   192
  0
VERTEX
  5
DA3
  8
0
 10
-478.4587726146889
 20
33.47849538820601
 30
0.0
 70
   192
  0
VERTEX
  5
DA4
  8
0
 10
-478.4587726146889
 20
33.47849538820601
 30
4.5
 70
   192
  0
VERTEX
  5
DA5
  8
0
 10
-393.3923646170637
 20
181.3176574387552
 30
4.5
 70
   192
  0
VERTEX
  5
DA6
  8
0
 10
-393.3923646170637
 20
181.3176574387552
 30
0.0
 70
   192
  0
VERTEX
  5
DA7
  8
0
 10
0.0
 20
0.0
 30
0.0
 70
   128
 71
     1
 72
     2
 73
    -3
  0
VERTEX
  5
DA8
  8
0
 10
0.0
 20
0.0
 30
0.0
 70
   128
 71
    -1
 72
     3
 73
     4
  0
VERTEX
  5
DA9
  8
0
 10
0.0
 20
0.0
 30
0.0
 70
   128
 71
     5
 72
     6
 73
    -2
  0
VERTEX
  5
DAA
  8
0
 10
0.0
 20
0.0
 30
0.0
 70
   128
 71
    -5
 72
     2
 73
     1
  0
VERTEX
  5
DAB
  8
0
 10
0.0
 20
0.0
 30
0.0
 70
   128
 71
     4
 72
     3
 73
    -7
  0
VERTEX
  5
DAC
  8
0
 10
0.0
 20
0.0
 30
0.0
 70
   128
 71
    -4
 72
     7
 73
     8
  0
SEQEND
  5
1981
  8
0
  0
POLYLINE
  5
DAD
  8
0
 66
     1
 10
0.0
 20
0.0
 30
0.0
 70
    64
 71
     8
 72
     6
  0
VERTEX
  5
DAE
  8
0
 10
87.58982471261504
 20
-290.0225309834266
 30
0.0
 70
   192
  0
VERTEX
  5
DAF
  8
0
 10
87.58982471261504
 20
-290.0225309834266
 30
4.5
 70
   192
  0
VERTEX
  5
DB0
  8
0
 10
-152.2530123451006
 20
-217.9066590833843
 30
4.5
 70
   192
  0
VERTEX
  5
DB1
  8
0
 10
-152.2530123451006
 20
-217.9066590833843
 30
0.0
 70
   192
  0
VERTEX
  5
DB2
  8
0
 10
333.8726066127728
 20
-335.5206277273076
 30
0.0
 70
   192
  0
VERTEX
  5
DB3
  8
0
 10
333.8726066127716
 20
-335.5206277273081
 30
4.5
 70
   192
  0
VERTEX
  5
DB4
  8
0
 10
-382.7882085060949
 20
-120.0352700117658
 30
4.5
 70
   192
  0
VERTEX
  5
DB5
  8
0
 10
-382.7882085060947
 20
-120.0352700117659
 30
0.0
 70
   192
  0
VERTEX
  5
DB6
  8
0
 10
0.0
 20
0.0
 30
0.0
 70
   128
 71
     1
 72
     2
 73
    -3
  0
VERTEX
  5
DB7
  8
0
 10
0.0
 20
0.0
 30
0.0
 70
   128
 71
    -1
 72
     3
 73
     4
  0
VERTEX
  5
DB8
  8
0
 10
0.0
 20
0.0
 30
0.0
 70
   128
 71
     5
 72
     6
 73
    -2
  0
VERTEX
  5
DB9
  8
0
 10
0.0
 20
0.0
 30
0.0
 70
   128
 71
    -5
 72
     2
 73
     1
  0
VERTEX
  5
DBA
  8
0
 10
0.0
 20
0.0
 30
0.0
 70
   128
 71
     4
 72
     3
 73
    -7
  0
VERTEX
  5
DBB
  8
0
 10
0.0
 20
0.0
 30
0.0
 70
   128
 71
    -4
 72
     7
 73
     8
  0
SEQEND
  5
1982
  8
0
  0
POLYLINE
  5
DBC
  8
0
 66
     1
 10
0.0
 20
0.0
 30
0.0
 70
    64
 71
     8
 72
     6
  0
VERTEX
  5
DBD
  8
0
 10
455.6431856869735
 20
-282.3061966947963
 30
0.0
 70
   192
  0
VERTEX
  5
DBE
  8
0
 10
455.6431856869735
 20
-282.3061966947963
 30
4.5
 70
   192
  0
VERTEX
  5
DBF
  8
0
 10
402.121298031097
 20
-325.7630842574365
 30
4.5
 70
   192
  0
VERTEX
  5
DC0
  8
0
 10
402.121298031097
 20
-325.7630842574365
 30
0.0
 70
   192
  0
VERTEX
  5
DC1
  8
0
 10
479.2082586365357
 20
-217.5159129188932
 30
0.0
 70
   192
  0
VERTEX
  5
DC2
  8
0
 10
479.2082586365361
 20
-217.5159129188933
 30
4.5
 70
   192
  0
VERTEX
  5
DC3
  8
0
 10
333.8726066127716
 20
-335.5206277273081
 30
4.5
 70
   192
  0
VERTEX
  5
DC4
  8
0
 10
333.8726066127716
 20
-335.5206277273081
 30
0.0
 70
   192
  0
VERTEX
  5
DC5
  8
0
 10
0.0
 20
0.0
 30
0.0
 70
   128
 71
     1
 72
     2
 73
    -3
  0
VERTEX
  5
DC6
  8
0
 10
0.0
 20
0.0
 30
0.0
 70
   128
 71
    -1
 72
     3
 73
     4
  0
VERTEX
  5
DC7
  8
0
 10
0.0
 20
0.0
 30
0.0
 70
   128
 71
     5
 72
     6
 73
    -2
  0
VERTEX
  5
DC8
  8
0
 10
0.0
 20
0.0
 30
0.0
 70
   128
 71
    -5
 72
     2
 73
     1
  0
VERTEX
  5
DC9
  8
0
 10
0.0
 20
0.0
 30
0.0
 70
   128
 71
     4
 72
     3
 73
    -7
  0
VERTEX
  5
DCA
  8
0
 10
0.0
 20
0.0
 30
0.0
 70
   128
 71
    -4
 72
     7
 73
     8
  0
SEQEND
  5
1983
  8
0
  0
POLYLINE
  5
DCB
  8
0
 66
     1
 10
0.0
 20
0.0
 30
0.0
 70
    64
 71
     8
 72
     6
  0
VERTEX
  5
DCC
  8
0
 10
437.7624578616372
 20
94.26302231440775
 30
0.0
 70
   192
  0
VERTEX
  5
DCD
  8
0
 10
437.7624578616372
 20
94.26302231440775
 30
4.5
 70
   192
  0
VERTEX
  5
DCE
  8
0
 10
474.9937618939435
 20
-59.43192883157604
 30
4.5
 70
   192
  0
VERTEX
  5
DCF
  8
0
 10
474.9937618939435
 20
-59.43192883157604
 30
0.0
 70
   192
  0
VERTEX
  5
DD0
  8
0
 10
369.1659340802469
 20
236.75100402803
 30
0.0
 70
   192
  0
VERTEX
  5
DD1
  8
0
 10
369.1659340802469
 20
236.7510040280299
 30
4.5
 70
   192
  0
VERTEX
  5
DD2
  8
0
 10
479.2082586365361
 20
-217.5159129188929
 30
4.5
 70
   192
  0
VERTEX
  5
DD3
  8
0
 10
479.2082586365361
 20
-217.5159129188933
 30
0.0
 70
   192
  0
VERTEX
  5
DD4
  8
0
 10
0.0
 20
0.0
 30
0.0
 70
   128
 71
     1
 72
     2
 73
    -3
  0
VERTEX
  5
DD5
  8
0
 10
0.0
 20
0.0
 30
0.0
 70
   128
 71
    -1
 72
     3
 73
     4
  0
VERTEX
  5
DD6
  8
0
 10
0.0
 20
0.0
 30
0.0
 70
   128
 71
     5
 72
     6
 73
    -2
  0
VERTEX
  5
DD7
  8
0
 10
0.0
 20
0.0
 30
0.0
 70
   128
 71
    -5
 72
     2
 73
     1
  0
VERTEX
  5
DD8
  8
0
 10
0.0
 20
0.0
 30
0.0
 70
   128
 71
     4
 72
     3
 73
    -7
  0
VERTEX
  5
DD9
  8
0
 10
0.0
 20
0.0
 30
0.0
 70
   128
 71
    -4
 72
     7
 73
     8
  0
SEQEND
  5
1984
  8
0
  0
POLYLINE
  5
DDA
  8
0
 66
     1
 10
0.0
 20
0.0
 30
0.0
 70
    64
 71
     8
 72
     6
  0
VERTEX
  5
DDB
  8
0
 10
247.5766789347609
 20
332.3744577442557
 30
0.0
 70
   192
  0
VERTEX
  5
DDC
  8
0
 10
247.5766789347609
 20
332.3744577442557
 30
4.5
 70
   192
  0
VERTEX
  5
DDD
  8
0
 10
316.8296728090154
 20
295.31790044319
 30
4.5
 70
   192
  0
VERTEX
  5
DDE
  8
0
 10
316.8296728090154
 20
295.31790044319
 30
0.0
 70
   192
  0
VERTEX
  5
DDF
  8
0
 10
169.8135230775779
 20
343.4224073588294
 30
0.0
 70
   192
  0
VERTEX
  5
DE0
  8
0
 10
169.8135230775779
 20
343.4224073588292
 30
4.5
 70
   192
  0
VERTEX
  5
DE1
  8
0
 10
369.1659340802469
 20
236.7510040280299
 30
4.5
 70
   192
  0
VERTEX
  5
DE2
  8
0
 10
369.1659340802469
 20
236.7510040280299
 30
0.0
 70
   192
  0
VERTEX
  5
DE3
  8
0
 10
0.0
 20
0.0
 30
0.0
 70
   128
 71
     1
 72
     2
 73
    -3
  0
VERTEX
  5
DE4
  8
0
 10
0.0
 20
0.0
 30
0.0
 70
   128
 71
    -1
 72
     3
 73
     4
  0
VERTEX
  5
DE5
  8
0
 10
0.0
 20
0.0
 30
0.0
 70
   128
 71
     5
 72
     6
 73
    -2
  0
VERTEX
  5
DE6
  8
0
 10
0.0
 20
0.0
 30
0.0
 70
   128
 71
    -5
 72
     2
 73
     1
  0
VERTEX
  5
DE7
  8
0
 10
0.0
 20
0.0
 30
0.0
 70
   128
 71
     4
 72
     3
 73
    -7
  0
VERTEX
  5
DE8
  8
0
 10
0.0
 20
0.0
 30
0.0
 70
   128
 71
    -4
 72
     7
 73
     8
  0
SEQEND
  5
1985
  8
0
  0
POLYLINE
  5
DE9
  8
0
 66
     1
 10
0.0
 20
0.0
 30
0.0
 70
    64
 71
     8
 72
     6
  0
VERTEX
  5
DEA
  8
0
 10
-215.4181303302752
 20
266.0709809329173
 30
0.0
 70
   192
  0
VERTEX
  5
DEB
  8
0
 10
-215.4181303302752
 20
266.0709809329173
 30
4.5
 70
   192
  0
VERTEX
  5
DEC
  8
0
 10
-25.98446243292756
 20
320.5947315397136
 30
4.5
 70
   192
  0
VERTEX
  5
DED
  8
0
 10
-25.98446243292756
 20
320.5947315397136
 30
0.0
 70
   192
  0
VERTEX
  5
DEE
  8
0
 10
-393.3923646170637
 20
181.3176574387553
 30
0.0
 70
   192
  0
VERTEX
  5
DEF
  8
0
 10
-393.3923646170637
 20
181.3176574387552
 30
4.5
 70
   192
  0
VERTEX
  5
DF0
  8
0
 10
169.8135230775781
 20
343.4224073588296
 30
4.5
 70
   192
  0
VERTEX
  5
DF1
  8
0
 10
169.8135230775779
 20
343.4224073588292
 30
0.0
 70
   192
  0
VERTEX
  5
DF2
  8
0
 10
0.0
 20
0.0
 30
0.0
 70
   128
 71
     1
 72
     2
 73
    -3
  0
VERTEX
  5
DF3
  8
0
 10
0.0
 20
0.0
 30
0.0
 70
   128
 71
    -1
 72
     3
 73
     4
  0
VERTEX
  5
DF4
  8
0
 10
0.0
 20
0.0
 30
0.0
 70
   128
 71
     5
 72
     6
 73
    -2
  0
VERTEX
  5
DF5
  8
0
 10
0.0
 20
0.0
 30
0.0
 70
   128
 71
    -5
 72
     2
 73
     1
  0
VERTEX
  5
DF6
  8
0
 10
0.0
 20
0.0
 30
0.0
 70
   128
 71
     4
 72
     3
 73
    -7
  0
VERTEX
  5
DF7
  8
0
 10
0.0
 20
0.0
 30
0.0
 70
   128
 71
    -4
 72
     7
 73
     8
  0
SEQEND
  5
1986
  8
0
  0
POLYLINE
  5
DF8
  8
0
 66
     1
 10
0.0
 20
0.0
 30
0.0
 70
    64
 71
    42
 72
    42
  0
VERTEX
  5
DF9
  8
0
 10
-478.4587726146889
 20
33.47849538820601
 30
4.5
 70
   192
  0
VERTEX
  5
DFA
  8
0
 10
-468.2032621309316
 20
91.80695412517665
 30
4.5
 70
   192
  0
VERTEX
  5
DFB
  8
0
 10
-438.6668534285316
 20
143.1390605974199
 30
4.5
 70
   192
  0
VERTEX
  5
DFC
  8
0
 10
-393.3923646170637
 20
181.3176574387553
 30
4.5
 70
   192
  0
VERTEX
  5
DFD
  8
0
 10
-215.4181303302752
 20
266.0709809329173
 30
4.5
 70
   192
  0
VERTEX
  5
DFE
  8
0
 10
-25.98446243292756
 20
320.5947315397136
 30
4.5
 70
   192
  0
VERTEX
  5
DFF
  8
0
 10
169.8135230775779
 20
343.4224073588294
 30
4.5
 70
   192
  0
VERTEX
  5
E00
  8
0
 10
247.5766789347609
 20
332.3744577442557
 30
4.5
 70
   192
  0
VERTEX
  5
E01
  8
0
 10
316.8296728090154
 20
295.31790044319
 30
4.5
 70
   192
  0
VERTEX
  5
E02
  8
0
 10
369.1659340802469
 20
236.75100402803
 30
4.5
 70
   192
  0
VERTEX
  5
E03
  8
0
 10
437.7624578616372
 20
94.26302231440775
 30
4.5
 70
   192
  0
VERTEX
  5
E04
  8
0
 10
474.9937618939435
 20
-59.43192883157604
 30
4.5
 70
   192
  0
VERTEX
  5
E05
  8
0
 10
479.2082586365357
 20
-217.5159129188932
 30
4.5
 70
   192
  0
VERTEX
  5
E06
  8
0
 10
455.6431856869735
 20
-282.3061966947963
 30
4.5
 70
   192
  0
VERTEX
  5
E07
  8
0
 10
402.121298031097
 20
-325.7630842574365
 30
4.5
 70
   192
  0
VERTEX
  5
E08
  8
0
 10
333.8726066127728
 20
-335.5206277273076
 30
4.5
 70
   192
  0
VERTEX
  5
E09
  8
0
 10
87.58982471261504
 20
-290.0225309834266
 30
4.5
 70
   192
  0
VERTEX
  5
E0A
  8
0
 10
-152.2530123451006
 20
-217.9066590833843
 30
4.5
 70
   192
  0
VERTEX
  5
E0B
  8
0
 10
-382.7882085060947
 20
-120.0352700117658
 30
4.5
 70
   192
  0
VERTEX
  5
E0C
  8
0
 10
-433.3815382909526
 20
-82.21271915145121
 30
4.5
 70
   192
  0
VERTEX
  5
E0D
  8
0
 10
-466.7914323729732
 20
-28.60293133496548
 30
4.5
 70
   192
  0
VERTEX
  5
E0E
  8
0
 10
469.2393302239589
 20
-216.7282160832316
 30
4.5
 70
   192
  0
VERTEX
  5
E0F
  8
0
 10
465.0809641535191
 20
-60.74966968524842
 30
4.5
 70
   192
  0
VERTEX
  5
E10
  8
0
 10
428.3455243365868
 20
90.8982989996635
 30
4.5
 70
   192
  0
VERTEX
  5
E11
  8
0
 10
360.6626016853833
 20
231.488558001469
 30
4.5
 70
   192
  0
VERTEX
  5
E12
  8
0
 10
310.6478989423255
 20
287.4575142019731
 30
4.5
 70
   192
  0
VERTEX
  5
E13
  8
0
 10
244.4668646353988
 20
322.8702978643144
 30
4.5
 70
   192
  0
VERTEX
  5
E14
  8
0
 10
170.1531664443328
 20
333.4281769040406
 30
4.5
 70
   192
  0
VERTEX
  5
E15
  8
0
 10
-24.01583547939688
 20
310.7904208593118
 30
4.5
 70
   192
  0
VERTEX
  5
E16
  8
0
 10
-211.8734691035472
 20
256.7202923599973
 30
4.5
 70
   192
  0
VERTEX
  5
E17
  8
0
 10
-388.3670083476046
 20
172.6720924274326
 30
4.5
 70
   192
  0
VERTEX
  5
E18
  8
0
 10
-430.9938662408174
 20
136.7261620626563
 30
4.5
 70
   192
  0
VERTEX
  5
E19
  8
0
 10
-458.8029995846743
 20
88.39593315464172
 30
4.5
 70
   192
  0
VERTEX
  5
E1A
  8
0
 10
-468.458772614689
 20
33.47849538820596
 30
4.5
 70
   192
  0
VERTEX
  5
E1B
  8
0
 10
-457.4737329702569
 20
-24.97243855290141
 30
4.5
 70
   192
  0
VERTEX
  5
E1C
  8
0
 10
-426.0176338590765
 20
-75.44715106605034
 30
4.5
 70
   192
  0
VERTEX
  5
E1D
  8
0
 10
-378.3829783235011
 20
-111.0578568521548
 30
4.5
 70
   192
  0
VERTEX
  5
E1E
  8
0
 10
-148.8542944913529
 20
-208.5019412805684
 30
4.5
 70
   192
  0
VERTEX
  5
E1F
  8
0
 10
89.94139325248773
 20
-280.3029566407783
 30
4.5
 70
   192
  0
VERTEX
  5
E20
  8
0
 10
335.1489091607604
 20
-325.6024095503373
 30
4.5
 70
   192
  0
VERTEX
  5
E21
  8
0
 10
398.1169121377532
 20
-316.599848277872
 30
4.5
 70
   192
  0
VERTEX
  5
E22
  8
0
 10
447.4975861288823
 20
-276.5054029698634
 30
4.5
 70
   192
  0
VERTEX
  5
E23
  8
0
 10
0.0
 20
0.0
 30
0.0
 70
   128
 71
    23
 72
   -22
 73
   -13
  0
VERTEX
  5
E24
  8
0
 10
0.0
 20
0.0
 30
0.0
 70
   128
 71
   -23
 72
    13
 73
   -12
  0
VERTEX
  5
E25
  8
0
 10
0.0
 20
0.0
 30
0.0
 70
   128
 71
    12
 72
   -11
 73
   -24
  0
VERTEX
  5
E26
  8
0
 10
0.0
 20
0.0
 30
0.0
 70
   128
 71
   -12
 72
    24
 73
   -23
  0
VERTEX
  5
E27
  8
0
 10
0.0
 20
0.0
 30
0.0
 70
   128
 71
    11
 72
   -10
 73
   -25
  0
VERTEX
  5
E28
  8
0
 10
0.0
 20
0.0
 30
0.0
 70
   128
 71
   -11
 72
    25
 73
   -24
  0
VERTEX
  5
E29
  8
0
 10
0.0
 20
0.0
 30
0.0
 70
   128
 71
    10
 72
    -9
 73
   -26
  0
VERTEX
  5
E2A
  8
0
 10
0.0
 20
0.0
 30
0.0
 70
   128
 71
   -10
 72
    26
 73
   -25
  0
VERTEX
  5
E2B
  8
0
 10
0.0
 20
0.0
 30
0.0
 70
   128
 71
     9
 72
    -8
 73
   -27
  0
VERTEX
  5
E2C
  8
0
 10
0.0
 20
0.0
 30
0.0
 70
   128
 71
    -9
 72
    27
 73
   -26
  0
VERTEX
  5
E2D
  8
0
 10
0.0
 20
0.0
 30
0.0
 70
   128
 71
     8
 72
    -7
 73
   -28
  0
VERTEX
  5
E2E
  8
0
 10
0.0
 20
0.0
 30
0.0
 70
   128
 71
    -8
 72
    28
 73
   -27
  0
VERTEX
  5
E2F
  8
0
 10
0.0
 20
0.0
 30
0.0
 70
   128
 71
     7
 72
    -6
 73
   -29
  0
VERTEX
  5
E30
  8
0
 10
0.0
 20
0.0
 30
0.0
 70
   128
 71
    -7
 72
    29
 73
   -28
  0
VERTEX
  5
E31
  8
0
 10
0.0
 20
0.0
 30
0.0
 70
   128
 71
     6
 72
    -5
 73
   -30
  0
VERTEX
  5
E32
  8
0
 10
0.0
 20
0.0
 30
0.0
 70
   128
 71
    -6
 72
    30
 73
   -29
  0
VERTEX
  5
E33
  8
0
 10
0.0
 20
0.0
 30
0.0
 70
   128
 71
     5
 72
    -4
 73
   -31
  0
VERTEX
  5
E34
  8
0
 10
0.0
 20
0.0
 30
0.0
 70
   128
 71
    -5
 72
    31
 73
   -30
  0
VERTEX
  5
E35
  8
0
 10
0.0
 20
0.0
 30
0.0
 70
   128
 71
     4
 72
    -3
 73
   -32
  0
VERTEX
  5
E36
  8
0
 10
0.0
 20
0.0
 30
0.0
 70
   128
 71
    -4
 72
    32
 73
   -31
  0
VERTEX
  5
E37
  8
0
 10
0.0
 20
0.0
 30
0.0
 70
   128
 71
     3
 72
    -2
 73
   -33
  0
VERTEX
  5
E38
  8
0
 10
0.0
 20
0.0
 30
0.0
 70
   128
 71
    -3
 72
    33
 73
   -32
  0
VERTEX
  5
E39
  8
0
 10
0.0
 20
0.0
 30
0.0
 70
   128
 71
     2
 72
    -1
 73
   -34
  0
VERTEX
  5
E3A
  8
0
 10
0.0
 20
0.0
 30
0.0
 70
   128
 71
    -2
 72
    34
 73
   -33
  0
VERTEX
  5
E3B
  8
0
 10
0.0
 20
0.0
 30
0.0
 70
   128
 71
     1
 72
   -21
 73
   -35
  0
VERTEX
  5
E3C
  8
0
 10
0.0
 20
0.0
 30
0.0
 70
   128
 71
    -1
 72
    35
 73
   -34
  0
VERTEX
  5
E3D
  8
0
 10
0.0
 20
0.0
 30
0.0
 70
   128
 71
    21
 72
   -20
 73
   -36
  0
VERTEX
  5
E3E
  8
0
 10
0.0
 20
0.0
 30
0.0
 70
   128
 71
   -21
 72
    36
 73
   -35
  0
VERTEX
  5
E3F
  8
0
 10
0.0
 20
0.0
 30
0.0
 70
   128
 71
    20
 72
   -19
 73
   -37
  0
VERTEX
  5
E40
  8
0
 10
0.0
 20
0.0
 30
0.0
 70
   128
 71
   -20
 72
    37
 73
   -36
  0
VERTEX
  5
E41
  8
0
 10
0.0
 20
0.0
 30
0.0
 70
   128
 71
    19
 72
   -18
 73
   -38
  0
VERTEX
  5
E42
  8
0
 10
0.0
 20
0.0
 30
0.0
 70
   128
 71
   -19
 72
    38
 73
   -37
  0
VERTEX
  5
E43
  8
0
 10
0.0
 20
0.0
 30
0.0
 70
   128
 71
    18
 72
   -17
 73
   -39
  0
VERTEX
  5
E44
  8
0
 10
0.0
 20
0.0
 30
0.0
 70
   128
 71
   -18
 72
    39
 73
   -38
  0
VERTEX
  5
E45
  8
0
 10
0.0
 20
0.0
 30
0.0
 70
   128
 71
    17
 72
   -16
 73
   -40
  0
VERTEX
  5
E46
  8
0
 10
0.0
 20
0.0
 30
0.0
 70
   128
 71
   -17
 72
    40
 73
   -39
  0
VERTEX
  5
E47
  8
0
 10
0.0
 20
0.0
 30
0.0
 70
   128
 71
    16
 72
   -15
 73
   -41
  0
VERTEX
  5
E48
  8
0
 10
0.0
 20
0.0
 30
0.0
 70
   128
 71
   -16
 72
    41
 73
   -40
  0
VERTEX
  5
E49
  8
0
 10
0.0
 20
0.0
 30
0.0
 70
   128
 71
    15
 72
   -14
 73
   -42
  0
VERTEX
  5
E4A
  8
0
 10
0.0
 20
0.0
 30
0.0
 70
   128
 71
   -15
 72
    42
 73
   -41
  0
VERTEX
  5
E4B
  8
0
 10
0.0
 20
0.0
 30
0.0
 70
   128
 71
    14
 72
   -13
 73
   -22
  0
VERTEX
  5
E4C
  8
0
 10
0.0
 20
0.0
 30
0.0
 70
   128
 71
   -14
 72
    22
 73
   -42
  0
SEQEND
  5
1987
  8
0
  0
POLYLINE
  5
E4D
  8
0
 66
     1
 10
0.0
 20
0.0
 30
0.0
 70
    64
 71
    21
 72
    19
  0
VERTEX
  5
E4E
  8
0
 10
-382.7882085060947
 20
-120.0352700117658
 30
0.0
 70
   192
  0
VERTEX
  5
E4F
  8
0
 10
-433.3815382909526
 20
-82.21271915145121
 30
0.0
 70
   192
  0
VERTEX
  5
E50
  8
0
 10
-466.7914323729732
 20
-28.60293133496548
 30
0.0
 70
   192
  0
VERTEX
  5
E51
  8
0
 10
-478.4587726146889
 20
33.47849538820596
 30
0.0
 70
   192
  0
VERTEX
  5
E52
  8
0
 10
-468.2032621309316
 20
91.80695412517665
 30
0.0
 70
   192
  0
VERTEX
  5
E53
  8
0
 10
-438.6668534285316
 20
143.1390605974199
 30
0.0
 70
   192
  0
VERTEX
  5
E54
  8
0
 10
-393.3923646170637
 20
181.3176574387552
 30
0.0
 70
   192
  0
VERTEX
  5
E55
  8
0
 10
-215.4181303302752
 20
266.0709809329173
 30
0.0
 70
   192
  0
VERTEX
  5
E56
  8
0
 10
-25.98446243292756
 20
320.5947315397136
 30
0.0
 70
   192
  0
VERTEX
  5
E57
  8
0
 10
169.8135230775781
 20
343.4224073588296
 30
0.0
 70
   192
  0
VERTEX
  5
E58
  8
0
 10
247.5766789347609
 20
332.3744577442557
 30
0.0
 70
   192
  0
VERTEX
  5
E59
  8
0
 10
316.8296728090154
 20
295.31790044319
 30
0.0
 70
   192
  0
VERTEX
  5
E5A
  8
0
 10
369.1659340802469
 20
236.7510040280299
 30
0.0
 70
   192
  0
VERTEX
  5
E5B
  8
0
 10
437.7624578616372
 20
94.26302231440775
 30
0.0
 70
   192
  0
VERTEX
  5
E5C
  8
0
 10
474.9937618939435
 20
-59.43192883157604
 30
0.0
 70
   192
  0
VERTEX
  5
E5D
  8
0
 10
479.2082586365361
 20
-217.5159129188929
 30
0.0
 70
   192
  0
VERTEX
  5
E5E
  8
0
 10
455.6431856869735
 20
-282.3061966947963
 30
0.0
 70
   192
  0
VERTEX
  5
E5F
  8
0
 10
402.121298031097
 20
-325.7630842574365
 30
0.0
 70
   192
  0
VERTEX
  5
E60
  8
0
 10
333.8726066127716
 20
-335.5206277273081
 30
0.0
 70
   192
  0
VERTEX
  5
E61
  8
0
 10
87.58982471261504
 20
-290.0225309834266
 30
0.0
 70
   192
  0
VERTEX
  5
E62
  8
0
 10
-152.2530123451006
 20
-217.9066590833843
 30
0.0
 70
   192
  0
VERTEX
  5
E63
  8
0
 10
0.0
 20
0.0
 30
0.0
 70
   128
 71
    20
 72
    21
 73
    -1
  0
VERTEX
  5
E64
  8
0
 10
0.0
 20
0.0
 30
0.0
 70
   128
 71
    19
 72
   -20
 73
    -1
  0
VERTEX
  5
E65
  8
0
 10
0.0
 20
0.0
 30
0.0
 70
   128
 71
    18
 72
   -19
 73
    -1
  0
VERTEX
  5
E66
  8
0
 10
0.0
 20
0.0
 30
0.0
 70
   128
 71
    17
 72
   -18
 73
    -1
  0
VERTEX
  5
E67
  8
0
 10
0.0
 20
0.0
 30
0.0
 70
   128
 71
    16
 72
   -17
 73
    -1
  0
VERTEX
  5
E68
  8
0
 10
0.0
 20
0.0
 30
0.0
 70
   128
 71
    15
 72
   -16
 73
    -1
  0
VERTEX
  5
E69
  8
0
 10
0.0
 20
0.0
 30
0.0
 70
   128
 71
    14
 72
   -15
 73
    -1
  0
VERTEX
  5
E6A
  8
0
 10
0.0
 20
0.0
 30
0.0
 70
   128
 71
    13
 72
   -14
 73
    -1
  0
VERTEX
  5
E6B
  8
0
 10
0.0
 20
0.0
 30
0.0
 70
   128
 71
    12
 72
   -13
 73
    -1
  0
VERTEX
  5
E6C
  8
0
 10
0.0
 20
0.0
 30
0.0
 70
   128
 71
    11
 72
   -12
 73
    -1
  0
VERTEX
  5
E6D
  8
0
 10
0.0
 20
0.0
 30
0.0
 70
   128
 71
    10
 72
   -11
 73
    -1
  0
VERTEX
  5
E6E
  8
0
 10
0.0
 20
0.0
 30
0.0
 70
   128
 71
     9
 72
   -10
 73
    -1
  0
VERTEX
  5
E6F
  8
0
 10
0.0
 20
0.0
 30
0.0
 70
   128
 71
     8
 72
    -9
 73
    -1
  0
VERTEX
  5
E70
  8
0
 10
0.0
 20
0.0
 30
0.0
 70
   128
 71
     7
 72
    -8
 73
    -1
  0
VERTEX
  5
E71
  8
0
 10
0.0
 20
0.0
 30
0.0
 70
   128
 71
     6
 72
    -7
 73
    -1
  0
VERTEX
  5
E72
  8
0
 10
0.0
 20
0.0
 30
0.0
 70
   128
 71
     5
 72
    -6
 73
    -1
  0
VERTEX
  5
E73
  8
0
 10
0.0
 20
0.0
 30
0.0
 70
   128
 71
     4
 72
    -5
 73
    -1
  0
VERTEX
  5
E74
  8
0
 10
0.0
 20
0.0
 30
0.0
 70
   128
 71
     3
 72
    -4
 73
    -1
  0
VERTEX
  5
E75
  8
0
 10
0.0
 20
0.0
 30
0.0
 70
   128
 71
     2
 72
    -3
 73
     1
  0
SEQEND
  5
1988
  8
0
  0
POLYLINE
  5
E76
  8
0
 66
     1
 10
0.0
 20
0.0
 30
0.0
 70
    64
 71
     8
 72
     6
  0
VERTEX
  5
E77
  8
0
 10
89.94139325248773
 20
-280.3029566407783
 30
4.5
 70
   192
  0
VERTEX
  5
E78
  8
0
 10
89.94139325248773
 20
-280.3029566407783
 30
4.999999999999999
 70
   192
  0
VERTEX
  5
E79
  8
0
 10
-148.8542944913529
 20
-208.5019412805684
 30
4.999999999999999
 70
   192
  0
VERTEX
  5
E7A
  8
0
 10
-148.8542944913529
 20
-208.5019412805684
 30
4.5
 70
   192
  0
VERTEX
  5
E7B
  8
0
 10
335.1489091607583
 20
-325.6024095503369
 30
4.5
 70
   192
  0
VERTEX
  5
E7C
  8
0
 10
335.1489091607603
 20
-325.6024095503373
 30
4.999999999999999
 70
   192
  0
VERTEX
  5
E7D
  8
0
 10
-378.3829783235011
 20
-111.0578568521548
 30
4.999999999999999
 70
   192
  0
VERTEX
  5
E7E
  8
0
 10
-378.3829783235007
 20
-111.0578568521546
 30
4.5
 70
   192
  0
VERTEX
  5
E7F
  8
0
 10
0.0
 20
0.0
 30
0.0
 70
   128
 71
     1
 72
     2
 73
    -3
  0
VERTEX
  5
E80
  8
0
 10
0.0
 20
0.0
 30
0.0
 70
   128
 71
    -1
 72
     3
 73
     4
  0
VERTEX
  5
E81
  8
0
 10
0.0
 20
0.0
 30
0.0
 70
   128
 71
     5
 72
     6
 73
    -2
  0
VERTEX
  5
E82
  8
0
 10
0.0
 20
0.0
 30
0.0
 70
   128
 71
    -5
 72
     2
 73
     1
  0
VERTEX
  5
E83
  8
0
 10
0.0
 20
0.0
 30
0.0
 70
   128
 71
     4
 72
     3
 73
    -7
  0
VERTEX
  5
E84
  8
0
 10
0.0
 20
0.0
 30
0.0
 70
   128
 71
    -4
 72
     7
 73
     8
  0
SEQEND
  5
1989
  8
0
  0
POLYLINE
  5
E85
  8
0
 66
     1
 10
0.0
 20
0.0
 30
0.0
 70
    64
 71
     8
 72
     6
  0
VERTEX
  5
E86
  8
0
 10
447.4975861288823
 20
-276.5054029698634
 30
4.5
 70
   192
  0
VERTEX
  5
E87
  8
0
 10
447.4975861288823
 20
-276.5054029698634
 30
4.999999999999999
 70
   192
  0
VERTEX
  5
E88
  8
0
 10
398.1169121377532
 20
-316.599848277872
 30
4.999999999999999
 70
   192
  0
VERTEX
  5
E89
  8
0
 10
398.1169121377532
 20
-316.599848277872
 30
4.5
 70
   192
  0
VERTEX
  5
E8A
  8
0
 10
469.2393302239587
 20
-216.7282160832319
 30
4.5
 70
   192
  0
VERTEX
  5
E8B
  8
0
 10
469.2393302239587
 20
-216.728216083232
 30
4.999999999999999
 70
   192
  0
VERTEX
  5
E8C
  8
0
 10
335.1489091607604
 20
-325.6024095503373
 30
4.999999999999999
 70
   192
  0
VERTEX
  5
E8D
  8
0
 10
335.1489091607603
 20
-325.6024095503373
 30
4.5
 70
   192
  0
VERTEX
  5
E8E
  8
0
 10
0.0
 20
0.0
 30
0.0
 70
   128
 71
     1
 72
     2
 73
    -3
  0
VERTEX
  5
E8F
  8
0
 10
0.0
 20
0.0
 30
0.0
 70
   128
 71
    -1
 72
     3
 73
     4
  0
VERTEX
  5
E90
  8
0
 10
0.0
 20
0.0
 30
0.0
 70
   128
 71
     5
 72
     6
 73
    -2
  0
VERTEX
  5
E91
  8
0
 10
0.0
 20
0.0
 30
0.0
 70
   128
 71
    -5
 72
     2
 73
     1
  0
VERTEX
  5
E92
  8
0
 10
0.0
 20
0.0
 30
0.0
 70
   128
 71
     4
 72
     3
 73
    -7
  0
VERTEX
  5
E93
  8
0
 10
0.0
 20
0.0
 30
0.0
 70
   128
 71
    -4
 72
     7
 73
     8
  0
SEQEND
  5
198A
  8
0
  0
POLYLINE
  5
E94
  8
0
 66
     1
 10
0.0
 20
0.0
 30
0.0
 70
    64
 71
     8
 72
     6
  0
VERTEX
  5
E95
  8
0
 10
428.3455243365868
 20
90.8982989996635
 30
4.5
 70
   192
  0
VERTEX
  5
E96
  8
0
 10
428.3455243365868
 20
90.8982989996635
 30
4.999999999999999
 70
   192
  0
VERTEX
  5
E97
  8
0
 10
465.0809641535191
 20
-60.74966968524842
 30
4.999999999999999
 70
   192
  0
VERTEX
  5
E98
  8
0
 10
465.0809641535191
 20
-60.74966968524842
 30
4.5
 70
   192
  0
VERTEX
  5
E99
  8
0
 10
360.6626016853834
 20
231.4885580014692
 30
4.5
 70
   192
  0
VERTEX
  5
E9A
  8
0
 10
360.6626016853835
 20
231.4885580014692
 30
4.999999999999999
 70
   192
  0
VERTEX
  5
E9B
  8
0
 10
469.2393302239589
 20
-216.7282160832316
 30
4.999999999999999
 70
   192
  0
VERTEX
  5
E9C
  8
0
 10
469.2393302239587
 20
-216.728216083232
 30
4.5
 70
   192
  0
VERTEX
  5
E9D
  8
0
 10
0.0
 20
0.0
 30
0.0
 70
   128
 71
     1
 72
     2
 73
    -3
  0
VERTEX
  5
E9E
  8
0
 10
0.0
 20
0.0
 30
0.0
 70
   128
 71
    -1
 72
     3
 73
     4
  0
VERTEX
  5
E9F
  8
0
 10
0.0
 20
0.0
 30
0.0
 70
   128
 71
     5
 72
     6
 73
    -2
  0
VERTEX
  5
EA0
  8
0
 10
0.0
 20
0.0
 30
0.0
 70
   128
 71
    -5
 72
     2
 73
     1
  0
VERTEX
  5
EA1
  8
0
 10
0.0
 20
0.0
 30
0.0
 70
   128
 71
     4
 72
     3
 73
    -7
  0
VERTEX
  5
EA2
  8
0
 10
0.0
 20
0.0
 30
0.0
 70
   128
 71
    -4
 72
     7
 73
     8
  0
SEQEND
  5
198B
  8
0
  0
POLYLINE
  5
EA3
  8
0
 66
     1
 10
0.0
 20
0.0
 30
0.0
 70
    64
 71
     8
 72
     6
  0
VERTEX
  5
EA4
  8
0
 10
244.4668646353988
 20
322.8702978643144
 30
4.5
 70
   192
  0
VERTEX
  5
EA5
  8
0
 10
244.4668646353988
 20
322.8702978643144
 30
4.999999999999999
 70
   192
  0
VERTEX
  5
EA6
  8
0
 10
310.6478989423255
 20
287.4575142019731
 30
4.999999999999999
 70
   192
  0
VERTEX
  5
EA7
  8
0
 10
310.6478989423255
 20
287.4575142019731
 30
4.5
 70
   192
  0
VERTEX
  5
EA8
  8
0
 10
170.1531664443325
 20
333.4281769040409
 30
4.5
 70
   192
  0
VERTEX
  5
EA9
  8
0
 10
170.1531664443325
 20
333.4281769040409
 30
4.999999999999999
 70
   192
  0
VERTEX
  5
EAA
  8
0
 10
360.6626016853833
 20
231.488558001469
 30
4.999999999999999
 70
   192
  0
VERTEX
  5
EAB
  8
0
 10
360.6626016853835
 20
231.4885580014692
 30
4.5
 70
   192
  0
VERTEX
  5
EAC
  8
0
 10
0.0
 20
0.0
 30
0.0
 70
   128
 71
     1
 72
     2
 73
    -3
  0
VERTEX
  5
EAD
  8
0
 10
0.0
 20
0.0
 30
0.0
 70
   128
 71
    -1
 72
     3
 73
     4
  0
VERTEX
  5
EAE
  8
0
 10
0.0
 20
0.0
 30
0.0
 70
   128
 71
     5
 72
     6
 73
    -2
  0
VERTEX
  5
EAF
  8
0
 10
0.0
 20
0.0
 30
0.0
 70
   128
 71
    -5
 72
     2
 73
     1
  0
VERTEX
  5
EB0
  8
0
 10
0.0
 20
0.0
 30
0.0
 70
   128
 71
     4
 72
     3
 73
    -7
  0
VERTEX
  5
EB1
  8
0
 10
0.0
 20
0.0
 30
0.0
 70
   128
 71
    -4
 72
     7
 73
     8
  0
SEQEND
  5
198C
  8
0
  0
POLYLINE
  5
EB2
  8
0
 66
     1
 10
0.0
 20
0.0
 30
0.0
 70
    64
 71
     8
 72
     6
  0
VERTEX
  5
EB3
  8
0
 10
-211.8734691035472
 20
256.7202923599973
 30
4.5
 70
   192
  0
VERTEX
  5
EB4
  8
0
 10
-211.8734691035472
 20
256.7202923599973
 30
4.999999999999999
 70
   192
  0
VERTEX
  5
EB5
  8
0
 10
-24.01583547939688
 20
310.7904208593118
 30
4.999999999999999
 70
   192
  0
VERTEX
  5
EB6
  8
0
 10
-24.01583547939688
 20
310.7904208593118
 30
4.5
 70
   192
  0
VERTEX
  5
EB7
  8
0
 10
-388.3670083476043
 20
172.6720924274321
 30
4.5
 70
   192
  0
VERTEX
  5
EB8
  8
0
 10
-388.3670083476045
 20
172.6720924274323
 30
4.999999999999999
 70
   192
  0
VERTEX
  5
EB9
  8
0
 10
170.1531664443328
 20
333.4281769040406
 30
4.999999999999999
 70
   192
  0
VERTEX
  5
EBA
  8
0
 10
170.1531664443325
 20
333.4281769040409
 30
4.5
 70
   192
  0
VERTEX
  5
EBB
  8
0
 10
0.0
 20
0.0
 30
0.0
 70
   128
 71
     1
 72
     2
 73
    -3
  0
VERTEX
  5
EBC
  8
0
 10
0.0
 20
0.0
 30
0.0
 70
   128
 71
    -1
 72
     3
 73
     4
  0
VERTEX
  5
EBD
  8
0
 10
0.0
 20
0.0
 30
0.0
 70
   128
 71
     5
 72
     6
 73
    -2
  0
VERTEX
  5
EBE
  8
0
 10
0.0
 20
0.0
 30
0.0
 70
   128
 71
    -5
 72
     2
 73
     1
  0
VERTEX
  5
EBF
  8
0
 10
0.0
 20
0.0
 30
0.0
 70
   128
 71
     4
 72
     3
 73
    -7
  0
VERTEX
  5
EC0
  8
0
 10
0.0
 20
0.0
 30
0.0
 70
   128
 71
    -4
 72
     7
 73
     8
  0
SEQEND
  5
198D
  8
0
  0
POLYLINE
  5
EC1
  8
0
 66
     1
 10
0.0
 20
0.0
 30
0.0
 70
    64
 71
     8
 72
     6
  0
VERTEX
  5
EC2
  8
0
 10
-458.8029995846743
 20
88.39593315464172
 30
4.5
 70
   192
  0
VERTEX
  5
EC3
  8
0
 10
-458.8029995846743
 20
88.39593315464172
 30
4.999999999999999
 70
   192
  0
VERTEX
  5
EC4
  8
0
 10
-430.9938662408174
 20
136.7261620626563
 30
4.999999999999999
 70
   192
  0
VERTEX
  5
EC5
  8
0
 10
-430.9938662408174
 20
136.7261620626563
 30
4.5
 70
   192
  0
VERTEX
  5
EC6
  8
0
 10
-468.458772614689
 20
33.47849538820601
 30
4.5
 70
   192
  0
VERTEX
  5
EC7
  8
0
 10
-468.4587726146891
 20
33.47849538820601
 30
4.999999999999999
 70
   192
  0
VERTEX
  5
EC8
  8
0
 10
-388.3670083476046
 20
172.6720924274326
 30
4.999999999999999
 70
   192
  0
VERTEX
  5
EC9
  8
0
 10
-388.3670083476045
 20
172.6720924274323
 30
4.5
 70
   192
  0
VERTEX
  5
ECA
  8
0
 10
0.0
 20
0.0
 30
0.0
 70
   128
 71
     1
 72
     2
 73
    -3
  0
VERTEX
  5
ECB
  8
0
 10
0.0
 20
0.0
 30
0.0
 70
   128
 71
    -1
 72
     3
 73
     4
  0
VERTEX
  5
ECC
  8
0
 10
0.0
 20
0.0
 30
0.0
 70
   128
 71
     5
 72
     6
 73
    -2
  0
VERTEX
  5
ECD
  8
0
 10
0.0
 20
0.0
 30
0.0
 70
   128
 71
    -5
 72
     2
 73
     1
  0
VERTEX
  5
ECE
  8
0
 10
0.0
 20
0.0
 30
0.0
 70
   128
 71
     4
 72
     3
 73
    -7
  0
VERTEX
  5
ECF
  8
0
 10
0.0
 20
0.0
 30
0.0
 70
   128
 71
    -4
 72
     7
 73
     8
  0
SEQEND
  5
198E
  8
0
  0
POLYLINE
  5
ED0
  8
0
 66
     1
 10
0.0
 20
0.0
 30
0.0
 70
    64
 71
    21
 72
    19
  0
VERTEX
  5
ED1
  8
0
 10
-378.3829783235007
 20
-111.0578568521546
 30
4.999999999999999
 70
   192
  0
VERTEX
  5
ED2
  8
0
 10
-426.0176338590765
 20
-75.44715106605034
 30
4.999999999999999
 70
   192
  0
VERTEX
  5
ED3
  8
0
 10
-457.4737329702569
 20
-24.97243855290141
 30
4.999999999999999
 70
   192
  0
VERTEX
  5
ED4
  8
0
 10
-468.458772614689
 20
33.47849538820601
 30
4.999999999999999
 70
   192
  0
VERTEX
  5
ED5
  8
0
 10
-458.8029995846743
 20
88.39593315464172
 30
4.999999999999999
 70
   192
  0
VERTEX
  5
ED6
  8
0
 10
-430.9938662408174
 20
136.7261620626563
 30
4.999999999999999
 70
   192
  0
VERTEX
  5
ED7
  8
0
 10
-388.3670083476043
 20
172.6720924274321
 30
4.999999999999999
 70
   192
  0
VERTEX
  5
ED8
  8
0
 10
-211.8734691035472
 20
256.7202923599973
 30
4.999999999999999
 70
   192
  0
VERTEX
  5
ED9
  8
0
 10
-24.01583547939688
 20
310.7904208593118
 30
4.999999999999999
 70
   192
  0
VERTEX
  5
EDA
  8
0
 10
170.1531664443325
 20
333.4281769040409
 30
4.999999999999999
 70
   192
  0
VERTEX
  5
EDB
  8
0
 10
244.4668646353988
 20
322.8702978643144
 30
4.999999999999999
 70
   192
  0
VERTEX
  5
EDC
  8
0
 10
310.6478989423255
 20
287.4575142019731
 30
4.999999999999999
 70
   192
  0
VERTEX
  5
EDD
  8
0
 10
360.6626016853834
 20
231.4885580014692
 30
4.999999999999999
 70
   192
  0
VERTEX
  5
EDE
  8
0
 10
428.3455243365868
 20
90.8982989996635
 30
4.999999999999999
 70
   192
  0
VERTEX
  5
EDF
  8
0
 10
465.0809641535191
 20
-60.74966968524842
 30
4.999999999999999
 70
   192
  0
VERTEX
  5
EE0
  8
0
 10
469.2393302239587
 20
-216.7282160832319
 30
4.999999999999999
 70
   192
  0
VERTEX
  5
EE1
  8
0
 10
447.4975861288823
 20
-276.5054029698634
 30
4.999999999999999
 70
   192
  0
VERTEX
  5
EE2
  8
0
 10
398.1169121377532
 20
-316.599848277872
 30
4.999999999999999
 70
   192
  0
VERTEX
  5
EE3
  8
0
 10
335.1489091607583
 20
-325.6024095503369
 30
4.999999999999999
 70
   192
  0
VERTEX
  5
EE4
  8
0
 10
89.94139325248773
 20
-280.3029566407783
 30
4.999999999999999
 70
   192
  0
VERTEX
  5
EE5
  8
0
 10
-148.8542944913529
 20
-208.5019412805684
 30
4.999999999999999
 70
   192
  0
VERTEX
  5
EE6
  8
0
 10
0.0
 20
0.0
 30
0.0
 70
   128
 71
     1
 72
    21
 73
   -20
  0
VERTEX
  5
EE7
  8
0
 10
0.0
 20
0.0
 30
0.0
 70
   128
 71
    -1
 72
    20
 73
   -19
  0
VERTEX
  5
EE8
  8
0
 10
0.0
 20
0.0
 30
0.0
 70
   128
 71
    -1
 72
    19
 73
   -18
  0
VERTEX
  5
EE9
  8
0
 10
0.0
 20
0.0
 30
0.0
 70
   128
 71
    -1
 72
    18
 73
   -17
  0
VERTEX
  5
EEA
  8
0
 10
0.0
 20
0.0
 30
0.0
 70
   128
 71
    -1
 72
    17
 73
   -16
  0
VERTEX
  5
EEB
  8
0
 10
0.0
 20
0.0
 30
0.0
 70
   128
 71
    -1
 72
    16
 73
   -15
  0
VERTEX
  5
EEC
  8
0
 10
0.0
 20
0.0
 30
0.0
 70
   128
 71
    -1
 72
    15
 73
   -14
  0
VERTEX
  5
EED
  8
0
 10
0.0
 20
0.0
 30
0.0
 70
   128
 71
    -1
 72
    14
 73
   -13
  0
VERTEX
  5
EEE
  8
0
 10
0.0
 20
0.0
 30
0.0
 70
   128
 71
    -1
 72
    13
 73
   -12
  0
VERTEX
  5
EEF
  8
0
 10
0.0
 20
0.0
 30
0.0
 70
   128
 71
    -1
 72
    12
 73
   -11
  0
VERTEX
  5
EF0
  8
0
 10
0.0
 20
0.0
 30
0.0
 70
   128
 71
    -1
 72
    11
 73
   -10
  0
VERTEX
  5
EF1
  8
0
 10
0.0
 20
0.0
 30
0.0
 70
   128
 71
    -1
 72
    10
 73
    -9
  0
VERTEX
  5
EF2
  8
0
 10
0.0
 20
0.0
 30
0.0
 70
   128
 71
    -1
 72
     9
 73
    -8
  0
VERTEX
  5
EF3
  8
0
 10
0.0
 20
0.0
 30
0.0
 70
   128
 71
    -1
 72
     8
 73
    -7
  0
VERTEX
  5
EF4
  8
0
 10
0.0
 20
0.0
 30
0.0
 70
   128
 71
    -1
 72
     7
 73
    -6
  0
VERTEX
  5
EF5
  8
0
 10
0.0
 20
0.0
 30
0.0
 70
   128
 71
    -1
 72
     6
 73
    -5
  0
VERTEX
  5
EF6
  8
0
 10
0.0
 20
0.0
 30
0.0
 70
   128
 71
    -1
 72
     5
 73
    -4
  0
VERTEX
  5
EF7
  8
0
 10
0.0
 20
0.0
 30
0.0
 70
   128
 71
    -1
 72
     4
 73
    -3
  0
VERTEX
  5
EF8
  8
0
 10
0.0
 20
0.0
 30
0.0
 70
   128
 71
    -1
 72
     3
 73
     2
  0
SEQEND
  5
198F
  8
0
  0
ENDBLK
  5
197E
  8
0
  0
BLOCK
  8
0
  2
*X2
 70
     1
 10
0.0
 20
0.0
 30
0.0
  3
*X2
  1

  0
POLYLINE
  5
EFA
  8
0
 66
     1
 10
0.0
 20
0.0
 30
0.0
 70
    64
 71
    24
 72
    26
  0
VERTEX
  5
EFB
  8
0
 10
276.8863723980361
 20
-39.63261957190901
 30
-1.0
 70
   192
  0
VERTEX
  5
EFC
  8
0
 10
214.8863723980361
 20
-39.63261957190904
 30
-1.0
 70
   192
  0
VERTEX
  5
EFD
  8
0
 10
212.3863723980361
 20
-40.30249255298685
 30
-1.0
 70
   192
  0
VERTEX
  5
EFE
  8
0
 10
210.5562453791139
 20
-42.13261957190904
 30
-1.0
 70
   192
  0
VERTEX
  5
EFF
  8
0
 10
209.8863723980361
 20
-44.63261957190905
 30
-1.0
 70
   192
  0
VERTEX
  5
F00
  8
0
 10
209.8863723980361
 20
-106.632619571909
 30
-1.0
 70
   192
  0
VERTEX
  5
F01
  8
0
 10
210.5562453791139
 20
-109.132619571909
 30
-1.0
 70
   192
  0
VERTEX
  5
F02
  8
0
 10
212.3863723980361
 20
-110.9627465908312
 30
-1.0
 70
   192
  0
VERTEX
  5
F03
  8
0
 10
214.8863723980361
 20
-111.632619571909
 30
-1.0
 70
   192
  0
VERTEX
  5
F04
  8
0
 10
276.8863723980361
 20
-111.632619571909
 30
-1.0
 70
   192
  0
VERTEX
  5
F05
  8
0
 10
279.3863723980361
 20
-110.9627465908312
 30
-1.0
 70
   192
  0
VERTEX
  5
F06
  8
0
 10
281.2164994169584
 20
-109.132619571909
 30
-1.0
 70
   192
  0
VERTEX
  5
F07
  8
0
 10
281.8863723980361
 20
-106.632619571909
 30
-1.0
 70
   192
  0
VERTEX
  5
F08
  8
0
 10
281.8863723980361
 20
-44.63261957190903
 30
-1.0
 70
   192
  0
VERTEX
  5
F09
  8
0
 10
281.2164994169584
 20
-42.13261957190903
 30
-1.0
 70
   192
  0
VERTEX
  5
F0A
  8
0
 10
279.3863723980361
 20
-40.30249255298683
 30
-1.0
 70
   192
  0
VERTEX
  5
F0B
  8
0
 10
257.2988631628875
 20
-91.62861957190908
 30
-1.0
 70
   192
  0
VERTEX
  5
F0C
  8
0
 10
257.2988631628875
 20
-101.6326195719091
 30
-1.0
 70
   192
  0
VERTEX
  5
F0D
  8
0
 10
219.8863723980361
 20
-101.6326195719091
 30
-1.0
 70
   192
  0
VERTEX
  5
F0E
  8
0
 10
219.8863723980361
 20
-91.6286195719091
 30
-1.0
 70
   192
  0
VERTEX
  5
F0F
  8
0
 10
261.8823723980361
 20
-87.04511033676046
 30
-1.0
 70
   192
  0
VERTEX
  5
F10
  8
0
 10
261.8823723980361
 20
-49.63261957190901
 30
-1.0
 70
   192
  0
VERTEX
  5
F11
  8
0
 10
271.8863723980361
 20
-49.63261957190902
 30
-1.0
 70
   192
  0
VERTEX
  5
F12
  8
0
 10
271.8863723980361
 20
-87.04511033676046
 30
-1.0
 70
   192
  0
VERTEX
  5
F13
  8
0
 10
0.0
 20
0.0
 30
0.0
 70
   128
 71
    18
 72
   -17
 73
   -13
  0
VERTEX
  5
F14
  8
0
 10
0.0
 20
0.0
 30
0.0
 70
   128
 71
   -18
 72
    13
 73
   -12
  0
VERTEX
  5
F15
  8
0
 10
0.0
 20
0.0
 30
0.0
 70
   128
 71
    12
 72
    11
 73
   -10
  0
VERTEX
  5
F16
  8
0
 10
0.0
 20
0.0
 30
0.0
 70
   128
 71
   -12
 72
    10
 73
    -9
  0
VERTEX
  5
F17
  8
0
 10
0.0
 20
0.0
 30
0.0
 70
   128
 71
   -12
 72
     9
 73
    -8
  0
VERTEX
  5
F18
  8
0
 10
0.0
 20
0.0
 30
0.0
 70
   128
 71
   -12
 72
     8
 73
    -7
  0
VERTEX
  5
F19
  8
0
 10
0.0
 20
0.0
 30
0.0
 70
   128
 71
   -12
 72
     7
 73
    -6
  0
VERTEX
  5
F1A
  8
0
 10
0.0
 20
0.0
 30
0.0
 70
   128
 71
   -12
 72
    -6
 73
   -19
  0
VERTEX
  5
F1B
  8
0
 10
0.0
 20
0.0
 30
0.0
 70
   128
 71
   -12
 72
    19
 73
   -18
  0
VERTEX
  5
F1C
  8
0
 10
0.0
 20
0.0
 30
0.0
 70
   128
 71
    -6
 72
    20
 73
   -19
  0
VERTEX
  5
F1D
  8
0
 10
0.0
 20
0.0
 30
0.0
 70
   128
 71
   -20
 72
     6
 73
    -5
  0
VERTEX
  5
F1E
  8
0
 10
0.0
 20
0.0
 30
0.0
 70
   128
 71
     5
 72
     4
 73
    -3
  0
VERTEX
  5
F1F
  8
0
 10
0.0
 20
0.0
 30
0.0
 70
   128
 71
    -5
 72
     3
 73
    -2
  0
VERTEX
  5
F20
  8
0
 10
0.0
 20
0.0
 30
0.0
 70
   128
 71
    -5
 72
    -2
 73
   -22
  0
VERTEX
  5
F21
  8
0
 10
0.0
 20
0.0
 30
0.0
 70
   128
 71
    -5
 72
    22
 73
   -21
  0
VERTEX
  5
F22
  8
0
 10
0.0
 20
0.0
 30
0.0
 70
   128
 71
    -5
 72
   -21
 73
   -17
  0
VERTEX
  5
F23
  8
0
 10
0.0
 20
0.0
 30
0.0
 70
   128
 71
    -5
 72
    17
 73
   -20
  0
VERTEX
  5
F24
  8
0
 10
0.0
 20
0.0
 30
0.0
 70
   128
 71
     2
 72
    -1
 73
   -22
  0
VERTEX
  5
F25
  8
0
 10
0.0
 20
0.0
 30
0.0
 70
   128
 71
    -1
 72
    23
 73
   -22
  0
VERTEX
  5
F26
  8
0
 10
0.0
 20
0.0
 30
0.0
 70
   128
 71
     1
 72
    16
 73
   -15
  0
VERTEX
  5
F27
  8
0
 10
0.0
 20
0.0
 30
0.0
 70
   128
 71
    -1
 72
    15
 73
   -14
  0
VERTEX
  5
F28
  8
0
 10
0.0
 20
0.0
 30
0.0
 70
   128
 71
    -1
 72
    14
 73
   -13
  0
VERTEX
  5
F29
  8
0
 10
0.0
 20
0.0
 30
0.0
 70
   128
 71
    -1
 72
   -13
 73
   -24
  0
VERTEX
  5
F2A
  8
0
 10
0.0
 20
0.0
 30
0.0
 70
   128
 71
    -1
 72
    24
 73
   -23
  0
VERTEX
  5
F2B
  8
0
 10
0.0
 20
0.0
 30
0.0
 70
   128
 71
   -13
 72
   -17
 73
   -24
  0
VERTEX
  5
F2C
  8
0
 10
0.0
 20
0.0
 30
0.0
 70
   128
 71
   -17
 72
    21
 73
   -24
  0
SEQEND
  5
1992
  8
0
  0
POLYLINE
  5
F2D
  8
0
 66
     1
 10
0.0
 20
0.0
 30
0.0
 70
    64
 71
     8
 72
     6
  0
VERTEX
  5
F2E
  8
0
 10
281.2164994169584
 20
-42.13261957190903
 30
0.0
 70
   192
  0
VERTEX
  5
F2F
  8
0
 10
281.2164994169584
 20
-42.13261957190903
 30
-1.0
 70
   192
  0
VERTEX
  5
F30
  8
0
 10
279.3863723980361
 20
-40.30249255298683
 30
-1.0
 70
   192
  0
VERTEX
  5
F31
  8
0
 10
279.3863723980361
 20
-40.30249255298683
 30
0.0
 70
   192
  0
VERTEX
  5
F32
  8
0
 10
281.8863723980361
 20
-44.63261957190903
 30
0.0
 70
   192
  0
VERTEX
  5
F33
  8
0
 10
281.8863723980361
 20
-44.63261957190903
 30
-1.0
 70
   192
  0
VERTEX
  5
F34
  8
0
 10
276.8863723980361
 20
-39.63261957190903
 30
-1.0
 70
   192
  0
VERTEX
  5
F35
  8
0
 10
276.8863723980361
 20
-39.63261957190901
 30
0.0
 70
   192
  0
VERTEX
  5
F36
  8
0
 10
0.0
 20
0.0
 30
0.0
 70
   128
 71
     1
 72
     2
 73
    -3
  0
VERTEX
  5
F37
  8
0
 10
0.0
 20
0.0
 30
0.0
 70
   128
 71
    -1
 72
     3
 73
     4
  0
VERTEX
  5
F38
  8
0
 10
0.0
 20
0.0
 30
0.0
 70
   128
 71
     5
 72
     6
 73
    -2
  0
VERTEX
  5
F39
  8
0
 10
0.0
 20
0.0
 30
0.0
 70
   128
 71
    -5
 72
     2
 73
     1
  0
VERTEX
  5
F3A
  8
0
 10
0.0
 20
0.0
 30
0.0
 70
   128
 71
     4
 72
     3
 73
    -7
  0
VERTEX
  5
F3B
  8
0
 10
0.0
 20
0.0
 30
0.0
 70
   128
 71
    -4
 72
     7
 73
     8
  0
SEQEND
  5
1993
  8
0
  0
POLYLINE
  5
F3C
  8
0
 66
     1
 10
0.0
 20
0.0
 30
0.0
 70
    64
 71
     4
 72
     2
  0
VERTEX
  5
F3D
  8
0
 10
281.8863723980361
 20
-44.63261957190903
 30
0.0
 70
   192
  0
VERTEX
  5
F3E
  8
0
 10
281.8863723980361
 20
-106.632619571909
 30
0.0
 70
   192
  0
VERTEX
  5
F3F
  8
0
 10
281.8863723980361
 20
-106.632619571909
 30
-1.0
 70
   192
  0
VERTEX
  5
F40
  8
0
 10
281.8863723980361
 20
-44.63261957190903
 30
-1.0
 70
   192
  0
VERTEX
  5
F41
  8
0
 10
0.0
 20
0.0
 30
0.0
 70
   128
 71
     3
 72
     4
 73
    -1
  0
VERTEX
  5
F42
  8
0
 10
0.0
 20
0.0
 30
0.0
 70
   128
 71
     2
 72
    -3
 73
     1
  0
SEQEND
  5
1994
  8
0
  0
POLYLINE
  5
F43
  8
0
 66
     1
 10
0.0
 20
0.0
 30
0.0
 70
    64
 71
     8
 72
     6
  0
VERTEX
  5
F44
  8
0
 10
279.3863723980361
 20
-110.9627465908312
 30
0.0
 70
   192
  0
VERTEX
  5
F45
  8
0
 10
279.3863723980361
 20
-110.9627465908312
 30
-1.0
 70
   192
  0
VERTEX
  5
F46
  8
0
 10
281.2164994169584
 20
-109.132619571909
 30
-1.0
 70
   192
  0
VERTEX
  5
F47
  8
0
 10
281.2164994169584
 20
-109.132619571909
 30
0.0
 70
   192
  0
VERTEX
  5
F48
  8
0
 10
276.8863723980361
 20
-111.632619571909
 30
0.0
 70
   192
  0
VERTEX
  5
F49
  8
0
 10
276.8863723980361
 20
-111.6326195719091
 30
-1.0
 70
   192
  0
VERTEX
  5
F4A
  8
0
 10
281.8863723980361
 20
-106.632619571909
 30
-1.0
 70
   192
  0
VERTEX
  5
F4B
  8
0
 10
281.8863723980361
 20
-106.632619571909
 30
0.0
 70
   192
  0
VERTEX
  5
F4C
  8
0
 10
0.0
 20
0.0
 30
0.0
 70
   128
 71
     1
 72
     2
 73
    -3
  0
VERTEX
  5
F4D
  8
0
 10
0.0
 20
0.0
 30
0.0
 70
   128
 71
    -1
 72
     3
 73
     4
  0
VERTEX
  5
F4E
  8
0
 10
0.0
 20
0.0
 30
0.0
 70
   128
 71
     5
 72
     6
 73
    -2
  0
VERTEX
  5
F4F
  8
0
 10
0.0
 20
0.0
 30
0.0
 70
   128
 71
    -5
 72
     2
 73
     1
  0
VERTEX
  5
F50
  8
0
 10
0.0
 20
0.0
 30
0.0
 70
   128
 71
     4
 72
     3
 73
    -7
  0
VERTEX
  5
F51
  8
0
 10
0.0
 20
0.0
 30
0.0
 70
   128
 71
    -4
 72
     7
 73
     8
  0
SEQEND
  5
1995
  8
0
  0
POLYLINE
  5
F52
  8
0
 66
     1
 10
0.0
 20
0.0
 30
0.0
 70
    64
 71
     4
 72
     2
  0
VERTEX
  5
F53
  8
0
 10
276.8863723980361
 20
-111.6326195719091
 30
0.0
 70
   192
  0
VERTEX
  5
F54
  8
0
 10
214.8863723980361
 20
-111.632619571909
 30
0.0
 70
   192
  0
VERTEX
  5
F55
  8
0
 10
214.8863723980361
 20
-111.632619571909
 30
-1.0
 70
   192
  0
VERTEX
  5
F56
  8
0
 10
276.8863723980361
 20
-111.6326195719091
 30
-1.0
 70
   192
  0
VERTEX
  5
F57
  8
0
 10
0.0
 20
0.0
 30
0.0
 70
   128
 71
     3
 72
     4
 73
    -1
  0
VERTEX
  5
F58
  8
0
 10
0.0
 20
0.0
 30
0.0
 70
   128
 71
     2
 72
    -3
 73
     1
  0
SEQEND
  5
1996
  8
0
  0
POLYLINE
  5
F59
  8
0
 66
     1
 10
0.0
 20
0.0
 30
0.0
 70
    64
 71
     8
 72
     6
  0
VERTEX
  5
F5A
  8
0
 10
210.5562453791139
 20
-109.132619571909
 30
0.0
 70
   192
  0
VERTEX
  5
F5B
  8
0
 10
210.5562453791139
 20
-109.132619571909
 30
-1.0
 70
   192
  0
VERTEX
  5
F5C
  8
0
 10
212.3863723980361
 20
-110.9627465908312
 30
-1.0
 70
   192
  0
VERTEX
  5
F5D
  8
0
 10
212.3863723980361
 20
-110.9627465908312
 30
0.0
 70
   192
  0
VERTEX
  5
F5E
  8
0
 10
209.8863723980361
 20
-106.632619571909
 30
0.0
 70
   192
  0
VERTEX
  5
F5F
  8
0
 10
209.8863723980361
 20
-106.632619571909
 30
-1.0
 70
   192
  0
VERTEX
  5
F60
  8
0
 10
214.8863723980361
 20
-111.632619571909
 30
-1.0
 70
   192
  0
VERTEX
  5
F61
  8
0
 10
214.8863723980361
 20
-111.632619571909
 30
0.0
 70
   192
  0
VERTEX
  5
F62
  8
0
 10
0.0
 20
0.0
 30
0.0
 70
   128
 71
     1
 72
     2
 73
    -3
  0
VERTEX
  5
F63
  8
0
 10
0.0
 20
0.0
 30
0.0
 70
   128
 71
    -1
 72
     3
 73
     4
  0
VERTEX
  5
F64
  8
0
 10
0.0
 20
0.0
 30
0.0
 70
   128
 71
     5
 72
     6
 73
    -2
  0
VERTEX
  5
F65
  8
0
 10
0.0
 20
0.0
 30
0.0
 70
   128
 71
    -5
 72
     2
 73
     1
  0
VERTEX
  5
F66
  8
0
 10
0.0
 20
0.0
 30
0.0
 70
   128
 71
     4
 72
     3
 73
    -7
  0
VERTEX
  5
F67
  8
0
 10
0.0
 20
0.0
 30
0.0
 70
   128
 71
    -4
 72
     7
 73
     8
  0
SEQEND
  5
1997
  8
0
  0
POLYLINE
  5
F68
  8
0
 66
     1
 10
0.0
 20
0.0
 30
0.0
 70
    64
 71
     4
 72
     2
  0
VERTEX
  5
F69
  8
0
 10
209.8863723980361
 20
-106.632619571909
 30
0.0
 70
   192
  0
VERTEX
  5
F6A
  8
0
 10
209.8863723980361
 20
-44.63261957190905
 30
0.0
 70
   192
  0
VERTEX
  5
F6B
  8
0
 10
209.8863723980361
 20
-44.63261957190905
 30
-1.0
 70
   192
  0
VERTEX
  5
F6C
  8
0
 10
209.8863723980361
 20
-106.632619571909
 30
-1.0
 70
   192
  0
VERTEX
  5
F6D
  8
0
 10
0.0
 20
0.0
 30
0.0
 70
   128
 71
     3
 72
     4
 73
    -1
  0
VERTEX
  5
F6E
  8
0
 10
0.0
 20
0.0
 30
0.0
 70
   128
 71
     2
 72
    -3
 73
     1
  0
SEQEND
  5
1998
  8
0
  0
POLYLINE
  5
F6F
  8
0
 66
     1
 10
0.0
 20
0.0
 30
0.0
 70
    64
 71
     8
 72
     6
  0
VERTEX
  5
F70
  8
0
 10
212.3863723980361
 20
-40.30249255298685
 30
0.0
 70
   192
  0
VERTEX
  5
F71
  8
0
 10
212.3863723980361
 20
-40.30249255298685
 30
-1.0
 70
   192
  0
VERTEX
  5
F72
  8
0
 10
210.5562453791139
 20
-42.13261957190904
 30
-1.0
 70
   192
  0
VERTEX
  5
F73
  8
0
 10
210.5562453791139
 20
-42.13261957190904
 30
0.0
 70
   192
  0
VERTEX
  5
F74
  8
0
 10
214.8863723980361
 20
-39.63261957190904
 30
0.0
 70
   192
  0
VERTEX
  5
F75
  8
0
 10
214.8863723980361
 20
-39.63261957190903
 30
-1.0
 70
   192
  0
VERTEX
  5
F76
  8
0
 10
209.8863723980361
 20
-44.63261957190905
 30
-1.0
 70
   192
  0
VERTEX
  5
F77
  8
0
 10
209.8863723980361
 20
-44.63261957190905
 30
0.0
 70
   192
  0
VERTEX
  5
F78
  8
0
 10
0.0
 20
0.0
 30
0.0
 70
   128
 71
     1
 72
     2
 73
    -3
  0
VERTEX
  5
F79
  8
0
 10
0.0
 20
0.0
 30
0.0
 70
   128
 71
    -1
 72
     3
 73
     4
  0
VERTEX
  5
F7A
  8
0
 10
0.0
 20
0.0
 30
0.0
 70
   128
 71
     5
 72
     6
 73
    -2
  0
VERTEX
  5
F7B
  8
0
 10
0.0
 20
0.0
 30
0.0
 70
   128
 71
    -5
 72
     2
 73
     1
  0
VERTEX
  5
F7C
  8
0
 10
0.0
 20
0.0
 30
0.0
 70
   128
 71
     4
 72
     3
 73
    -7
  0
VERTEX
  5
F7D
  8
0
 10
0.0
 20
0.0
 30
0.0
 70
   128
 71
    -4
 72
     7
 73
     8
  0
SEQEND
  5
1999
  8
0
  0
POLYLINE
  5
F7E
  8
0
 66
     1
 10
0.0
 20
0.0
 30
0.0
 70
    64
 71
     4
 72
     2
  0
VERTEX
  5
F7F
  8
0
 10
214.8863723980361
 20
-39.63261957190903
 30
0.0
 70
   192
  0
VERTEX
  5
F80
  8
0
 10
276.8863723980361
 20
-39.63261957190901
 30
0.0
 70
   192
  0
VERTEX
  5
F81
  8
0
 10
276.8863723980361
 20
-39.63261957190901
 30
-1.0
 70
   192
  0
VERTEX
  5
F82
  8
0
 10
214.8863723980361
 20
-39.63261957190903
 30
-1.0
 70
   192
  0
VERTEX
  5
F83
  8
0
 10
0.0
 20
0.0
 30
0.0
 70
   128
 71
     3
 72
     4
 73
    -1
  0
VERTEX
  5
F84
  8
0
 10
0.0
 20
0.0
 30
0.0
 70
   128
 71
     2
 72
    -3
 73
     1
  0
SEQEND
  5
199A
  8
0
  0
POLYLINE
  5
F85
  8
0
 66
     1
 10
0.0
 20
0.0
 30
0.0
 70
    64
 71
    16
 72
    14
  0
VERTEX
  5
F86
  8
0
 10
281.8863723980361
 20
-44.63261957190903
 30
0.0
 70
   192
  0
VERTEX
  5
F87
  8
0
 10
281.2164994169584
 20
-42.13261957190903
 30
0.0
 70
   192
  0
VERTEX
  5
F88
  8
0
 10
279.3863723980361
 20
-40.30249255298683
 30
0.0
 70
   192
  0
VERTEX
  5
F89
  8
0
 10
276.8863723980361
 20
-39.63261957190903
 30
0.0
 70
   192
  0
VERTEX
  5
F8A
  8
0
 10
214.8863723980361
 20
-39.63261957190903
 30
0.0
 70
   192
  0
VERTEX
  5
F8B
  8
0
 10
212.3863723980361
 20
-40.30249255298685
 30
0.0
 70
   192
  0
VERTEX
  5
F8C
  8
0
 10
210.5562453791139
 20
-42.13261957190904
 30
0.0
 70
   192
  0
VERTEX
  5
F8D
  8
0
 10
209.8863723980361
 20
-44.63261957190905
 30
0.0
 70
   192
  0
VERTEX
  5
F8E
  8
0
 10
209.8863723980361
 20
-106.632619571909
 30
0.0
 70
   192
  0
VERTEX
  5
F8F
  8
0
 10
210.5562453791139
 20
-109.132619571909
 30
0.0
 70
   192
  0
VERTEX
  5
F90
  8
0
 10
212.3863723980361
 20
-110.9627465908312
 30
0.0
 70
   192
  0
VERTEX
  5
F91
  8
0
 10
214.8863723980361
 20
-111.632619571909
 30
0.0
 70
   192
  0
VERTEX
  5
F92
  8
0
 10
276.8863723980361
 20
-111.6326195719091
 30
0.0
 70
   192
  0
VERTEX
  5
F93
  8
0
 10
279.3863723980361
 20
-110.9627465908312
 30
0.0
 70
   192
  0
VERTEX
  5
F94
  8
0
 10
281.2164994169584
 20
-109.132619571909
 30
0.0
 70
   192
  0
VERTEX
  5
F95
  8
0
 10
281.8863723980361
 20
-106.632619571909
 30
0.0
 70
   192
  0
VERTEX
  5
F96
  8
0
 10
0.0
 20
0.0
 30
0.0
 70
   128
 71
    15
 72
    16
 73
    -1
  0
VERTEX
  5
F97
  8
0
 10
0.0
 20
0.0
 30
0.0
 70
   128
 71
    14
 72
   -15
 73
    -1
  0
VERTEX
  5
F98
  8
0
 10
0.0
 20
0.0
 30
0.0
 70
   128
 71
    13
 72
   -14
 73
    -1
  0
VERTEX
  5
F99
  8
0
 10
0.0
 20
0.0
 30
0.0
 70
   128
 71
    12
 72
   -13
 73
    -1
  0
VERTEX
  5
F9A
  8
0
 10
0.0
 20
0.0
 30
0.0
 70
   128
 71
    11
 72
   -12
 73
    -1
  0
VERTEX
  5
F9B
  8
0
 10
0.0
 20
0.0
 30
0.0
 70
   128
 71
    10
 72
   -11
 73
    -1
  0
VERTEX
  5
F9C
  8
0
 10
0.0
 20
0.0
 30
0.0
 70
   128
 71
     9
 72
   -10
 73
    -1
  0
VERTEX
  5
F9D
  8
0
 10
0.0
 20
0.0
 30
0.0
 70
   128
 71
     8
 72
    -9
 73
    -1
  0
VERTEX
  5
F9E
  8
0
 10
0.0
 20
0.0
 30
0.0
 70
   128
 71
     7
 72
    -8
 73
    -1
  0
VERTEX
  5
F9F
  8
0
 10
0.0
 20
0.0
 30
0.0
 70
   128
 71
     6
 72
    -7
 73
    -1
  0
VERTEX
  5
FA0
  8
0
 10
0.0
 20
0.0
 30
0.0
 70
   128
 71
     5
 72
    -6
 73
    -1
  0
VERTEX
  5
FA1
  8
0
 10
0.0
 20
0.0
 30
0.0
 70
   128
 71
     4
 72
    -5
 73
    -1
  0
VERTEX
  5
FA2
  8
0
 10
0.0
 20
0.0
 30
0.0
 70
   128
 71
     3
 72
    -4
 73
    -1
  0
VERTEX
  5
FA3
  8
0
 10
0.0
 20
0.0
 30
0.0
 70
   128
 71
     2
 72
    -3
 73
     1
  0
SEQEND
  5
199B
  8
0
  0
POLYLINE
  5
FA4
  8
0
 66
     1
 10
0.0
 20
0.0
 30
0.0
 70
    64
 71
     4
 72
     2
  0
VERTEX
  5
FA5
  8
0
 10
271.8863723980361
 20
-87.04511033676046
 30
-1.0
 70
   192
  0
VERTEX
  5
FA6
  8
0
 10
271.8863723980361
 20
-87.04511033676046
 30
-8.0
 70
   192
  0
VERTEX
  5
FA7
  8
0
 10
261.8823723980361
 20
-87.04511033676046
 30
-8.0
 70
   192
  0
VERTEX
  5
FA8
  8
0
 10
261.8823723980361
 20
-87.04511033676046
 30
-1.0
 70
   192
  0
VERTEX
  5
FA9
  8
0
 10
0.0
 20
0.0
 30
0.0
 70
   128
 71
     1
 72
     4
 73
    -3
  0
VERTEX
  5
FAA
  8
0
 10
0.0
 20
0.0
 30
0.0
 70
   128
 71
    -1
 72
     3
 73
     2
  0
SEQEND
  5
199C
  8
0
  0
POLYLINE
  5
FAB
  8
0
 66
     1
 10
0.0
 20
0.0
 30
0.0
 70
    64
 71
     4
 72
     2
  0
VERTEX
  5
FAC
  8
0
 10
261.8823723980361
 20
-87.04511033676046
 30
-1.0
 70
   192
  0
VERTEX
  5
FAD
  8
0
 10
261.8823723980361
 20
-87.04511033676046
 30
-8.0
 70
   192
  0
VERTEX
  5
FAE
  8
0
 10
261.8823723980361
 20
-49.63261957190901
 30
-8.0
 70
   192
  0
VERTEX
  5
FAF
  8
0
 10
261.8823723980361
 20
-49.63261957190902
 30
-1.0
 70
   192
  0
VERTEX
  5
FB0
  8
0
 10
0.0
 20
0.0
 30
0.0
 70
   128
 71
     1
 72
     4
 73
    -3
  0
VERTEX
  5
FB1
  8
0
 10
0.0
 20
0.0
 30
0.0
 70
   128
 71
    -1
 72
     3
 73
     2
  0
SEQEND
  5
199D
  8
0
  0
POLYLINE
  5
FB2
  8
0
 66
     1
 10
0.0
 20
0.0
 30
0.0
 70
    64
 71
     4
 72
     2
  0
VERTEX
  5
FB3
  8
0
 10
261.8823723980361
 20
-49.63261957190901
 30
-1.0
 70
   192
  0
VERTEX
  5
FB4
  8
0
 10
271.8863723980361
 20
-49.63261957190901
 30
-1.0
 70
   192
  0
VERTEX
  5
FB5
  8
0
 10
271.8863723980361
 20
-49.63261957190901
 30
-8.0
 70
   192
  0
VERTEX
  5
FB6
  8
0
 10
261.8823723980361
 20
-49.63261957190901
 30
-8.0
 70
   192
  0
VERTEX
  5
FB7
  8
0
 10
0.0
 20
0.0
 30
0.0
 70
   128
 71
     3
 72
     4
 73
    -1
  0
VERTEX
  5
FB8
  8
0
 10
0.0
 20
0.0
 30
0.0
 70
   128
 71
     2
 72
    -3
 73
     1
  0
SEQEND
  5
199E
  8
0
  0
POLYLINE
  5
FB9
  8
0
 66
     1
 10
0.0
 20
0.0
 30
0.0
 70
    64
 71
     4
 72
     2
  0
VERTEX
  5
FBA
  8
0
 10
271.8863723980361
 20
-49.63261957190902
 30
-1.0
 70
   192
  0
VERTEX
  5
FBB
  8
0
 10
271.8863723980361
 20
-87.04511033676046
 30
-1.0
 70
   192
  0
VERTEX
  5
FBC
  8
0
 10
271.8863723980361
 20
-87.04511033676046
 30
-8.0
 70
   192
  0
VERTEX
  5
FBD
  8
0
 10
271.8863723980361
 20
-49.63261957190902
 30
-8.0
 70
   192
  0
VERTEX
  5
FBE
  8
0
 10
0.0
 20
0.0
 30
0.0
 70
   128
 71
     3
 72
     4
 73
    -1
  0
VERTEX
  5
FBF
  8
0
 10
0.0
 20
0.0
 30
0.0
 70
   128
 71
     2
 72
    -3
 73
     1
  0
SEQEND
  5
199F
  8
0
  0
POLYLINE
  5
FC0
  8
0
 66
     1
 10
0.0
 20
0.0
 30
0.0
 70
    64
 71
     4
 72
     2
  0
VERTEX
  5
FC1
  8
0
 10
271.8863723980361
 20
-87.04511033676046
 30
-8.0
 70
   192
  0
VERTEX
  5
FC2
  8
0
 10
261.8823723980361
 20
-87.04511033676046
 30
-8.0
 70
   192
  0
VERTEX
  5
FC3
  8
0
 10
261.8823723980361
 20
-49.63261957190902
 30
-8.0
 70
   192
  0
VERTEX
  5
FC4
  8
0
 10
271.8863723980361
 20
-49.63261957190901
 30
-8.0
 70
   192
  0
VERTEX
  5
FC5
  8
0
 10
0.0
 20
0.0
 30
0.0
 70
   128
 71
     3
 72
     4
 73
    -1
  0
VERTEX
  5
FC6
  8
0
 10
0.0
 20
0.0
 30
0.0
 70
   128
 71
     2
 72
    -3
 73
     1
  0
SEQEND
  5
19A0
  8
0
  0
POLYLINE
  5
FC7
  8
0
 66
     1
 10
0.0
 20
0.0
 30
0.0
 70
    64
 71
     4
 72
     2
  0
VERTEX
  5
FC8
  8
0
 10
219.8863723980361
 20
-101.6326195719091
 30
-1.0
 70
   192
  0
VERTEX
  5
FC9
  8
0
 10
219.8863723980361
 20
-91.62861957190908
 30
-1.0
 70
   192
  0
VERTEX
  5
FCA
  8
0
 10
219.8863723980361
 20
-91.6286195719091
 30
-8.0
 70
   192
  0
VERTEX
  5
FCB
  8
0
 10
219.8863723980361
 20
-101.6326195719091
 30
-8.0
 70
   192
  0
VERTEX
  5
FCC
  8
0
 10
0.0
 20
0.0
 30
0.0
 70
   128
 71
     3
 72
     4
 73
    -1
  0
VERTEX
  5
FCD
  8
0
 10
0.0
 20
0.0
 30
0.0
 70
   128
 71
     2
 72
    -3
 73
     1
  0
SEQEND
  5
19A1
  8
0
  0
POLYLINE
  5
FCE
  8
0
 66
     1
 10
0.0
 20
0.0
 30
0.0
 70
    64
 71
     4
 72
     2
  0
VERTEX
  5
FCF
  8
0
 10
219.8863723980361
 20
-91.6286195719091
 30
-1.0
 70
   192
  0
VERTEX
  5
FD0
  8
0
 10
219.8863723980361
 20
-91.6286195719091
 30
-8.0
 70
   192
  0
VERTEX
  5
FD1
  8
0
 10
257.2988631628875
 20
-91.6286195719091
 30
-8.0
 70
   192
  0
VERTEX
  5
FD2
  8
0
 10
257.2988631628875
 20
-91.6286195719091
 30
-1.0
 70
   192
  0
VERTEX
  5
FD3
  8
0
 10
0.0
 20
0.0
 30
0.0
 70
   128
 71
     1
 72
     4
 73
    -3
  0
VERTEX
  5
FD4
  8
0
 10
0.0
 20
0.0
 30
0.0
 70
   128
 71
    -1
 72
     3
 73
     2
  0
SEQEND
  5
19A2
  8
0
  0
POLYLINE
  5
FD5
  8
0
 66
     1
 10
0.0
 20
0.0
 30
0.0
 70
    64
 71
     4
 72
     2
  0
VERTEX
  5
FD6
  8
0
 10
257.2988631628875
 20
-91.6286195719091
 30
-1.0
 70
   192
  0
VERTEX
  5
FD7
  8
0
 10
257.2988631628875
 20
-91.62861957190908
 30
-8.0
 70
   192
  0
VERTEX
  5
FD8
  8
0
 10
257.2988631628875
 20
-101.6326195719091
 30
-8.0
 70
   192
  0
VERTEX
  5
FD9
  8
0
 10
257.2988631628875
 20
-101.6326195719091
 30
-1.0
 70
   192
  0
VERTEX
  5
FDA
  8
0
 10
0.0
 20
0.0
 30
0.0
 70
   128
 71
     1
 72
     4
 73
    -3
  0
VERTEX
  5
FDB
  8
0
 10
0.0
 20
0.0
 30
0.0
 70
   128
 71
    -1
 72
     3
 73
     2
  0
SEQEND
  5
19A3
  8
0
  0
POLYLINE
  5
FDC
  8
0
 66
     1
 10
0.0
 20
0.0
 30
0.0
 70
    64
 71
     4
 72
     2
  0
VERTEX
  5
FDD
  8
0
 10
257.2988631628875
 20
-101.6326195719091
 30
-1.0
 70
   192
  0
VERTEX
  5
FDE
  8
0
 10
219.8863723980361
 20
-101.6326195719091
 30
-1.0
 70
   192
  0
VERTEX
  5
FDF
  8
0
 10
219.8863723980361
 20
-101.6326195719091
 30
-8.0
 70
   192
  0
VERTEX
  5
FE0
  8
0
 10
257.2988631628875
 20
-101.6326195719091
 30
-8.0
 70
   192
  0
VERTEX
  5
FE1
  8
0
 10
0.0
 20
0.0
 30
0.0
 70
   128
 71
     3
 72
     4
 73
    -1
  0
VERTEX
  5
FE2
  8
0
 10
0.0
 20
0.0
 30
0.0
 70
   128
 71
     2
 72
    -3
 73
     1
  0
SEQEND
  5
19A4
  8
0
  0
POLYLINE
  5
FE3
  8
0
 66
     1
 10
0.0
 20
0.0
 30
0.0
 70
    64
 71
     4
 72
     2
  0
VERTEX
  5
FE4
  8
0
 10
219.8863723980361
 20
-101.6326195719091
 30
-8.0
 70
   192
  0
VERTEX
  5
FE5
  8
0
 10
257.2988631628875
 20
-101.6326195719091
 30
-8.0
 70
   192
  0
VERTEX
  5
FE6
  8
0
 10
257.2988631628875
 20
-91.6286195719091
 30
-8.0
 70
   192
  0
VERTEX
  5
FE7
  8
0
 10
219.8863723980361
 20
-91.62861957190908
 30
-8.0
 70
   192
  0
VERTEX
  5
FE8
  8
0
 10
0.0
 20
0.0
 30
0.0
 70
   128
 71
     1
 72
     4
 73
    -3
  0
VERTEX
  5
FE9
  8
0
 10
0.0
 20
0.0
 30
0.0
 70
   128
 71
    -1
 72
     3
 73
     2
  0
SEQEND
  5
19A5
  8
0
  0
ENDBLK
  5
1991
  8
0
  0
BLOCK
  8
0
  2
*X3
 70
     1
 10
0.0
 20
0.0
 30
0.0
  3
*X3
  1

  0
POLYLINE
  5
FEB
  8
0
 66
     1
 10
0.0
 20
0.0
 30
0.0
 70
    64
 71
    24
 72
    26
  0
VERTEX
  5
FEC
  8
0
 10
281.8863723980361
 20
123.367380428091
 30
-1.0
 70
   192
  0
VERTEX
  5
FED
  8
0
 10
281.2164994169583
 20
120.867380428091
 30
-1.0
 70
   192
  0
VERTEX
  5
FEE
  8
0
 10
279.3863723980361
 20
119.0372534091688
 30
-1.0
 70
   192
  0
VERTEX
  5
FEF
  8
0
 10
276.8863723980361
 20
118.367380428091
 30
-1.0
 70
   192
  0
VERTEX
  5
FF0
  8
0
 10
214.8863723980361
 20
118.3673804280909
 30
-1.0
 70
   192
  0
VERTEX
  5
FF1
  8
0
 10
212.3863723980361
 20
119.0372534091688
 30
-1.0
 70
   192
  0
VERTEX
  5
FF2
  8
0
 10
210.5562453791138
 20
120.867380428091
 30
-1.0
 70
   192
  0
VERTEX
  5
FF3
  8
0
 10
209.886372398036
 20
123.367380428091
 30
-1.0
 70
   192
  0
VERTEX
  5
FF4
  8
0
 10
209.886372398036
 20
185.367380428091
 30
-1.0
 70
   192
  0
VERTEX
  5
FF5
  8
0
 10
210.5562453791138
 20
187.867380428091
 30
-1.0
 70
   192
  0
VERTEX
  5
FF6
  8
0
 10
212.386372398036
 20
189.6975074470132
 30
-1.0
 70
   192
  0
VERTEX
  5
FF7
  8
0
 10
214.886372398036
 20
190.367380428091
 30
-1.0
 70
   192
  0
VERTEX
  5
FF8
  8
0
 10
276.8863723980361
 20
190.367380428091
 30
-1.0
 70
   192
  0
VERTEX
  5
FF9
  8
0
 10
279.3863723980361
 20
189.6975074470131
 30
-1.0
 70
   192
  0
VERTEX
  5
FFA
  8
0
 10
281.2164994169583
 20
187.8673804280909
 30
-1.0
 70
   192
  0
VERTEX
  5
FFB
  8
0
 10
281.8863723980361
 20
185.3673804280909
 30
-1.0
 70
   192
  0
VERTEX
  5
FFC
  8
0
 10
271.8863723980361
 20
165.7798711929424
 30
-1.0
 70
   192
  0
VERTEX
  5
FFD
  8
0
 10
261.8823723980361
 20
165.7798711929424
 30
-1.0
 70
   192
  0
VERTEX
  5
FFE
  8
0
 10
261.8823723980361
 20
128.367380428091
 30
-1.0
 70
   192
  0
VERTEX
  5
FFF
  8
0
 10
271.8863723980361
 20
128.367380428091
 30
-1.0
 70
   192
  0
VERTEX
  5
1000
  8
0
 10
257.2988631628875
 20
180.367380428091
 30
-1.0
 70
   192
  0
VERTEX
  5
1001
  8
0
 10
219.8863723980361
 20
180.367380428091
 30
-1.0
 70
   192
  0
VERTEX
  5
1002
  8
0
 10
219.8863723980361
 20
170.363380428091
 30
-1.0
 70
   192
  0
VERTEX
  5
1003
  8
0
 10
257.2988631628874
 20
170.363380428091
 30
-1.0
 70
   192
  0
VERTEX
  5
1004
  8
0
 10
0.0
 20
0.0
 30
0.0
 70
   128
 71
   -21
 72
    17
 73
   -18
  0
VERTEX
  5
1005
  8
0
 10
0.0
 20
0.0
 30
0.0
 70
   128
 71
   -14
 72
   -17
 73
   -21
  0
VERTEX
  5
1006
  8
0
 10
0.0
 20
0.0
 30
0.0
 70
   128
 71
    13
 72
   -14
 73
   -21
  0
VERTEX
  5
1007
  8
0
 10
0.0
 20
0.0
 30
0.0
 70
   128
 71
    11
 72
    12
 73
   -13
  0
VERTEX
  5
1008
  8
0
 10
0.0
 20
0.0
 30
0.0
 70
   128
 71
    10
 72
   -11
 73
   -13
  0
VERTEX
  5
1009
  8
0
 10
0.0
 20
0.0
 30
0.0
 70
   128
 71
     9
 72
   -10
 73
   -13
  0
VERTEX
  5
100A
  8
0
 10
0.0
 20
0.0
 30
0.0
 70
   128
 71
   -22
 72
    -9
 73
   -13
  0
VERTEX
  5
100B
  8
0
 10
0.0
 20
0.0
 30
0.0
 70
   128
 71
    21
 72
   -22
 73
   -13
  0
VERTEX
  5
100C
  8
0
 10
0.0
 20
0.0
 30
0.0
 70
   128
 71
    22
 72
   -23
 73
    -9
  0
VERTEX
  5
100D
  8
0
 10
0.0
 20
0.0
 30
0.0
 70
   128
 71
     8
 72
    -9
 73
   -23
  0
VERTEX
  5
100E
  8
0
 10
0.0
 20
0.0
 30
0.0
 70
   128
 71
     6
 72
     7
 73
    -8
  0
VERTEX
  5
100F
  8
0
 10
0.0
 20
0.0
 30
0.0
 70
   128
 71
     5
 72
    -6
 73
    -8
  0
VERTEX
  5
1010
  8
0
 10
0.0
 20
0.0
 30
0.0
 70
   128
 71
   -19
 72
    -5
 73
    -8
  0
VERTEX
  5
1011
  8
0
 10
0.0
 20
0.0
 30
0.0
 70
   128
 71
    18
 72
   -19
 73
    -8
  0
VERTEX
  5
1012
  8
0
 10
0.0
 20
0.0
 30
0.0
 70
   128
 71
   -24
 72
   -18
 73
    -8
  0
VERTEX
  5
1013
  8
0
 10
0.0
 20
0.0
 30
0.0
 70
   128
 71
    23
 72
   -24
 73
    -8
  0
VERTEX
  5
1014
  8
0
 10
0.0
 20
0.0
 30
0.0
 70
   128
 71
    24
 72
   -21
 73
   -18
  0
VERTEX
  5
1015
  8
0
 10
0.0
 20
0.0
 30
0.0
 70
   128
 71
   -19
 72
     4
 73
    -5
  0
VERTEX
  5
1016
  8
0
 10
0.0
 20
0.0
 30
0.0
 70
   128
 71
    19
 72
   -20
 73
    -4
  0
VERTEX
  5
1017
  8
0
 10
0.0
 20
0.0
 30
0.0
 70
   128
 71
     2
 72
     3
 73
    -4
  0
VERTEX
  5
1018
  8
0
 10
0.0
 20
0.0
 30
0.0
 70
   128
 71
     1
 72
    -2
 73
    -4
  0
VERTEX
  5
1019
  8
0
 10
0.0
 20
0.0
 30
0.0
 70
   128
 71
    16
 72
    -1
 73
    -4
  0
VERTEX
  5
101A
  8
0
 10
0.0
 20
0.0
 30
0.0
 70
   128
 71
    15
 72
   -16
 73
    -4
  0
VERTEX
  5
101B
  8
0
 10
0.0
 20
0.0
 30
0.0
 70
   128
 71
    14
 72
   -15
 73
    -4
  0
VERTEX
  5
101C
  8
0
 10
0.0
 20
0.0
 30
0.0
 70
   128
 71
   -17
 72
   -14
 73
    -4
  0
VERTEX
  5
101D
  8
0
 10
0.0
 20
0.0
 30
0.0
 70
   128
 71
    20
 72
   -17
 73
    -4
  0
SEQEND
  5
19A8
  8
0
  0
POLYLINE
  5
101E
  8
0
 66
     1
 10
0.0
 20
0.0
 30
0.0
 70
    64
 71
     8
 72
     6
  0
VERTEX
  5
101F
  8
0
 10
279.3863723980361
 20
119.0372534091688
 30
0.0
 70
   192
  0
VERTEX
  5
1020
  8
0
 10
279.3863723980361
 20
119.0372534091688
 30
-1.0
 70
   192
  0
VERTEX
  5
1021
  8
0
 10
281.2164994169583
 20
120.867380428091
 30
-1.0
 70
   192
  0
VERTEX
  5
1022
  8
0
 10
281.2164994169583
 20
120.867380428091
 30
0.0
 70
   192
  0
VERTEX
  5
1023
  8
0
 10
276.8863723980361
 20
118.367380428091
 30
0.0
 70
   192
  0
VERTEX
  5
1024
  8
0
 10
276.8863723980361
 20
118.367380428091
 30
-1.0
 70
   192
  0
VERTEX
  5
1025
  8
0
 10
281.8863723980361
 20
123.367380428091
 30
-1.0
 70
   192
  0
VERTEX
  5
1026
  8
0
 10
281.8863723980361
 20
123.367380428091
 30
0.0
 70
   192
  0
VERTEX
  5
1027
  8
0
 10
0.0
 20
0.0
 30
0.0
 70
   128
 71
     1
 72
     2
 73
    -3
  0
VERTEX
  5
1028
  8
0
 10
0.0
 20
0.0
 30
0.0
 70
   128
 71
    -1
 72
     3
 73
     4
  0
VERTEX
  5
1029
  8
0
 10
0.0
 20
0.0
 30
0.0
 70
   128
 71
     5
 72
     6
 73
    -2
  0
VERTEX
  5
102A
  8
0
 10
0.0
 20
0.0
 30
0.0
 70
   128
 71
    -5
 72
     2
 73
     1
  0
VERTEX
  5
102B
  8
0
 10
0.0
 20
0.0
 30
0.0
 70
   128
 71
     4
 72
     3
 73
    -7
  0
VERTEX
  5
102C
  8
0
 10
0.0
 20
0.0
 30
0.0
 70
   128
 71
    -4
 72
     7
 73
     8
  0
SEQEND
  5
19A9
  8
0
  0
POLYLINE
  5
102D
  8
0
 66
     1
 10
0.0
 20
0.0
 30
0.0
 70
    64
 71
     4
 72
     2
  0
VERTEX
  5
102E
  8
0
 10
276.8863723980361
 20
118.367380428091
 30
0.0
 70
   192
  0
VERTEX
  5
102F
  8
0
 10
276.8863723980361
 20
118.367380428091
 30
-1.0
 70
   192
  0
VERTEX
  5
1030
  8
0
 10
214.8863723980361
 20
118.3673804280909
 30
-1.0
 70
   192
  0
VERTEX
  5
1031
  8
0
 10
214.8863723980361
 20
118.3673804280909
 30
0.0
 70
   192
  0
VERTEX
  5
1032
  8
0
 10
0.0
 20
0.0
 30
0.0
 70
   128
 71
     1
 72
     4
 73
    -3
  0
VERTEX
  5
1033
  8
0
 10
0.0
 20
0.0
 30
0.0
 70
   128
 71
    -1
 72
     3
 73
     2
  0
SEQEND
  5
19AA
  8
0
  0
POLYLINE
  5
1034
  8
0
 66
     1
 10
0.0
 20
0.0
 30
0.0
 70
    64
 71
     8
 72
     6
  0
VERTEX
  5
1035
  8
0
 10
210.5562453791138
 20
120.867380428091
 30
0.0
 70
   192
  0
VERTEX
  5
1036
  8
0
 10
210.5562453791138
 20
120.867380428091
 30
-1.0
 70
   192
  0
VERTEX
  5
1037
  8
0
 10
212.3863723980361
 20
119.0372534091688
 30
-1.0
 70
   192
  0
VERTEX
  5
1038
  8
0
 10
212.3863723980361
 20
119.0372534091688
 30
0.0
 70
   192
  0
VERTEX
  5
1039
  8
0
 10
209.886372398036
 20
123.367380428091
 30
0.0
 70
   192
  0
VERTEX
  5
103A
  8
0
 10
209.886372398036
 20
123.367380428091
 30
-1.0
 70
   192
  0
VERTEX
  5
103B
  8
0
 10
214.8863723980361
 20
118.367380428091
 30
-1.0
 70
   192
  0
VERTEX
  5
103C
  8
0
 10
214.8863723980361
 20
118.3673804280909
 30
0.0
 70
   192
  0
VERTEX
  5
103D
  8
0
 10
0.0
 20
0.0
 30
0.0
 70
   128
 71
     1
 72
     2
 73
    -3
  0
VERTEX
  5
103E
  8
0
 10
0.0
 20
0.0
 30
0.0
 70
   128
 71
    -1
 72
     3
 73
     4
  0
VERTEX
  5
103F
  8
0
 10
0.0
 20
0.0
 30
0.0
 70
   128
 71
     5
 72
     6
 73
    -2
  0
VERTEX
  5
1040
  8
0
 10
0.0
 20
0.0
 30
0.0
 70
   128
 71
    -5
 72
     2
 73
     1
  0
VERTEX
  5
1041
  8
0
 10
0.0
 20
0.0
 30
0.0
 70
   128
 71
     4
 72
     3
 73
    -7
  0
VERTEX
  5
1042
  8
0
 10
0.0
 20
0.0
 30
0.0
 70
   128
 71
    -4
 72
     7
 73
     8
  0
SEQEND
  5
19AB
  8
0
  0
POLYLINE
  5
1043
  8
0
 66
     1
 10
0.0
 20
0.0
 30
0.0
 70
    64
 71
     4
 72
     2
  0
VERTEX
  5
1044
  8
0
 10
209.886372398036
 20
123.367380428091
 30
0.0
 70
   192
  0
VERTEX
  5
1045
  8
0
 10
209.886372398036
 20
123.367380428091
 30
-1.0
 70
   192
  0
VERTEX
  5
1046
  8
0
 10
209.886372398036
 20
185.367380428091
 30
-1.0
 70
   192
  0
VERTEX
  5
1047
  8
0
 10
209.886372398036
 20
185.367380428091
 30
0.0
 70
   192
  0
VERTEX
  5
1048
  8
0
 10
0.0
 20
0.0
 30
0.0
 70
   128
 71
     1
 72
     4
 73
    -3
  0
VERTEX
  5
1049
  8
0
 10
0.0
 20
0.0
 30
0.0
 70
   128
 71
    -1
 72
     3
 73
     2
  0
SEQEND
  5
19AC
  8
0
  0
POLYLINE
  5
104A
  8
0
 66
     1
 10
0.0
 20
0.0
 30
0.0
 70
    64
 71
     8
 72
     6
  0
VERTEX
  5
104B
  8
0
 10
212.386372398036
 20
189.6975074470132
 30
0.0
 70
   192
  0
VERTEX
  5
104C
  8
0
 10
212.386372398036
 20
189.6975074470132
 30
-1.0
 70
   192
  0
VERTEX
  5
104D
  8
0
 10
210.5562453791138
 20
187.867380428091
 30
-1.0
 70
   192
  0
VERTEX
  5
104E
  8
0
 10
210.5562453791138
 20
187.867380428091
 30
0.0
 70
   192
  0
VERTEX
  5
104F
  8
0
 10
214.886372398036
 20
190.367380428091
 30
0.0
 70
   192
  0
VERTEX
  5
1050
  8
0
 10
214.886372398036
 20
190.367380428091
 30
-1.0
 70
   192
  0
VERTEX
  5
1051
  8
0
 10
209.886372398036
 20
185.367380428091
 30
-1.0
 70
   192
  0
VERTEX
  5
1052
  8
0
 10
209.886372398036
 20
185.367380428091
 30
0.0
 70
   192
  0
VERTEX
  5
1053
  8
0
 10
0.0
 20
0.0
 30
0.0
 70
   128
 71
     1
 72
     2
 73
    -3
  0
VERTEX
  5
1054
  8
0
 10
0.0
 20
0.0
 30
0.0
 70
   128
 71
    -1
 72
     3
 73
     4
  0
VERTEX
  5
1055
  8
0
 10
0.0
 20
0.0
 30
0.0
 70
   128
 71
     5
 72
     6
 73
    -2
  0
VERTEX
  5
1056
  8
0
 10
0.0
 20
0.0
 30
0.0
 70
   128
 71
    -5
 72
     2
 73
     1
  0
VERTEX
  5
1057
  8
0
 10
0.0
 20
0.0
 30
0.0
 70
   128
 71
     4
 72
     3
 73
    -7
  0
VERTEX
  5
1058
  8
0
 10
0.0
 20
0.0
 30
0.0
 70
   128
 71
    -4
 72
     7
 73
     8
  0
SEQEND
  5
19AD
  8
0
  0
POLYLINE
  5
1059
  8
0
 66
     1
 10
0.0
 20
0.0
 30
0.0
 70
    64
 71
     4
 72
     2
  0
VERTEX
  5
105A
  8
0
 10
214.886372398036
 20
190.367380428091
 30
0.0
 70
   192
  0
VERTEX
  5
105B
  8
0
 10
214.886372398036
 20
190.367380428091
 30
-1.0
 70
   192
  0
VERTEX
  5
105C
  8
0
 10
276.8863723980361
 20
190.367380428091
 30
-1.0
 70
   192
  0
VERTEX
  5
105D
  8
0
 10
276.8863723980361
 20
190.367380428091
 30
0.0
 70
   192
  0
VERTEX
  5
105E
  8
0
 10
0.0
 20
0.0
 30
0.0
 70
   128
 71
     1
 72
     4
 73
    -3
  0
VERTEX
  5
105F
  8
0
 10
0.0
 20
0.0
 30
0.0
 70
   128
 71
    -1
 72
     3
 73
     2
  0
SEQEND
  5
19AE
  8
0
  0
POLYLINE
  5
1060
  8
0
 66
     1
 10
0.0
 20
0.0
 30
0.0
 70
    64
 71
     8
 72
     6
  0
VERTEX
  5
1061
  8
0
 10
281.2164994169583
 20
187.8673804280909
 30
0.0
 70
   192
  0
VERTEX
  5
1062
  8
0
 10
281.2164994169583
 20
187.8673804280909
 30
-1.0
 70
   192
  0
VERTEX
  5
1063
  8
0
 10
279.3863723980361
 20
189.6975074470131
 30
-1.0
 70
   192
  0
VERTEX
  5
1064
  8
0
 10
279.3863723980361
 20
189.6975074470131
 30
0.0
 70
   192
  0
VERTEX
  5
1065
  8
0
 10
281.8863723980361
 20
185.3673804280909
 30
0.0
 70
   192
  0
VERTEX
  5
1066
  8
0
 10
281.8863723980361
 20
185.3673804280909
 30
-1.0
 70
   192
  0
VERTEX
  5
1067
  8
0
 10
276.8863723980361
 20
190.3673804280909
 30
-1.0
 70
   192
  0
VERTEX
  5
1068
  8
0
 10
276.8863723980361
 20
190.367380428091
 30
0.0
 70
   192
  0
VERTEX
  5
1069
  8
0
 10
0.0
 20
0.0
 30
0.0
 70
   128
 71
     1
 72
     2
 73
    -3
  0
VERTEX
  5
106A
  8
0
 10
0.0
 20
0.0
 30
0.0
 70
   128
 71
    -1
 72
     3
 73
     4
  0
VERTEX
  5
106B
  8
0
 10
0.0
 20
0.0
 30
0.0
 70
   128
 71
     5
 72
     6
 73
    -2
  0
VERTEX
  5
106C
  8
0
 10
0.0
 20
0.0
 30
0.0
 70
   128
 71
    -5
 72
     2
 73
     1
  0
VERTEX
  5
106D
  8
0
 10
0.0
 20
0.0
 30
0.0
 70
   128
 71
     4
 72
     3
 73
    -7
  0
VERTEX
  5
106E
  8
0
 10
0.0
 20
0.0
 30
0.0
 70
   128
 71
    -4
 72
     7
 73
     8
  0
SEQEND
  5
19AF
  8
0
  0
POLYLINE
  5
106F
  8
0
 66
     1
 10
0.0
 20
0.0
 30
0.0
 70
    64
 71
     4
 72
     2
  0
VERTEX
  5
1070
  8
0
 10
281.8863723980361
 20
185.3673804280909
 30
0.0
 70
   192
  0
VERTEX
  5
1071
  8
0
 10
281.8863723980361
 20
185.3673804280909
 30
-1.0
 70
   192
  0
VERTEX
  5
1072
  8
0
 10
281.8863723980361
 20
123.367380428091
 30
-1.0
 70
   192
  0
VERTEX
  5
1073
  8
0
 10
281.8863723980361
 20
123.367380428091
 30
0.0
 70
   192
  0
VERTEX
  5
1074
  8
0
 10
0.0
 20
0.0
 30
0.0
 70
   128
 71
     1
 72
     4
 73
    -3
  0
VERTEX
  5
1075
  8
0
 10
0.0
 20
0.0
 30
0.0
 70
   128
 71
    -1
 72
     3
 73
     2
  0
SEQEND
  5
19B0
  8
0
  0
POLYLINE
  5
1076
  8
0
 66
     1
 10
0.0
 20
0.0
 30
0.0
 70
    64
 71
    16
 72
    14
  0
VERTEX
  5
1077
  8
0
 10
276.8863723980361
 20
118.367380428091
 30
0.0
 70
   192
  0
VERTEX
  5
1078
  8
0
 10
214.8863723980361
 20
118.367380428091
 30
0.0
 70
   192
  0
VERTEX
  5
1079
  8
0
 10
212.3863723980361
 20
119.0372534091688
 30
0.0
 70
   192
  0
VERTEX
  5
107A
  8
0
 10
210.5562453791138
 20
120.867380428091
 30
0.0
 70
   192
  0
VERTEX
  5
107B
  8
0
 10
209.886372398036
 20
123.367380428091
 30
0.0
 70
   192
  0
VERTEX
  5
107C
  8
0
 10
209.886372398036
 20
185.367380428091
 30
0.0
 70
   192
  0
VERTEX
  5
107D
  8
0
 10
210.5562453791138
 20
187.867380428091
 30
0.0
 70
   192
  0
VERTEX
  5
107E
  8
0
 10
212.386372398036
 20
189.6975074470132
 30
0.0
 70
   192
  0
VERTEX
  5
107F
  8
0
 10
214.886372398036
 20
190.367380428091
 30
0.0
 70
   192
  0
VERTEX
  5
1080
  8
0
 10
276.8863723980361
 20
190.3673804280909
 30
0.0
 70
   192
  0
VERTEX
  5
1081
  8
0
 10
279.3863723980361
 20
189.6975074470131
 30
0.0
 70
   192
  0
VERTEX
  5
1082
  8
0
 10
281.2164994169583
 20
187.8673804280909
 30
0.0
 70
   192
  0
VERTEX
  5
1083
  8
0
 10
281.8863723980361
 20
185.3673804280909
 30
0.0
 70
   192
  0
VERTEX
  5
1084
  8
0
 10
281.8863723980361
 20
123.367380428091
 30
0.0
 70
   192
  0
VERTEX
  5
1085
  8
0
 10
281.2164994169583
 20
120.867380428091
 30
0.0
 70
   192
  0
VERTEX
  5
1086
  8
0
 10
279.3863723980361
 20
119.0372534091688
 30
0.0
 70
   192
  0
VERTEX
  5
1087
  8
0
 10
0.0
 20
0.0
 30
0.0
 70
   128
 71
     1
 72
    16
 73
   -15
  0
VERTEX
  5
1088
  8
0
 10
0.0
 20
0.0
 30
0.0
 70
   128
 71
    -1
 72
    15
 73
   -14
  0
VERTEX
  5
1089
  8
0
 10
0.0
 20
0.0
 30
0.0
 70
   128
 71
    -1
 72
    14
 73
   -13
  0
VERTEX
  5
108A
  8
0
 10
0.0
 20
0.0
 30
0.0
 70
   128
 71
    -1
 72
    13
 73
   -12
  0
VERTEX
  5
108B
  8
0
 10
0.0
 20
0.0
 30
0.0
 70
   128
 71
    -1
 72
    12
 73
   -11
  0
VERTEX
  5
108C
  8
0
 10
0.0
 20
0.0
 30
0.0
 70
   128
 71
    -1
 72
    11
 73
   -10
  0
VERTEX
  5
108D
  8
0
 10
0.0
 20
0.0
 30
0.0
 70
   128
 71
    -1
 72
    10
 73
    -9
  0
VERTEX
  5
108E
  8
0
 10
0.0
 20
0.0
 30
0.0
 70
   128
 71
    -1
 72
     9
 73
    -8
  0
VERTEX
  5
108F
  8
0
 10
0.0
 20
0.0
 30
0.0
 70
   128
 71
    -1
 72
     8
 73
    -7
  0
VERTEX
  5
1090
  8
0
 10
0.0
 20
0.0
 30
0.0
 70
   128
 71
    -1
 72
     7
 73
    -6
  0
VERTEX
  5
1091
  8
0
 10
0.0
 20
0.0
 30
0.0
 70
   128
 71
    -1
 72
     6
 73
    -5
  0
VERTEX
  5
1092
  8
0
 10
0.0
 20
0.0
 30
0.0
 70
   128
 71
    -1
 72
     5
 73
    -4
  0
VERTEX
  5
1093
  8
0
 10
0.0
 20
0.0
 30
0.0
 70
   128
 71
    -1
 72
     4
 73
    -3
  0
VERTEX
  5
1094
  8
0
 10
0.0
 20
0.0
 30
0.0
 70
   128
 71
    -1
 72
     3
 73
     2
  0
SEQEND
  5
19B1
  8
0
  0
POLYLINE
  5
1095
  8
0
 66
     1
 10
0.0
 20
0.0
 30
0.0
 70
    64
 71
     4
 72
     2
  0
VERTEX
  5
1096
  8
0
 10
219.8863723980361
 20
170.363380428091
 30
-1.0
 70
   192
  0
VERTEX
  5
1097
  8
0
 10
219.8863723980361
 20
170.363380428091
 30
-8.0
 70
   192
  0
VERTEX
  5
1098
  8
0
 10
219.8863723980361
 20
180.367380428091
 30
-8.0
 70
   192
  0
VERTEX
  5
1099
  8
0
 10
219.8863723980361
 20
180.367380428091
 30
-1.0
 70
   192
  0
VERTEX
  5
109A
  8
0
 10
0.0
 20
0.0
 30
0.0
 70
   128
 71
     1
 72
     4
 73
    -3
  0
VERTEX
  5
109B
  8
0
 10
0.0
 20
0.0
 30
0.0
 70
   128
 71
    -1
 72
     3
 73
     2
  0
SEQEND
  5
19B2
  8
0
  0
POLYLINE
  5
109C
  8
0
 66
     1
 10
0.0
 20
0.0
 30
0.0
 70
    64
 71
     4
 72
     2
  0
VERTEX
  5
109D
  8
0
 10
219.8863723980361
 20
180.367380428091
 30
-1.0
 70
   192
  0
VERTEX
  5
109E
  8
0
 10
219.8863723980361
 20
180.367380428091
 30
-8.0
 70
   192
  0
VERTEX
  5
109F
  8
0
 10
257.2988631628875
 20
180.367380428091
 30
-8.0
 70
   192
  0
VERTEX
  5
10A0
  8
0
 10
257.2988631628875
 20
180.367380428091
 30
-1.0
 70
   192
  0
VERTEX
  5
10A1
  8
0
 10
0.0
 20
0.0
 30
0.0
 70
   128
 71
     1
 72
     4
 73
    -3
  0
VERTEX
  5
10A2
  8
0
 10
0.0
 20
0.0
 30
0.0
 70
   128
 71
    -1
 72
     3
 73
     2
  0
SEQEND
  5
19B3
  8
0
  0
POLYLINE
  5
10A3
  8
0
 66
     1
 10
0.0
 20
0.0
 30
0.0
 70
    64
 71
     4
 72
     2
  0
VERTEX
  5
10A4
  8
0
 10
257.2988631628875
 20
180.367380428091
 30
-1.0
 70
   192
  0
VERTEX
  5
10A5
  8
0
 10
257.2988631628875
 20
170.363380428091
 30
-1.0
 70
   192
  0
VERTEX
  5
10A6
  8
0
 10
257.2988631628875
 20
170.363380428091
 30
-8.0
 70
   192
  0
VERTEX
  5
10A7
  8
0
 10
257.2988631628875
 20
180.367380428091
 30
-8.0
 70
   192
  0
VERTEX
  5
10A8
  8
0
 10
0.0
 20
0.0
 30
0.0
 70
   128
 71
     3
 72
     4
 73
    -1
  0
VERTEX
  5
10A9
  8
0
 10
0.0
 20
0.0
 30
0.0
 70
   128
 71
     2
 72
    -3
 73
     1
  0
SEQEND
  5
19B4
  8
0
  0
POLYLINE
  5
10AA
  8
0
 66
     1
 10
0.0
 20
0.0
 30
0.0
 70
    64
 71
     4
 72
     2
  0
VERTEX
  5
10AB
  8
0
 10
257.2988631628874
 20
170.363380428091
 30
-1.0
 70
   192
  0
VERTEX
  5
10AC
  8
0
 10
219.8863723980361
 20
170.363380428091
 30
-1.0
 70
   192
  0
VERTEX
  5
10AD
  8
0
 10
219.8863723980361
 20
170.363380428091
 30
-8.0
 70
   192
  0
VERTEX
  5
10AE
  8
0
 10
257.2988631628875
 20
170.363380428091
 30
-8.0
 70
   192
  0
VERTEX
  5
10AF
  8
0
 10
0.0
 20
0.0
 30
0.0
 70
   128
 71
     3
 72
     4
 73
    -1
  0
VERTEX
  5
10B0
  8
0
 10
0.0
 20
0.0
 30
0.0
 70
   128
 71
     2
 72
    -3
 73
     1
  0
SEQEND
  5
19B5
  8
0
  0
POLYLINE
  5
10B1
  8
0
 66
     1
 10
0.0
 20
0.0
 30
0.0
 70
    64
 71
     4
 72
     2
  0
VERTEX
  5
10B2
  8
0
 10
219.8863723980361
 20
170.363380428091
 30
-8.0
 70
   192
  0
VERTEX
  5
10B3
  8
0
 10
219.8863723980361
 20
180.367380428091
 30
-8.0
 70
   192
  0
VERTEX
  5
10B4
  8
0
 10
257.2988631628875
 20
180.367380428091
 30
-8.0
 70
   192
  0
VERTEX
  5
10B5
  8
0
 10
257.2988631628875
 20
170.363380428091
 30
-8.0
 70
   192
  0
VERTEX
  5
10B6
  8
0
 10
0.0
 20
0.0
 30
0.0
 70
   128
 71
     3
 72
     4
 73
    -1
  0
VERTEX
  5
10B7
  8
0
 10
0.0
 20
0.0
 30
0.0
 70
   128
 71
     2
 72
    -3
 73
     1
  0
SEQEND
  5
19B6
  8
0
  0
POLYLINE
  5
10B8
  8
0
 66
     1
 10
0.0
 20
0.0
 30
0.0
 70
    64
 71
     4
 72
     2
  0
VERTEX
  5
10B9
  8
0
 10
261.8823723980361
 20
165.7798711929424
 30
-1.0
 70
   192
  0
VERTEX
  5
10BA
  8
0
 10
271.8863723980361
 20
165.7798711929424
 30
-1.0
 70
   192
  0
VERTEX
  5
10BB
  8
0
 10
271.8863723980361
 20
165.7798711929424
 30
-8.0
 70
   192
  0
VERTEX
  5
10BC
  8
0
 10
261.8823723980361
 20
165.7798711929424
 30
-8.0
 70
   192
  0
VERTEX
  5
10BD
  8
0
 10
0.0
 20
0.0
 30
0.0
 70
   128
 71
     3
 72
     4
 73
    -1
  0
VERTEX
  5
10BE
  8
0
 10
0.0
 20
0.0
 30
0.0
 70
   128
 71
     2
 72
    -3
 73
     1
  0
SEQEND
  5
19B7
  8
0
  0
POLYLINE
  5
10BF
  8
0
 66
     1
 10
0.0
 20
0.0
 30
0.0
 70
    64
 71
     4
 72
     2
  0
VERTEX
  5
10C0
  8
0
 10
271.8863723980361
 20
165.7798711929424
 30
-1.0
 70
   192
  0
VERTEX
  5
10C1
  8
0
 10
271.8863723980361
 20
165.7798711929424
 30
-8.0
 70
   192
  0
VERTEX
  5
10C2
  8
0
 10
271.8863723980361
 20
128.367380428091
 30
-8.0
 70
   192
  0
VERTEX
  5
10C3
  8
0
 10
271.8863723980361
 20
128.367380428091
 30
-1.0
 70
   192
  0
VERTEX
  5
10C4
  8
0
 10
0.0
 20
0.0
 30
0.0
 70
   128
 71
     1
 72
     4
 73
    -3
  0
VERTEX
  5
10C5
  8
0
 10
0.0
 20
0.0
 30
0.0
 70
   128
 71
    -1
 72
     3
 73
     2
  0
SEQEND
  5
19B8
  8
0
  0
POLYLINE
  5
10C6
  8
0
 66
     1
 10
0.0
 20
0.0
 30
0.0
 70
    64
 71
     4
 72
     2
  0
VERTEX
  5
10C7
  8
0
 10
271.8863723980361
 20
128.367380428091
 30
-1.0
 70
   192
  0
VERTEX
  5
10C8
  8
0
 10
271.8863723980361
 20
128.367380428091
 30
-8.0
 70
   192
  0
VERTEX
  5
10C9
  8
0
 10
261.8823723980361
 20
128.367380428091
 30
-8.0
 70
   192
  0
VERTEX
  5
10CA
  8
0
 10
261.8823723980361
 20
128.367380428091
 30
-1.0
 70
   192
  0
VERTEX
  5
10CB
  8
0
 10
0.0
 20
0.0
 30
0.0
 70
   128
 71
     1
 72
     4
 73
    -3
  0
VERTEX
  5
10CC
  8
0
 10
0.0
 20
0.0
 30
0.0
 70
   128
 71
    -1
 72
     3
 73
     2
  0
SEQEND
  5
19B9
  8
0
  0
POLYLINE
  5
10CD
  8
0
 66
     1
 10
0.0
 20
0.0
 30
0.0
 70
    64
 71
     4
 72
     2
  0
VERTEX
  5
10CE
  8
0
 10
261.8823723980361
 20
128.367380428091
 30
-1.0
 70
   192
  0
VERTEX
  5
10CF
  8
0
 10
261.8823723980361
 20
165.7798711929424
 30
-1.0
 70
   192
  0
VERTEX
  5
10D0
  8
0
 10
261.8823723980361
 20
165.7798711929424
 30
-8.0
 70
   192
  0
VERTEX
  5
10D1
  8
0
 10
261.8823723980361
 20
128.367380428091
 30
-8.0
 70
   192
  0
VERTEX
  5
10D2
  8
0
 10
0.0
 20
0.0
 30
0.0
 70
   128
 71
     3
 72
     4
 73
    -1
  0
VERTEX
  5
10D3
  8
0
 10
0.0
 20
0.0
 30
0.0
 70
   128
 71
     2
 72
    -3
 73
     1
  0
SEQEND
  5
19BA
  8
0
  0
POLYLINE
  5
10D4
  8
0
 66
     1
 10
0.0
 20
0.0
 30
0.0
 70
    64
 71
     4
 72
     2
  0
VERTEX
  5
10D5
  8
0
 10
261.8823723980361
 20
165.7798711929424
 30
-8.0
 70
   192
  0
VERTEX
  5
10D6
  8
0
 10
261.8823723980361
 20
128.367380428091
 30
-8.0
 70
   192
  0
VERTEX
  5
10D7
  8
0
 10
271.8863723980361
 20
128.367380428091
 30
-8.0
 70
   192
  0
VERTEX
  5
10D8
  8
0
 10
271.8863723980361
 20
165.7798711929424
 30
-8.0
 70
   192
  0
VERTEX
  5
10D9
  8
0
 10
0.0
 20
0.0
 30
0.0
 70
   128
 71
     1
 72
     4
 73
    -3
  0
VERTEX
  5
10DA
  8
0
 10
0.0
 20
0.0
 30
0.0
 70
   128
 71
    -1
 72
     3
 73
     2
  0
SEQEND
  5
19BB
  8
0
  0
ENDBLK
  5
19A7
  8
0
  0
BLOCK
  8
0
  2
*X4
 70
     1
 10
0.0
 20
0.0
 30
0.0
  3
*X4
  1

  0
POLYLINE
  5
10DC
  8
0
 66
     1
 10
0.0
 20
0.0
 30
0.0
 70
    64
 71
    24
 72
    26
  0
VERTEX
  5
10DD
  8
0
 10
-185.113627601964
 20
118.3673804280909
 30
-1.0
 70
   192
  0
VERTEX
  5
10DE
  8
0
 10
-123.1136276019639
 20
118.3673804280909
 30
-1.0
 70
   192
  0
VERTEX
  5
10DF
  8
0
 10
-120.613627601964
 20
119.0372534091687
 30
-1.0
 70
   192
  0
VERTEX
  5
10E0
  8
0
 10
-118.7835005830418
 20
120.8673804280909
 30
-1.0
 70
   192
  0
VERTEX
  5
10E1
  8
0
 10
-118.113627601964
 20
123.3673804280909
 30
-1.0
 70
   192
  0
VERTEX
  5
10E2
  8
0
 10
-118.113627601964
 20
185.3673804280909
 30
-1.0
 70
   192
  0
VERTEX
  5
10E3
  8
0
 10
-118.7835005830418
 20
187.8673804280909
 30
-1.0
 70
   192
  0
VERTEX
  5
10E4
  8
0
 10
-120.613627601964
 20
189.6975074470131
 30
-1.0
 70
   192
  0
VERTEX
  5
10E5
  8
0
 10
-123.113627601964
 20
190.3673804280909
 30
-1.0
 70
   192
  0
VERTEX
  5
10E6
  8
0
 10
-185.1136276019639
 20
190.3673804280909
 30
-1.0
 70
   192
  0
VERTEX
  5
10E7
  8
0
 10
-187.613627601964
 20
189.697507447013
 30
-1.0
 70
   192
  0
VERTEX
  5
10E8
  8
0
 10
-189.4437546208862
 20
187.8673804280909
 30
-1.0
 70
   192
  0
VERTEX
  5
10E9
  8
0
 10
-190.113627601964
 20
185.3673804280908
 30
-1.0
 70
   192
  0
VERTEX
  5
10EA
  8
0
 10
-190.113627601964
 20
123.3673804280909
 30
-1.0
 70
   192
  0
VERTEX
  5
10EB
  8
0
 10
-189.4437546208862
 20
120.8673804280909
 30
-1.0
 70
   192
  0
VERTEX
  5
10EC
  8
0
 10
-187.613627601964
 20
119.0372534091687
 30
-1.0
 70
   192
  0
VERTEX
  5
10ED
  8
0
 10
-165.5261183668155
 20
170.3633804280909
 30
-1.0
 70
   192
  0
VERTEX
  5
10EE
  8
0
 10
-165.5261183668155
 20
180.3673804280909
 30
-1.0
 70
   192
  0
VERTEX
  5
10EF
  8
0
 10
-128.1136276019641
 20
180.3673804280909
 30
-1.0
 70
   192
  0
VERTEX
  5
10F0
  8
0
 10
-128.113627601964
 20
170.3633804280909
 30
-1.0
 70
   192
  0
VERTEX
  5
10F1
  8
0
 10
-170.1096276019641
 20
165.7798711929423
 30
-1.0
 70
   192
  0
VERTEX
  5
10F2
  8
0
 10
-170.1096276019641
 20
128.3673804280909
 30
-1.0
 70
   192
  0
VERTEX
  5
10F3
  8
0
 10
-180.113627601964
 20
128.3673804280909
 30
-1.0
 70
   192
  0
VERTEX
  5
10F4
  8
0
 10
-180.113627601964
 20
165.7798711929423
 30
-1.0
 70
   192
  0
VERTEX
  5
10F5
  8
0
 10
0.0
 20
0.0
 30
0.0
 70
   128
 71
    18
 72
   -17
 73
   -13
  0
VERTEX
  5
10F6
  8
0
 10
0.0
 20
0.0
 30
0.0
 70
   128
 71
   -18
 72
    13
 73
   -12
  0
VERTEX
  5
10F7
  8
0
 10
0.0
 20
0.0
 30
0.0
 70
   128
 71
    12
 72
    11
 73
   -10
  0
VERTEX
  5
10F8
  8
0
 10
0.0
 20
0.0
 30
0.0
 70
   128
 71
   -12
 72
    10
 73
    -9
  0
VERTEX
  5
10F9
  8
0
 10
0.0
 20
0.0
 30
0.0
 70
   128
 71
   -12
 72
     9
 73
    -8
  0
VERTEX
  5
10FA
  8
0
 10
0.0
 20
0.0
 30
0.0
 70
   128
 71
   -12
 72
     8
 73
    -7
  0
VERTEX
  5
10FB
  8
0
 10
0.0
 20
0.0
 30
0.0
 70
   128
 71
   -12
 72
     7
 73
    -6
  0
VERTEX
  5
10FC
  8
0
 10
0.0
 20
0.0
 30
0.0
 70
   128
 71
   -12
 72
    -6
 73
   -19
  0
VERTEX
  5
10FD
  8
0
 10
0.0
 20
0.0
 30
0.0
 70
   128
 71
   -12
 72
    19
 73
   -18
  0
VERTEX
  5
10FE
  8
0
 10
0.0
 20
0.0
 30
0.0
 70
   128
 71
    -6
 72
    20
 73
   -19
  0
VERTEX
  5
10FF
  8
0
 10
0.0
 20
0.0
 30
0.0
 70
   128
 71
   -20
 72
     6
 73
    -5
  0
VERTEX
  5
1100
  8
0
 10
0.0
 20
0.0
 30
0.0
 70
   128
 71
     5
 72
     4
 73
    -3
  0
VERTEX
  5
1101
  8
0
 10
0.0
 20
0.0
 30
0.0
 70
   128
 71
    -5
 72
     3
 73
    -2
  0
VERTEX
  5
1102
  8
0
 10
0.0
 20
0.0
 30
0.0
 70
   128
 71
    -5
 72
    -2
 73
   -22
  0
VERTEX
  5
1103
  8
0
 10
0.0
 20
0.0
 30
0.0
 70
   128
 71
    -5
 72
    22
 73
   -21
  0
VERTEX
  5
1104
  8
0
 10
0.0
 20
0.0
 30
0.0
 70
   128
 71
    -5
 72
   -21
 73
   -17
  0
VERTEX
  5
1105
  8
0
 10
0.0
 20
0.0
 30
0.0
 70
   128
 71
    -5
 72
    17
 73
   -20
  0
VERTEX
  5
1106
  8
0
 10
0.0
 20
0.0
 30
0.0
 70
   128
 71
     2
 72
    -1
 73
   -22
  0
VERTEX
  5
1107
  8
0
 10
0.0
 20
0.0
 30
0.0
 70
   128
 71
    -1
 72
    23
 73
   -22
  0
VERTEX
  5
1108
  8
0
 10
0.0
 20
0.0
 30
0.0
 70
   128
 71
     1
 72
    16
 73
   -15
  0
VERTEX
  5
1109
  8
0
 10
0.0
 20
0.0
 30
0.0
 70
   128
 71
    -1
 72
    15
 73
   -14
  0
VERTEX
  5
110A
  8
0
 10
0.0
 20
0.0
 30
0.0
 70
   128
 71
    -1
 72
    14
 73
   -13
  0
VERTEX
  5
110B
  8
0
 10
0.0
 20
0.0
 30
0.0
 70
   128
 71
    -1
 72
   -13
 73
   -24
  0
VERTEX
  5
110C
  8
0
 10
0.0
 20
0.0
 30
0.0
 70
   128
 71
    -1
 72
    24
 73
   -23
  0
VERTEX
  5
110D
  8
0
 10
0.0
 20
0.0
 30
0.0
 70
   128
 71
   -13
 72
   -17
 73
   -24
  0
VERTEX
  5
110E
  8
0
 10
0.0
 20
0.0
 30
0.0
 70
   128
 71
   -17
 72
    21
 73
   -24
  0
SEQEND
  5
19BE
  8
0
  0
POLYLINE
  5
110F
  8
0
 66
     1
 10
0.0
 20
0.0
 30
0.0
 70
    64
 71
     8
 72
     6
  0
VERTEX
  5
1110
  8
0
 10
-189.4437546208862
 20
120.8673804280909
 30
0.0
 70
   192
  0
VERTEX
  5
1111
  8
0
 10
-189.4437546208862
 20
120.8673804280909
 30
-1.0
 70
   192
  0
VERTEX
  5
1112
  8
0
 10
-187.613627601964
 20
119.0372534091687
 30
-1.0
 70
   192
  0
VERTEX
  5
1113
  8
0
 10
-187.613627601964
 20
119.0372534091687
 30
0.0
 70
   192
  0
VERTEX
  5
1114
  8
0
 10
-190.113627601964
 20
123.3673804280909
 30
0.0
 70
   192
  0
VERTEX
  5
1115
  8
0
 10
-190.113627601964
 20
123.3673804280909
 30
-1.0
 70
   192
  0
VERTEX
  5
1116
  8
0
 10
-185.113627601964
 20
118.3673804280909
 30
-1.0
 70
   192
  0
VERTEX
  5
1117
  8
0
 10
-185.113627601964
 20
118.3673804280909
 30
0.0
 70
   192
  0
VERTEX
  5
1118
  8
0
 10
0.0
 20
0.0
 30
0.0
 70
   128
 71
     1
 72
     2
 73
    -3
  0
VERTEX
  5
1119
  8
0
 10
0.0
 20
0.0
 30
0.0
 70
   128
 71
    -1
 72
     3
 73
     4
  0
VERTEX
  5
111A
  8
0
 10
0.0
 20
0.0
 30
0.0
 70
   128
 71
     5
 72
     6
 73
    -2
  0
VERTEX
  5
111B
  8
0
 10
0.0
 20
0.0
 30
0.0
 70
   128
 71
    -5
 72
     2
 73
     1
  0
VERTEX
  5
111C
  8
0
 10
0.0
 20
0.0
 30
0.0
 70
   128
 71
     4
 72
     3
 73
    -7
  0
VERTEX
  5
111D
  8
0
 10
0.0
 20
0.0
 30
0.0
 70
   128
 71
    -4
 72
     7
 73
     8
  0
SEQEND
  5
19BF
  8
0
  0
POLYLINE
  5
111E
  8
0
 66
     1
 10
0.0
 20
0.0
 30
0.0
 70
    64
 71
     4
 72
     2
  0
VERTEX
  5
111F
  8
0
 10
-190.113627601964
 20
123.3673804280909
 30
0.0
 70
   192
  0
VERTEX
  5
1120
  8
0
 10
-190.113627601964
 20
185.3673804280908
 30
0.0
 70
   192
  0
VERTEX
  5
1121
  8
0
 10
-190.113627601964
 20
185.3673804280908
 30
-1.0
 70
   192
  0
VERTEX
  5
1122
  8
0
 10
-190.113627601964
 20
123.3673804280909
 30
-1.0
 70
   192
  0
VERTEX
  5
1123
  8
0
 10
0.0
 20
0.0
 30
0.0
 70
   128
 71
     3
 72
     4
 73
    -1
  0
VERTEX
  5
1124
  8
0
 10
0.0
 20
0.0
 30
0.0
 70
   128
 71
     2
 72
    -3
 73
     1
  0
SEQEND
  5
19C0
  8
0
  0
POLYLINE
  5
1125
  8
0
 66
     1
 10
0.0
 20
0.0
 30
0.0
 70
    64
 71
     8
 72
     6
  0
VERTEX
  5
1126
  8
0
 10
-187.613627601964
 20
189.697507447013
 30
0.0
 70
   192
  0
VERTEX
  5
1127
  8
0
 10
-187.613627601964
 20
189.697507447013
 30
-1.0
 70
   192
  0
VERTEX
  5
1128
  8
0
 10
-189.4437546208862
 20
187.8673804280909
 30
-1.0
 70
   192
  0
VERTEX
  5
1129
  8
0
 10
-189.4437546208862
 20
187.8673804280909
 30
0.0
 70
   192
  0
VERTEX
  5
112A
  8
0
 10
-185.1136276019639
 20
190.3673804280909
 30
0.0
 70
   192
  0
VERTEX
  5
112B
  8
0
 10
-185.1136276019639
 20
190.3673804280909
 30
-1.0
 70
   192
  0
VERTEX
  5
112C
  8
0
 10
-190.113627601964
 20
185.3673804280908
 30
-1.0
 70
   192
  0
VERTEX
  5
112D
  8
0
 10
-190.113627601964
 20
185.3673804280908
 30
0.0
 70
   192
  0
VERTEX
  5
112E
  8
0
 10
0.0
 20
0.0
 30
0.0
 70
   128
 71
     1
 72
     2
 73
    -3
  0
VERTEX
  5
112F
  8
0
 10
0.0
 20
0.0
 30
0.0
 70
   128
 71
    -1
 72
     3
 73
     4
  0
VERTEX
  5
1130
  8
0
 10
0.0
 20
0.0
 30
0.0
 70
   128
 71
     5
 72
     6
 73
    -2
  0
VERTEX
  5
1131
  8
0
 10
0.0
 20
0.0
 30
0.0
 70
   128
 71
    -5
 72
     2
 73
     1
  0
VERTEX
  5
1132
  8
0
 10
0.0
 20
0.0
 30
0.0
 70
   128
 71
     4
 72
     3
 73
    -7
  0
VERTEX
  5
1133
  8
0
 10
0.0
 20
0.0
 30
0.0
 70
   128
 71
    -4
 72
     7
 73
     8
  0
SEQEND
  5
19C1
  8
0
  0
POLYLINE
  5
1134
  8
0
 66
     1
 10
0.0
 20
0.0
 30
0.0
 70
    64
 71
     4
 72
     2
  0
VERTEX
  5
1135
  8
0
 10
-185.1136276019639
 20
190.3673804280909
 30
0.0
 70
   192
  0
VERTEX
  5
1136
  8
0
 10
-123.113627601964
 20
190.3673804280909
 30
0.0
 70
   192
  0
VERTEX
  5
1137
  8
0
 10
-123.113627601964
 20
190.3673804280909
 30
-1.0
 70
   192
  0
VERTEX
  5
1138
  8
0
 10
-185.1136276019639
 20
190.3673804280909
 30
-1.0
 70
   192
  0
VERTEX
  5
1139
  8
0
 10
0.0
 20
0.0
 30
0.0
 70
   128
 71
     3
 72
     4
 73
    -1
  0
VERTEX
  5
113A
  8
0
 10
0.0
 20
0.0
 30
0.0
 70
   128
 71
     2
 72
    -3
 73
     1
  0
SEQEND
  5
19C2
  8
0
  0
POLYLINE
  5
113B
  8
0
 66
     1
 10
0.0
 20
0.0
 30
0.0
 70
    64
 71
     8
 72
     6
  0
VERTEX
  5
113C
  8
0
 10
-118.7835005830418
 20
187.8673804280909
 30
0.0
 70
   192
  0
VERTEX
  5
113D
  8
0
 10
-118.7835005830418
 20
187.8673804280909
 30
-1.0
 70
   192
  0
VERTEX
  5
113E
  8
0
 10
-120.613627601964
 20
189.6975074470131
 30
-1.0
 70
   192
  0
VERTEX
  5
113F
  8
0
 10
-120.613627601964
 20
189.6975074470131
 30
0.0
 70
   192
  0
VERTEX
  5
1140
  8
0
 10
-118.113627601964
 20
185.3673804280909
 30
0.0
 70
   192
  0
VERTEX
  5
1141
  8
0
 10
-118.113627601964
 20
185.3673804280909
 30
-1.0
 70
   192
  0
VERTEX
  5
1142
  8
0
 10
-123.113627601964
 20
190.3673804280909
 30
-1.0
 70
   192
  0
VERTEX
  5
1143
  8
0
 10
-123.113627601964
 20
190.3673804280909
 30
0.0
 70
   192
  0
VERTEX
  5
1144
  8
0
 10
0.0
 20
0.0
 30
0.0
 70
   128
 71
     1
 72
     2
 73
    -3
  0
VERTEX
  5
1145
  8
0
 10
0.0
 20
0.0
 30
0.0
 70
   128
 71
    -1
 72
     3
 73
     4
  0
VERTEX
  5
1146
  8
0
 10
0.0
 20
0.0
 30
0.0
 70
   128
 71
     5
 72
     6
 73
    -2
  0
VERTEX
  5
1147
  8
0
 10
0.0
 20
0.0
 30
0.0
 70
   128
 71
    -5
 72
     2
 73
     1
  0
VERTEX
  5
1148
  8
0
 10
0.0
 20
0.0
 30
0.0
 70
   128
 71
     4
 72
     3
 73
    -7
  0
VERTEX
  5
1149
  8
0
 10
0.0
 20
0.0
 30
0.0
 70
   128
 71
    -4
 72
     7
 73
     8
  0
SEQEND
  5
19C3
  8
0
  0
POLYLINE
  5
114A
  8
0
 66
     1
 10
0.0
 20
0.0
 30
0.0
 70
    64
 71
     4
 72
     2
  0
VERTEX
  5
114B
  8
0
 10
-118.113627601964
 20
185.3673804280909
 30
0.0
 70
   192
  0
VERTEX
  5
114C
  8
0
 10
-118.113627601964
 20
123.3673804280909
 30
0.0
 70
   192
  0
VERTEX
  5
114D
  8
0
 10
-118.113627601964
 20
123.3673804280909
 30
-1.0
 70
   192
  0
VERTEX
  5
114E
  8
0
 10
-118.113627601964
 20
185.3673804280909
 30
-1.0
 70
   192
  0
VERTEX
  5
114F
  8
0
 10
0.0
 20
0.0
 30
0.0
 70
   128
 71
     3
 72
     4
 73
    -1
  0
VERTEX
  5
1150
  8
0
 10
0.0
 20
0.0
 30
0.0
 70
   128
 71
     2
 72
    -3
 73
     1
  0
SEQEND
  5
19C4
  8
0
  0
POLYLINE
  5
1151
  8
0
 66
     1
 10
0.0
 20
0.0
 30
0.0
 70
    64
 71
     8
 72
     6
  0
VERTEX
  5
1152
  8
0
 10
-120.613627601964
 20
119.0372534091687
 30
0.0
 70
   192
  0
VERTEX
  5
1153
  8
0
 10
-120.613627601964
 20
119.0372534091687
 30
-1.0
 70
   192
  0
VERTEX
  5
1154
  8
0
 10
-118.7835005830418
 20
120.8673804280909
 30
-1.0
 70
   192
  0
VERTEX
  5
1155
  8
0
 10
-118.7835005830418
 20
120.8673804280909
 30
0.0
 70
   192
  0
VERTEX
  5
1156
  8
0
 10
-123.1136276019639
 20
118.3673804280909
 30
0.0
 70
   192
  0
VERTEX
  5
1157
  8
0
 10
-123.1136276019639
 20
118.3673804280909
 30
-1.0
 70
   192
  0
VERTEX
  5
1158
  8
0
 10
-118.113627601964
 20
123.3673804280909
 30
-1.0
 70
   192
  0
VERTEX
  5
1159
  8
0
 10
-118.113627601964
 20
123.3673804280909
 30
0.0
 70
   192
  0
VERTEX
  5
115A
  8
0
 10
0.0
 20
0.0
 30
0.0
 70
   128
 71
     1
 72
     2
 73
    -3
  0
VERTEX
  5
115B
  8
0
 10
0.0
 20
0.0
 30
0.0
 70
   128
 71
    -1
 72
     3
 73
     4
  0
VERTEX
  5
115C
  8
0
 10
0.0
 20
0.0
 30
0.0
 70
   128
 71
     5
 72
     6
 73
    -2
  0
VERTEX
  5
115D
  8
0
 10
0.0
 20
0.0
 30
0.0
 70
   128
 71
    -5
 72
     2
 73
     1
  0
VERTEX
  5
115E
  8
0
 10
0.0
 20
0.0
 30
0.0
 70
   128
 71
     4
 72
     3
 73
    -7
  0
VERTEX
  5
115F
  8
0
 10
0.0
 20
0.0
 30
0.0
 70
   128
 71
    -4
 72
     7
 73
     8
  0
SEQEND
  5
19C5
  8
0
  0
POLYLINE
  5
1160
  8
0
 66
     1
 10
0.0
 20
0.0
 30
0.0
 70
    64
 71
     4
 72
     2
  0
VERTEX
  5
1161
  8
0
 10
-123.1136276019639
 20
118.3673804280909
 30
0.0
 70
   192
  0
VERTEX
  5
1162
  8
0
 10
-185.113627601964
 20
118.3673804280909
 30
0.0
 70
   192
  0
VERTEX
  5
1163
  8
0
 10
-185.113627601964
 20
118.3673804280909
 30
-1.0
 70
   192
  0
VERTEX
  5
1164
  8
0
 10
-123.1136276019639
 20
118.3673804280909
 30
-1.0
 70
   192
  0
VERTEX
  5
1165
  8
0
 10
0.0
 20
0.0
 30
0.0
 70
   128
 71
     3
 72
     4
 73
    -1
  0
VERTEX
  5
1166
  8
0
 10
0.0
 20
0.0
 30
0.0
 70
   128
 71
     2
 72
    -3
 73
     1
  0
SEQEND
  5
19C6
  8
0
  0
POLYLINE
  5
1167
  8
0
 66
     1
 10
0.0
 20
0.0
 30
0.0
 70
    64
 71
    16
 72
    14
  0
VERTEX
  5
1168
  8
0
 10
-190.113627601964
 20
123.3673804280909
 30
0.0
 70
   192
  0
VERTEX
  5
1169
  8
0
 10
-189.4437546208862
 20
120.8673804280909
 30
0.0
 70
   192
  0
VERTEX
  5
116A
  8
0
 10
-187.613627601964
 20
119.0372534091687
 30
0.0
 70
   192
  0
VERTEX
  5
116B
  8
0
 10
-185.113627601964
 20
118.3673804280909
 30
0.0
 70
   192
  0
VERTEX
  5
116C
  8
0
 10
-123.1136276019639
 20
118.3673804280909
 30
0.0
 70
   192
  0
VERTEX
  5
116D
  8
0
 10
-120.613627601964
 20
119.0372534091687
 30
0.0
 70
   192
  0
VERTEX
  5
116E
  8
0
 10
-118.7835005830418
 20
120.8673804280909
 30
0.0
 70
   192
  0
VERTEX
  5
116F
  8
0
 10
-118.113627601964
 20
123.3673804280909
 30
0.0
 70
   192
  0
VERTEX
  5
1170
  8
0
 10
-118.113627601964
 20
185.3673804280909
 30
0.0
 70
   192
  0
VERTEX
  5
1171
  8
0
 10
-118.7835005830418
 20
187.8673804280909
 30
0.0
 70
   192
  0
VERTEX
  5
1172
  8
0
 10
-120.613627601964
 20
189.6975074470131
 30
0.0
 70
   192
  0
VERTEX
  5
1173
  8
0
 10
-123.113627601964
 20
190.3673804280909
 30
0.0
 70
   192
  0
VERTEX
  5
1174
  8
0
 10
-185.1136276019639
 20
190.3673804280909
 30
0.0
 70
   192
  0
VERTEX
  5
1175
  8
0
 10
-187.613627601964
 20
189.697507447013
 30
0.0
 70
   192
  0
VERTEX
  5
1176
  8
0
 10
-189.4437546208862
 20
187.8673804280909
 30
0.0
 70
   192
  0
VERTEX
  5
1177
  8
0
 10
-190.113627601964
 20
185.3673804280908
 30
0.0
 70
   192
  0
VERTEX
  5
1178
  8
0
 10
0.0
 20
0.0
 30
0.0
 70
   128
 71
    15
 72
    16
 73
    -1
  0
VERTEX
  5
1179
  8
0
 10
0.0
 20
0.0
 30
0.0
 70
   128
 71
    14
 72
   -15
 73
    -1
  0
VERTEX
  5
117A
  8
0
 10
0.0
 20
0.0
 30
0.0
 70
   128
 71
    13
 72
   -14
 73
    -1
  0
VERTEX
  5
117B
  8
0
 10
0.0
 20
0.0
 30
0.0
 70
   128
 71
    12
 72
   -13
 73
    -1
  0
VERTEX
  5
117C
  8
0
 10
0.0
 20
0.0
 30
0.0
 70
   128
 71
    11
 72
   -12
 73
    -1
  0
VERTEX
  5
117D
  8
0
 10
0.0
 20
0.0
 30
0.0
 70
   128
 71
    10
 72
   -11
 73
    -1
  0
VERTEX
  5
117E
  8
0
 10
0.0
 20
0.0
 30
0.0
 70
   128
 71
     9
 72
   -10
 73
    -1
  0
VERTEX
  5
117F
  8
0
 10
0.0
 20
0.0
 30
0.0
 70
   128
 71
     8
 72
    -9
 73
    -1
  0
VERTEX
  5
1180
  8
0
 10
0.0
 20
0.0
 30
0.0
 70
   128
 71
     7
 72
    -8
 73
    -1
  0
VERTEX
  5
1181
  8
0
 10
0.0
 20
0.0
 30
0.0
 70
   128
 71
     6
 72
    -7
 73
    -1
  0
VERTEX
  5
1182
  8
0
 10
0.0
 20
0.0
 30
0.0
 70
   128
 71
     5
 72
    -6
 73
    -1
  0
VERTEX
  5
1183
  8
0
 10
0.0
 20
0.0
 30
0.0
 70
   128
 71
     4
 72
    -5
 73
    -1
  0
VERTEX
  5
1184
  8
0
 10
0.0
 20
0.0
 30
0.0
 70
   128
 71
     3
 72
    -4
 73
    -1
  0
VERTEX
  5
1185
  8
0
 10
0.0
 20
0.0
 30
0.0
 70
   128
 71
     2
 72
    -3
 73
     1
  0
SEQEND
  5
19C7
  8
0
  0
POLYLINE
  5
1186
  8
0
 66
     1
 10
0.0
 20
0.0
 30
0.0
 70
    64
 71
     4
 72
     2
  0
VERTEX
  5
1187
  8
0
 10
-180.113627601964
 20
165.7798711929423
 30
-1.0
 70
   192
  0
VERTEX
  5
1188
  8
0
 10
-180.113627601964
 20
165.7798711929423
 30
-8.0
 70
   192
  0
VERTEX
  5
1189
  8
0
 10
-170.1096276019641
 20
165.7798711929423
 30
-8.0
 70
   192
  0
VERTEX
  5
118A
  8
0
 10
-170.1096276019641
 20
165.7798711929423
 30
-1.0
 70
   192
  0
VERTEX
  5
118B
  8
0
 10
0.0
 20
0.0
 30
0.0
 70
   128
 71
     1
 72
     4
 73
    -3
  0
VERTEX
  5
118C
  8
0
 10
0.0
 20
0.0
 30
0.0
 70
   128
 71
    -1
 72
     3
 73
     2
  0
SEQEND
  5
19C8
  8
0
  0
POLYLINE
  5
118D
  8
0
 66
     1
 10
0.0
 20
0.0
 30
0.0
 70
    64
 71
     4
 72
     2
  0
VERTEX
  5
118E
  8
0
 10
-170.1096276019641
 20
165.7798711929423
 30
-1.0
 70
   192
  0
VERTEX
  5
118F
  8
0
 10
-170.1096276019641
 20
165.7798711929423
 30
-8.0
 70
   192
  0
VERTEX
  5
1190
  8
0
 10
-170.1096276019641
 20
128.3673804280909
 30
-8.0
 70
   192
  0
VERTEX
  5
1191
  8
0
 10
-170.1096276019641
 20
128.3673804280909
 30
-1.0
 70
   192
  0
VERTEX
  5
1192
  8
0
 10
0.0
 20
0.0
 30
0.0
 70
   128
 71
     1
 72
     4
 73
    -3
  0
VERTEX
  5
1193
  8
0
 10
0.0
 20
0.0
 30
0.0
 70
   128
 71
    -1
 72
     3
 73
     2
  0
SEQEND
  5
19C9
  8
0
  0
POLYLINE
  5
1194
  8
0
 66
     1
 10
0.0
 20
0.0
 30
0.0
 70
    64
 71
     4
 72
     2
  0
VERTEX
  5
1195
  8
0
 10
-170.1096276019641
 20
128.3673804280909
 30
-1.0
 70
   192
  0
VERTEX
  5
1196
  8
0
 10
-180.113627601964
 20
128.3673804280909
 30
-1.0
 70
   192
  0
VERTEX
  5
1197
  8
0
 10
-180.113627601964
 20
128.3673804280909
 30
-8.0
 70
   192
  0
VERTEX
  5
1198
  8
0
 10
-170.1096276019641
 20
128.3673804280909
 30
-8.0
 70
   192
  0
VERTEX
  5
1199
  8
0
 10
0.0
 20
0.0
 30
0.0
 70
   128
 71
     3
 72
     4
 73
    -1
  0
VERTEX
  5
119A
  8
0
 10
0.0
 20
0.0
 30
0.0
 70
   128
 71
     2
 72
    -3
 73
     1
  0
SEQEND
  5
19CA
  8
0
  0
POLYLINE
  5
119B
  8
0
 66
     1
 10
0.0
 20
0.0
 30
0.0
 70
    64
 71
     4
 72
     2
  0
VERTEX
  5
119C
  8
0
 10
-180.113627601964
 20
128.3673804280909
 30
-1.0
 70
   192
  0
VERTEX
  5
119D
  8
0
 10
-180.113627601964
 20
165.7798711929423
 30
-1.0
 70
   192
  0
VERTEX
  5
119E
  8
0
 10
-180.113627601964
 20
165.7798711929423
 30
-8.0
 70
   192
  0
VERTEX
  5
119F
  8
0
 10
-180.113627601964
 20
128.3673804280909
 30
-8.0
 70
   192
  0
VERTEX
  5
11A0
  8
0
 10
0.0
 20
0.0
 30
0.0
 70
   128
 71
     3
 72
     4
 73
    -1
  0
VERTEX
  5
11A1
  8
0
 10
0.0
 20
0.0
 30
0.0
 70
   128
 71
     2
 72
    -3
 73
     1
  0
SEQEND
  5
19CB
  8
0
  0
POLYLINE
  5
11A2
  8
0
 66
     1
 10
0.0
 20
0.0
 30
0.0
 70
    64
 71
     4
 72
     2
  0
VERTEX
  5
11A3
  8
0
 10
-180.113627601964
 20
165.7798711929423
 30
-8.0
 70
   192
  0
VERTEX
  5
11A4
  8
0
 10
-170.1096276019641
 20
165.7798711929423
 30
-8.0
 70
   192
  0
VERTEX
  5
11A5
  8
0
 10
-170.1096276019641
 20
128.3673804280909
 30
-8.0
 70
   192
  0
VERTEX
  5
11A6
  8
0
 10
-180.113627601964
 20
128.3673804280909
 30
-8.0
 70
   192
  0
VERTEX
  5
11A7
  8
0
 10
0.0
 20
0.0
 30
0.0
 70
   128
 71
     3
 72
     4
 73
    -1
  0
VERTEX
  5
11A8
  8
0
 10
0.0
 20
0.0
 30
0.0
 70
   128
 71
     2
 72
    -3
 73
     1
  0
SEQEND
  5
19CC
  8
0
  0
POLYLINE
  5
11A9
  8
0
 66
     1
 10
0.0
 20
0.0
 30
0.0
 70
    64
 71
     4
 72
     2
  0
VERTEX
  5
11AA
  8
0
 10
-128.1136276019641
 20
180.3673804280909
 30
-1.0
 70
   192
  0
VERTEX
  5
11AB
  8
0
 10
-128.1136276019641
 20
170.3633804280909
 30
-1.0
 70
   192
  0
VERTEX
  5
11AC
  8
0
 10
-128.1136276019641
 20
170.3633804280909
 30
-8.0
 70
   192
  0
VERTEX
  5
11AD
  8
0
 10
-128.1136276019641
 20
180.3673804280909
 30
-8.0
 70
   192
  0
VERTEX
  5
11AE
  8
0
 10
0.0
 20
0.0
 30
0.0
 70
   128
 71
     3
 72
     4
 73
    -1
  0
VERTEX
  5
11AF
  8
0
 10
0.0
 20
0.0
 30
0.0
 70
   128
 71
     2
 72
    -3
 73
     1
  0
SEQEND
  5
19CD
  8
0
  0
POLYLINE
  5
11B0
  8
0
 66
     1
 10
0.0
 20
0.0
 30
0.0
 70
    64
 71
     4
 72
     2
  0
VERTEX
  5
11B1
  8
0
 10
-128.1136276019641
 20
170.3633804280909
 30
-1.0
 70
   192
  0
VERTEX
  5
11B2
  8
0
 10
-128.113627601964
 20
170.3633804280909
 30
-8.0
 70
   192
  0
VERTEX
  5
11B3
  8
0
 10
-165.5261183668155
 20
170.3633804280909
 30
-8.0
 70
   192
  0
VERTEX
  5
11B4
  8
0
 10
-165.5261183668155
 20
170.3633804280909
 30
-1.0
 70
   192
  0
VERTEX
  5
11B5
  8
0
 10
0.0
 20
0.0
 30
0.0
 70
   128
 71
     1
 72
     4
 73
    -3
  0
VERTEX
  5
11B6
  8
0
 10
0.0
 20
0.0
 30
0.0
 70
   128
 71
    -1
 72
     3
 73
     2
  0
SEQEND
  5
19CE
  8
0
  0
POLYLINE
  5
11B7
  8
0
 66
     1
 10
0.0
 20
0.0
 30
0.0
 70
    64
 71
     4
 72
     2
  0
VERTEX
  5
11B8
  8
0
 10
-165.5261183668155
 20
170.3633804280909
 30
-1.0
 70
   192
  0
VERTEX
  5
11B9
  8
0
 10
-165.5261183668155
 20
170.3633804280909
 30
-8.0
 70
   192
  0
VERTEX
  5
11BA
  8
0
 10
-165.5261183668155
 20
180.3673804280909
 30
-8.0
 70
   192
  0
VERTEX
  5
11BB
  8
0
 10
-165.5261183668155
 20
180.3673804280909
 30
-1.0
 70
   192
  0
VERTEX
  5
11BC
  8
0
 10
0.0
 20
0.0
 30
0.0
 70
   128
 71
     1
 72
     4
 73
    -3
  0
VERTEX
  5
11BD
  8
0
 10
0.0
 20
0.0
 30
0.0
 70
   128
 71
    -1
 72
     3
 73
     2
  0
SEQEND
  5
19CF
  8
0
  0
POLYLINE
  5
11BE
  8
0
 66
     1
 10
0.0
 20
0.0
 30
0.0
 70
    64
 71
     4
 72
     2
  0
VERTEX
  5
11BF
  8
0
 10
-165.5261183668155
 20
180.3673804280909
 30
-1.0
 70
   192
  0
VERTEX
  5
11C0
  8
0
 10
-128.113627601964
 20
180.3673804280909
 30
-1.0
 70
   192
  0
VERTEX
  5
11C1
  8
0
 10
-128.1136276019641
 20
180.3673804280909
 30
-8.0
 70
   192
  0
VERTEX
  5
11C2
  8
0
 10
-165.5261183668155
 20
180.3673804280909
 30
-8.0
 70
   192
  0
VERTEX
  5
11C3
  8
0
 10
0.0
 20
0.0
 30
0.0
 70
   128
 71
     3
 72
     4
 73
    -1
  0
VERTEX
  5
11C4
  8
0
 10
0.0
 20
0.0
 30
0.0
 70
   128
 71
     2
 72
    -3
 73
     1
  0
SEQEND
  5
19D0
  8
0
  0
POLYLINE
  5
11C5
  8
0
 66
     1
 10
0.0
 20
0.0
 30
0.0
 70
    64
 71
     4
 72
     2
  0
VERTEX
  5
11C6
  8
0
 10
-128.113627601964
 20
180.3673804280909
 30
-8.0
 70
   192
  0
VERTEX
  5
11C7
  8
0
 10
-165.5261183668155
 20
180.3673804280909
 30
-8.0
 70
   192
  0
VERTEX
  5
11C8
  8
0
 10
-165.5261183668155
 20
170.3633804280909
 30
-8.0
 70
   192
  0
VERTEX
  5
11C9
  8
0
 10
-128.1136276019641
 20
170.3633804280909
 30
-8.0
 70
   192
  0
VERTEX
  5
11CA
  8
0
 10
0.0
 20
0.0
 30
0.0
 70
   128
 71
     1
 72
     4
 73
    -3
  0
VERTEX
  5
11CB
  8
0
 10
0.0
 20
0.0
 30
0.0
 70
   128
 71
    -1
 72
     3
 73
     2
  0
SEQEND
  5
19D1
  8
0
  0
ENDBLK
  5
19BD
  8
0
  0
BLOCK
  8
0
  2
*X5
 70
     1
 10
0.0
 20
0.0
 30
0.0
  3
*X5
  1

  0
POLYLINE
  5
11CD
  8
0
 66
     1
 10
0.0
 20
0.0
 30
0.0
 70
    64
 71
    24
 72
    26
  0
VERTEX
  5
11CE
  8
0
 10
-190.113627601964
 20
-44.63261957190912
 30
-1.0
 70
   192
  0
VERTEX
  5
11CF
  8
0
 10
-189.4437546208862
 20
-42.13261957190912
 30
-1.0
 70
   192
  0
VERTEX
  5
11D0
  8
0
 10
-187.613627601964
 20
-40.30249255298692
 30
-1.0
 70
   192
  0
VERTEX
  5
11D1
  8
0
 10
-185.113627601964
 20
-39.63261957190911
 30
-1.0
 70
   192
  0
VERTEX
  5
11D2
  8
0
 10
-123.1136276019639
 20
-39.63261957190908
 30
-1.0
 70
   192
  0
VERTEX
  5
11D3
  8
0
 10
-120.6136276019639
 20
-40.3024925529869
 30
-1.0
 70
   192
  0
VERTEX
  5
11D4
  8
0
 10
-118.7835005830417
 20
-42.1326195719091
 30
-1.0
 70
   192
  0
VERTEX
  5
11D5
  8
0
 10
-118.1136276019639
 20
-44.6326195719091
 30
-1.0
 70
   192
  0
VERTEX
  5
11D6
  8
0
 10
-118.1136276019639
 20
-106.6326195719091
 30
-1.0
 70
   192
  0
VERTEX
  5
11D7
  8
0
 10
-118.7835005830417
 20
-109.1326195719091
 30
-1.0
 70
   192
  0
VERTEX
  5
11D8
  8
0
 10
-120.6136276019639
 20
-110.9627465908313
 30
-1.0
 70
   192
  0
VERTEX
  5
11D9
  8
0
 10
-123.1136276019639
 20
-111.6326195719091
 30
-1.0
 70
   192
  0
VERTEX
  5
11DA
  8
0
 10
-185.1136276019639
 20
-111.6326195719091
 30
-1.0
 70
   192
  0
VERTEX
  5
11DB
  8
0
 10
-187.613627601964
 20
-110.9627465908313
 30
-1.0
 70
   192
  0
VERTEX
  5
11DC
  8
0
 10
-189.4437546208862
 20
-109.1326195719091
 30
-1.0
 70
   192
  0
VERTEX
  5
11DD
  8
0
 10
-190.113627601964
 20
-106.6326195719091
 30
-1.0
 70
   192
  0
VERTEX
  5
11DE
  8
0
 10
-180.113627601964
 20
-87.04511033676052
 30
-1.0
 70
   192
  0
VERTEX
  5
11DF
  8
0
 10
-170.109627601964
 20
-87.04511033676052
 30
-1.0
 70
   192
  0
VERTEX
  5
11E0
  8
0
 10
-170.109627601964
 20
-49.63261957190907
 30
-1.0
 70
   192
  0
VERTEX
  5
11E1
  8
0
 10
-180.113627601964
 20
-49.63261957190909
 30
-1.0
 70
   192
  0
VERTEX
  5
11E2
  8
0
 10
-165.5261183668154
 20
-101.6326195719091
 30
-1.0
 70
   192
  0
VERTEX
  5
11E3
  8
0
 10
-128.1136276019639
 20
-101.6326195719091
 30
-1.0
 70
   192
  0
VERTEX
  5
11E4
  8
0
 10
-128.1136276019639
 20
-91.62861957190917
 30
-1.0
 70
   192
  0
VERTEX
  5
11E5
  8
0
 10
-165.5261183668154
 20
-91.62861957190916
 30
-1.0
 70
   192
  0
VERTEX
  5
11E6
  8
0
 10
0.0
 20
0.0
 30
0.0
 70
   128
 71
   -21
 72
    17
 73
   -18
  0
VERTEX
  5
11E7
  8
0
 10
0.0
 20
0.0
 30
0.0
 70
   128
 71
   -14
 72
   -17
 73
   -21
  0
VERTEX
  5
11E8
  8
0
 10
0.0
 20
0.0
 30
0.0
 70
   128
 71
    13
 72
   -14
 73
   -21
  0
VERTEX
  5
11E9
  8
0
 10
0.0
 20
0.0
 30
0.0
 70
   128
 71
    11
 72
    12
 73
   -13
  0
VERTEX
  5
11EA
  8
0
 10
0.0
 20
0.0
 30
0.0
 70
   128
 71
    10
 72
   -11
 73
   -13
  0
VERTEX
  5
11EB
  8
0
 10
0.0
 20
0.0
 30
0.0
 70
   128
 71
     9
 72
   -10
 73
   -13
  0
VERTEX
  5
11EC
  8
0
 10
0.0
 20
0.0
 30
0.0
 70
   128
 71
   -22
 72
    -9
 73
   -13
  0
VERTEX
  5
11ED
  8
0
 10
0.0
 20
0.0
 30
0.0
 70
   128
 71
    21
 72
   -22
 73
   -13
  0
VERTEX
  5
11EE
  8
0
 10
0.0
 20
0.0
 30
0.0
 70
   128
 71
    22
 72
   -23
 73
    -9
  0
VERTEX
  5
11EF
  8
0
 10
0.0
 20
0.0
 30
0.0
 70
   128
 71
     8
 72
    -9
 73
   -23
  0
VERTEX
  5
11F0
  8
0
 10
0.0
 20
0.0
 30
0.0
 70
   128
 71
     6
 72
     7
 73
    -8
  0
VERTEX
  5
11F1
  8
0
 10
0.0
 20
0.0
 30
0.0
 70
   128
 71
     5
 72
    -6
 73
    -8
  0
VERTEX
  5
11F2
  8
0
 10
0.0
 20
0.0
 30
0.0
 70
   128
 71
   -19
 72
    -5
 73
    -8
  0
VERTEX
  5
11F3
  8
0
 10
0.0
 20
0.0
 30
0.0
 70
   128
 71
    18
 72
   -19
 73
    -8
  0
VERTEX
  5
11F4
  8
0
 10
0.0
 20
0.0
 30
0.0
 70
   128
 71
   -24
 72
   -18
 73
    -8
  0
VERTEX
  5
11F5
  8
0
 10
0.0
 20
0.0
 30
0.0
 70
   128
 71
    23
 72
   -24
 73
    -8
  0
VERTEX
  5
11F6
  8
0
 10
0.0
 20
0.0
 30
0.0
 70
   128
 71
    24
 72
   -21
 73
   -18
  0
VERTEX
  5
11F7
  8
0
 10
0.0
 20
0.0
 30
0.0
 70
   128
 71
   -19
 72
     4
 73
    -5
  0
VERTEX
  5
11F8
  8
0
 10
0.0
 20
0.0
 30
0.0
 70
   128
 71
    19
 72
   -20
 73
    -4
  0
VERTEX
  5
11F9
  8
0
 10
0.0
 20
0.0
 30
0.0
 70
   128
 71
     2
 72
     3
 73
    -4
  0
VERTEX
  5
11FA
  8
0
 10
0.0
 20
0.0
 30
0.0
 70
   128
 71
     1
 72
    -2
 73
    -4
  0
VERTEX
  5
11FB
  8
0
 10
0.0
 20
0.0
 30
0.0
 70
   128
 71
    16
 72
    -1
 73
    -4
  0
VERTEX
  5
11FC
  8
0
 10
0.0
 20
0.0
 30
0.0
 70
   128
 71
    15
 72
   -16
 73
    -4
  0
VERTEX
  5
11FD
  8
0
 10
0.0
 20
0.0
 30
0.0
 70
   128
 71
    14
 72
   -15
 73
    -4
  0
VERTEX
  5
11FE
  8
0
 10
0.0
 20
0.0
 30
0.0
 70
   128
 71
   -17
 72
   -14
 73
    -4
  0
VERTEX
  5
11FF
  8
0
 10
0.0
 20
0.0
 30
0.0
 70
   128
 71
    20
 72
   -17
 73
    -4
  0
SEQEND
  5
19D4
  8
0
  0
POLYLINE
  5
1200
  8
0
 66
     1
 10
0.0
 20
0.0
 30
0.0
 70
    64
 71
     8
 72
     6
  0
VERTEX
  5
1201
  8
0
 10
-187.613627601964
 20
-40.30249255298692
 30
0.0
 70
   192
  0
VERTEX
  5
1202
  8
0
 10
-187.613627601964
 20
-40.30249255298692
 30
-1.0
 70
   192
  0
VERTEX
  5
1203
  8
0
 10
-189.4437546208862
 20
-42.13261957190912
 30
-1.0
 70
   192
  0
VERTEX
  5
1204
  8
0
 10
-189.4437546208862
 20
-42.13261957190912
 30
0.0
 70
   192
  0
VERTEX
  5
1205
  8
0
 10
-185.113627601964
 20
-39.63261957190911
 30
0.0
 70
   192
  0
VERTEX
  5
1206
  8
0
 10
-185.113627601964
 20
-39.6326195719091
 30
-1.0
 70
   192
  0
VERTEX
  5
1207
  8
0
 10
-190.113627601964
 20
-44.63261957190912
 30
-1.0
 70
   192
  0
VERTEX
  5
1208
  8
0
 10
-190.113627601964
 20
-44.63261957190912
 30
0.0
 70
   192
  0
VERTEX
  5
1209
  8
0
 10
0.0
 20
0.0
 30
0.0
 70
   128
 71
     1
 72
     2
 73
    -3
  0
VERTEX
  5
120A
  8
0
 10
0.0
 20
0.0
 30
0.0
 70
   128
 71
    -1
 72
     3
 73
     4
  0
VERTEX
  5
120B
  8
0
 10
0.0
 20
0.0
 30
0.0
 70
   128
 71
     5
 72
     6
 73
    -2
  0
VERTEX
  5
120C
  8
0
 10
0.0
 20
0.0
 30
0.0
 70
   128
 71
    -5
 72
     2
 73
     1
  0
VERTEX
  5
120D
  8
0
 10
0.0
 20
0.0
 30
0.0
 70
   128
 71
     4
 72
     3
 73
    -7
  0
VERTEX
  5
120E
  8
0
 10
0.0
 20
0.0
 30
0.0
 70
   128
 71
    -4
 72
     7
 73
     8
  0
SEQEND
  5
19D5
  8
0
  0
POLYLINE
  5
120F
  8
0
 66
     1
 10
0.0
 20
0.0
 30
0.0
 70
    64
 71
     4
 72
     2
  0
VERTEX
  5
1210
  8
0
 10
-185.113627601964
 20
-39.6326195719091
 30
0.0
 70
   192
  0
VERTEX
  5
1211
  8
0
 10
-185.113627601964
 20
-39.6326195719091
 30
-1.0
 70
   192
  0
VERTEX
  5
1212
  8
0
 10
-123.1136276019639
 20
-39.63261957190908
 30
-1.0
 70
   192
  0
VERTEX
  5
1213
  8
0
 10
-123.1136276019639
 20
-39.63261957190908
 30
0.0
 70
   192
  0
VERTEX
  5
1214
  8
0
 10
0.0
 20
0.0
 30
0.0
 70
   128
 71
     1
 72
     4
 73
    -3
  0
VERTEX
  5
1215
  8
0
 10
0.0
 20
0.0
 30
0.0
 70
   128
 71
    -1
 72
     3
 73
     2
  0
SEQEND
  5
19D6
  8
0
  0
POLYLINE
  5
1216
  8
0
 66
     1
 10
0.0
 20
0.0
 30
0.0
 70
    64
 71
     8
 72
     6
  0
VERTEX
  5
1217
  8
0
 10
-118.7835005830417
 20
-42.1326195719091
 30
0.0
 70
   192
  0
VERTEX
  5
1218
  8
0
 10
-118.7835005830417
 20
-42.1326195719091
 30
-1.0
 70
   192
  0
VERTEX
  5
1219
  8
0
 10
-120.6136276019639
 20
-40.3024925529869
 30
-1.0
 70
   192
  0
VERTEX
  5
121A
  8
0
 10
-120.6136276019639
 20
-40.3024925529869
 30
0.0
 70
   192
  0
VERTEX
  5
121B
  8
0
 10
-118.1136276019639
 20
-44.6326195719091
 30
0.0
 70
   192
  0
VERTEX
  5
121C
  8
0
 10
-118.1136276019639
 20
-44.6326195719091
 30
-1.0
 70
   192
  0
VERTEX
  5
121D
  8
0
 10
-123.1136276019639
 20
-39.63261957190908
 30
-1.0
 70
   192
  0
VERTEX
  5
121E
  8
0
 10
-123.1136276019639
 20
-39.63261957190908
 30
0.0
 70
   192
  0
VERTEX
  5
121F
  8
0
 10
0.0
 20
0.0
 30
0.0
 70
   128
 71
     1
 72
     2
 73
    -3
  0
VERTEX
  5
1220
  8
0
 10
0.0
 20
0.0
 30
0.0
 70
   128
 71
    -1
 72
     3
 73
     4
  0
VERTEX
  5
1221
  8
0
 10
0.0
 20
0.0
 30
0.0
 70
   128
 71
     5
 72
     6
 73
    -2
  0
VERTEX
  5
1222
  8
0
 10
0.0
 20
0.0
 30
0.0
 70
   128
 71
    -5
 72
     2
 73
     1
  0
VERTEX
  5
1223
  8
0
 10
0.0
 20
0.0
 30
0.0
 70
   128
 71
     4
 72
     3
 73
    -7
  0
VERTEX
  5
1224
  8
0
 10
0.0
 20
0.0
 30
0.0
 70
   128
 71
    -4
 72
     7
 73
     8
  0
SEQEND
  5
19D7
  8
0
  0
POLYLINE
  5
1225
  8
0
 66
     1
 10
0.0
 20
0.0
 30
0.0
 70
    64
 71
     4
 72
     2
  0
VERTEX
  5
1226
  8
0
 10
-118.1136276019639
 20
-44.6326195719091
 30
0.0
 70
   192
  0
VERTEX
  5
1227
  8
0
 10
-118.1136276019639
 20
-44.6326195719091
 30
-1.0
 70
   192
  0
VERTEX
  5
1228
  8
0
 10
-118.1136276019639
 20
-106.6326195719091
 30
-1.0
 70
   192
  0
VERTEX
  5
1229
  8
0
 10
-118.1136276019639
 20
-106.6326195719091
 30
0.0
 70
   192
  0
VERTEX
  5
122A
  8
0
 10
0.0
 20
0.0
 30
0.0
 70
   128
 71
     1
 72
     4
 73
    -3
  0
VERTEX
  5
122B
  8
0
 10
0.0
 20
0.0
 30
0.0
 70
   128
 71
    -1
 72
     3
 73
     2
  0
SEQEND
  5
19D8
  8
0
  0
POLYLINE
  5
122C
  8
0
 66
     1
 10
0.0
 20
0.0
 30
0.0
 70
    64
 71
     8
 72
     6
  0
VERTEX
  5
122D
  8
0
 10
-120.6136276019639
 20
-110.9627465908313
 30
0.0
 70
   192
  0
VERTEX
  5
122E
  8
0
 10
-120.6136276019639
 20
-110.9627465908313
 30
-1.0
 70
   192
  0
VERTEX
  5
122F
  8
0
 10
-118.7835005830417
 20
-109.1326195719091
 30
-1.0
 70
   192
  0
VERTEX
  5
1230
  8
0
 10
-118.7835005830417
 20
-109.1326195719091
 30
0.0
 70
   192
  0
VERTEX
  5
1231
  8
0
 10
-123.1136276019639
 20
-111.6326195719091
 30
0.0
 70
   192
  0
VERTEX
  5
1232
  8
0
 10
-123.1136276019639
 20
-111.6326195719091
 30
-1.0
 70
   192
  0
VERTEX
  5
1233
  8
0
 10
-118.1136276019639
 20
-106.6326195719091
 30
-1.0
 70
   192
  0
VERTEX
  5
1234
  8
0
 10
-118.1136276019639
 20
-106.6326195719091
 30
0.0
 70
   192
  0
VERTEX
  5
1235
  8
0
 10
0.0
 20
0.0
 30
0.0
 70
   128
 71
     1
 72
     2
 73
    -3
  0
VERTEX
  5
1236
  8
0
 10
0.0
 20
0.0
 30
0.0
 70
   128
 71
    -1
 72
     3
 73
     4
  0
VERTEX
  5
1237
  8
0
 10
0.0
 20
0.0
 30
0.0
 70
   128
 71
     5
 72
     6
 73
    -2
  0
VERTEX
  5
1238
  8
0
 10
0.0
 20
0.0
 30
0.0
 70
   128
 71
    -5
 72
     2
 73
     1
  0
VERTEX
  5
1239
  8
0
 10
0.0
 20
0.0
 30
0.0
 70
   128
 71
     4
 72
     3
 73
    -7
  0
VERTEX
  5
123A
  8
0
 10
0.0
 20
0.0
 30
0.0
 70
   128
 71
    -4
 72
     7
 73
     8
  0
SEQEND
  5
19D9
  8
0
  0
POLYLINE
  5
123B
  8
0
 66
     1
 10
0.0
 20
0.0
 30
0.0
 70
    64
 71
     4
 72
     2
  0
VERTEX
  5
123C
  8
0
 10
-123.1136276019639
 20
-111.6326195719091
 30
0.0
 70
   192
  0
VERTEX
  5
123D
  8
0
 10
-123.1136276019639
 20
-111.6326195719091
 30
-1.0
 70
   192
  0
VERTEX
  5
123E
  8
0
 10
-185.1136276019639
 20
-111.6326195719091
 30
-1.0
 70
   192
  0
VERTEX
  5
123F
  8
0
 10
-185.1136276019639
 20
-111.6326195719091
 30
0.0
 70
   192
  0
VERTEX
  5
1240
  8
0
 10
0.0
 20
0.0
 30
0.0
 70
   128
 71
     1
 72
     4
 73
    -3
  0
VERTEX
  5
1241
  8
0
 10
0.0
 20
0.0
 30
0.0
 70
   128
 71
    -1
 72
     3
 73
     2
  0
SEQEND
  5
19DA
  8
0
  0
POLYLINE
  5
1242
  8
0
 66
     1
 10
0.0
 20
0.0
 30
0.0
 70
    64
 71
     8
 72
     6
  0
VERTEX
  5
1243
  8
0
 10
-189.4437546208862
 20
-109.1326195719091
 30
0.0
 70
   192
  0
VERTEX
  5
1244
  8
0
 10
-189.4437546208862
 20
-109.1326195719091
 30
-1.0
 70
   192
  0
VERTEX
  5
1245
  8
0
 10
-187.613627601964
 20
-110.9627465908313
 30
-1.0
 70
   192
  0
VERTEX
  5
1246
  8
0
 10
-187.613627601964
 20
-110.9627465908313
 30
0.0
 70
   192
  0
VERTEX
  5
1247
  8
0
 10
-190.113627601964
 20
-106.6326195719091
 30
0.0
 70
   192
  0
VERTEX
  5
1248
  8
0
 10
-190.113627601964
 20
-106.6326195719091
 30
-1.0
 70
   192
  0
VERTEX
  5
1249
  8
0
 10
-185.1136276019639
 20
-111.6326195719091
 30
-1.0
 70
   192
  0
VERTEX
  5
124A
  8
0
 10
-185.1136276019639
 20
-111.6326195719091
 30
0.0
 70
   192
  0
VERTEX
  5
124B
  8
0
 10
0.0
 20
0.0
 30
0.0
 70
   128
 71
     1
 72
     2
 73
    -3
  0
VERTEX
  5
124C
  8
0
 10
0.0
 20
0.0
 30
0.0
 70
   128
 71
    -1
 72
     3
 73
     4
  0
VERTEX
  5
124D
  8
0
 10
0.0
 20
0.0
 30
0.0
 70
   128
 71
     5
 72
     6
 73
    -2
  0
VERTEX
  5
124E
  8
0
 10
0.0
 20
0.0
 30
0.0
 70
   128
 71
    -5
 72
     2
 73
     1
  0
VERTEX
  5
124F
  8
0
 10
0.0
 20
0.0
 30
0.0
 70
   128
 71
     4
 72
     3
 73
    -7
  0
VERTEX
  5
1250
  8
0
 10
0.0
 20
0.0
 30
0.0
 70
   128
 71
    -4
 72
     7
 73
     8
  0
SEQEND
  5
19DB
  8
0
  0
POLYLINE
  5
1251
  8
0
 66
     1
 10
0.0
 20
0.0
 30
0.0
 70
    64
 71
     4
 72
     2
  0
VERTEX
  5
1252
  8
0
 10
-190.113627601964
 20
-106.6326195719091
 30
0.0
 70
   192
  0
VERTEX
  5
1253
  8
0
 10
-190.113627601964
 20
-106.6326195719091
 30
-1.0
 70
   192
  0
VERTEX
  5
1254
  8
0
 10
-190.113627601964
 20
-44.63261957190912
 30
-1.0
 70
   192
  0
VERTEX
  5
1255
  8
0
 10
-190.113627601964
 20
-44.63261957190912
 30
0.0
 70
   192
  0
VERTEX
  5
1256
  8
0
 10
0.0
 20
0.0
 30
0.0
 70
   128
 71
     1
 72
     4
 73
    -3
  0
VERTEX
  5
1257
  8
0
 10
0.0
 20
0.0
 30
0.0
 70
   128
 71
    -1
 72
     3
 73
     2
  0
SEQEND
  5
19DC
  8
0
  0
POLYLINE
  5
1258
  8
0
 66
     1
 10
0.0
 20
0.0
 30
0.0
 70
    64
 71
    16
 72
    14
  0
VERTEX
  5
1259
  8
0
 10
-185.113627601964
 20
-39.6326195719091
 30
0.0
 70
   192
  0
VERTEX
  5
125A
  8
0
 10
-123.1136276019639
 20
-39.63261957190908
 30
0.0
 70
   192
  0
VERTEX
  5
125B
  8
0
 10
-120.6136276019639
 20
-40.3024925529869
 30
0.0
 70
   192
  0
VERTEX
  5
125C
  8
0
 10
-118.7835005830417
 20
-42.1326195719091
 30
0.0
 70
   192
  0
VERTEX
  5
125D
  8
0
 10
-118.1136276019639
 20
-44.6326195719091
 30
0.0
 70
   192
  0
VERTEX
  5
125E
  8
0
 10
-118.1136276019639
 20
-106.6326195719091
 30
0.0
 70
   192
  0
VERTEX
  5
125F
  8
0
 10
-118.7835005830417
 20
-109.1326195719091
 30
0.0
 70
   192
  0
VERTEX
  5
1260
  8
0
 10
-120.6136276019639
 20
-110.9627465908313
 30
0.0
 70
   192
  0
VERTEX
  5
1261
  8
0
 10
-123.1136276019639
 20
-111.6326195719091
 30
0.0
 70
   192
  0
VERTEX
  5
1262
  8
0
 10
-185.1136276019639
 20
-111.6326195719091
 30
0.0
 70
   192
  0
VERTEX
  5
1263
  8
0
 10
-187.613627601964
 20
-110.9627465908313
 30
0.0
 70
   192
  0
VERTEX
  5
1264
  8
0
 10
-189.4437546208862
 20
-109.1326195719091
 30
0.0
 70
   192
  0
VERTEX
  5
1265
  8
0
 10
-190.113627601964
 20
-106.6326195719091
 30
0.0
 70
   192
  0
VERTEX
  5
1266
  8
0
 10
-190.113627601964
 20
-44.63261957190912
 30
0.0
 70
   192
  0
VERTEX
  5
1267
  8
0
 10
-189.4437546208862
 20
-42.13261957190912
 30
0.0
 70
   192
  0
VERTEX
  5
1268
  8
0
 10
-187.613627601964
 20
-40.30249255298692
 30
0.0
 70
   192
  0
VERTEX
  5
1269
  8
0
 10
0.0
 20
0.0
 30
0.0
 70
   128
 71
     1
 72
    16
 73
   -15
  0
VERTEX
  5
126A
  8
0
 10
0.0
 20
0.0
 30
0.0
 70
   128
 71
    -1
 72
    15
 73
   -14
  0
VERTEX
  5
126B
  8
0
 10
0.0
 20
0.0
 30
0.0
 70
   128
 71
    -1
 72
    14
 73
   -13
  0
VERTEX
  5
126C
  8
0
 10
0.0
 20
0.0
 30
0.0
 70
   128
 71
    -1
 72
    13
 73
   -12
  0
VERTEX
  5
126D
  8
0
 10
0.0
 20
0.0
 30
0.0
 70
   128
 71
    -1
 72
    12
 73
   -11
  0
VERTEX
  5
126E
  8
0
 10
0.0
 20
0.0
 30
0.0
 70
   128
 71
    -1
 72
    11
 73
   -10
  0
VERTEX
  5
126F
  8
0
 10
0.0
 20
0.0
 30
0.0
 70
   128
 71
    -1
 72
    10
 73
    -9
  0
VERTEX
  5
1270
  8
0
 10
0.0
 20
0.0
 30
0.0
 70
   128
 71
    -1
 72
     9
 73
    -8
  0
VERTEX
  5
1271
  8
0
 10
0.0
 20
0.0
 30
0.0
 70
   128
 71
    -1
 72
     8
 73
    -7
  0
VERTEX
  5
1272
  8
0
 10
0.0
 20
0.0
 30
0.0
 70
   128
 71
    -1
 72
     7
 73
    -6
  0
VERTEX
  5
1273
  8
0
 10
0.0
 20
0.0
 30
0.0
 70
   128
 71
    -1
 72
     6
 73
    -5
  0
VERTEX
  5
1274
  8
0
 10
0.0
 20
0.0
 30
0.0
 70
   128
 71
    -1
 72
     5
 73
    -4
  0
VERTEX
  5
1275
  8
0
 10
0.0
 20
0.0
 30
0.0
 70
   128
 71
    -1
 72
     4
 73
    -3
  0
VERTEX
  5
1276
  8
0
 10
0.0
 20
0.0
 30
0.0
 70
   128
 71
    -1
 72
     3
 73
     2
  0
SEQEND
  5
19DD
  8
0
  0
POLYLINE
  5
1277
  8
0
 66
     1
 10
0.0
 20
0.0
 30
0.0
 70
    64
 71
     4
 72
     2
  0
VERTEX
  5
1278
  8
0
 10
-128.1136276019639
 20
-91.62861957190916
 30
-1.0
 70
   192
  0
VERTEX
  5
1279
  8
0
 10
-128.1136276019639
 20
-91.62861957190917
 30
-8.0
 70
   192
  0
VERTEX
  5
127A
  8
0
 10
-128.1136276019639
 20
-101.6326195719091
 30
-8.0
 70
   192
  0
VERTEX
  5
127B
  8
0
 10
-128.1136276019639
 20
-101.6326195719091
 30
-1.0
 70
   192
  0
VERTEX
  5
127C
  8
0
 10
0.0
 20
0.0
 30
0.0
 70
   128
 71
     1
 72
     4
 73
    -3
  0
VERTEX
  5
127D
  8
0
 10
0.0
 20
0.0
 30
0.0
 70
   128
 71
    -1
 72
     3
 73
     2
  0
SEQEND
  5
19DE
  8
0
  0
POLYLINE
  5
127E
  8
0
 66
     1
 10
0.0
 20
0.0
 30
0.0
 70
    64
 71
     4
 72
     2
  0
VERTEX
  5
127F
  8
0
 10
-128.1136276019639
 20
-101.6326195719091
 30
-1.0
 70
   192
  0
VERTEX
  5
1280
  8
0
 10
-128.1136276019639
 20
-101.6326195719091
 30
-8.0
 70
   192
  0
VERTEX
  5
1281
  8
0
 10
-165.5261183668154
 20
-101.6326195719091
 30
-8.0
 70
   192
  0
VERTEX
  5
1282
  8
0
 10
-165.5261183668154
 20
-101.6326195719091
 30
-1.0
 70
   192
  0
VERTEX
  5
1283
  8
0
 10
0.0
 20
0.0
 30
0.0
 70
   128
 71
     1
 72
     4
 73
    -3
  0
VERTEX
  5
1284
  8
0
 10
0.0
 20
0.0
 30
0.0
 70
   128
 71
    -1
 72
     3
 73
     2
  0
SEQEND
  5
19DF
  8
0
  0
POLYLINE
  5
1285
  8
0
 66
     1
 10
0.0
 20
0.0
 30
0.0
 70
    64
 71
     4
 72
     2
  0
VERTEX
  5
1286
  8
0
 10
-165.5261183668154
 20
-101.6326195719091
 30
-1.0
 70
   192
  0
VERTEX
  5
1287
  8
0
 10
-165.5261183668154
 20
-91.62861957190917
 30
-1.0
 70
   192
  0
VERTEX
  5
1288
  8
0
 10
-165.5261183668154
 20
-91.62861957190916
 30
-8.0
 70
   192
  0
VERTEX
  5
1289
  8
0
 10
-165.5261183668154
 20
-101.6326195719091
 30
-8.0
 70
   192
  0
VERTEX
  5
128A
  8
0
 10
0.0
 20
0.0
 30
0.0
 70
   128
 71
     3
 72
     4
 73
    -1
  0
VERTEX
  5
128B
  8
0
 10
0.0
 20
0.0
 30
0.0
 70
   128
 71
     2
 72
    -3
 73
     1
  0
SEQEND
  5
19E0
  8
0
  0
POLYLINE
  5
128C
  8
0
 66
     1
 10
0.0
 20
0.0
 30
0.0
 70
    64
 71
     4
 72
     2
  0
VERTEX
  5
128D
  8
0
 10
-165.5261183668154
 20
-91.62861957190916
 30
-1.0
 70
   192
  0
VERTEX
  5
128E
  8
0
 10
-128.1136276019639
 20
-91.62861957190916
 30
-1.0
 70
   192
  0
VERTEX
  5
128F
  8
0
 10
-128.1136276019639
 20
-91.62861957190916
 30
-8.0
 70
   192
  0
VERTEX
  5
1290
  8
0
 10
-165.5261183668154
 20
-91.62861957190916
 30
-8.0
 70
   192
  0
VERTEX
  5
1291
  8
0
 10
0.0
 20
0.0
 30
0.0
 70
   128
 71
     3
 72
     4
 73
    -1
  0
VERTEX
  5
1292
  8
0
 10
0.0
 20
0.0
 30
0.0
 70
   128
 71
     2
 72
    -3
 73
     1
  0
SEQEND
  5
19E1
  8
0
  0
POLYLINE
  5
1293
  8
0
 66
     1
 10
0.0
 20
0.0
 30
0.0
 70
    64
 71
     4
 72
     2
  0
VERTEX
  5
1294
  8
0
 10
-128.1136276019639
 20
-91.62861957190917
 30
-8.0
 70
   192
  0
VERTEX
  5
1295
  8
0
 10
-128.1136276019639
 20
-101.6326195719091
 30
-8.0
 70
   192
  0
VERTEX
  5
1296
  8
0
 10
-165.5261183668154
 20
-101.6326195719091
 30
-8.0
 70
   192
  0
VERTEX
  5
1297
  8
0
 10
-165.5261183668154
 20
-91.62861957190917
 30
-8.0
 70
   192
  0
VERTEX
  5
1298
  8
0
 10
0.0
 20
0.0
 30
0.0
 70
   128
 71
     3
 72
     4
 73
    -1
  0
VERTEX
  5
1299
  8
0
 10
0.0
 20
0.0
 30
0.0
 70
   128
 71
     2
 72
    -3
 73
     1
  0
SEQEND
  5
19E2
  8
0
  0
POLYLINE
  5
129A
  8
0
 66
     1
 10
0.0
 20
0.0
 30
0.0
 70
    64
 71
     4
 72
     2
  0
VERTEX
  5
129B
  8
0
 10
-170.109627601964
 20
-87.04511033676052
 30
-1.0
 70
   192
  0
VERTEX
  5
129C
  8
0
 10
-180.113627601964
 20
-87.04511033676052
 30
-1.0
 70
   192
  0
VERTEX
  5
129D
  8
0
 10
-180.113627601964
 20
-87.04511033676052
 30
-8.0
 70
   192
  0
VERTEX
  5
129E
  8
0
 10
-170.109627601964
 20
-87.04511033676052
 30
-8.0
 70
   192
  0
VERTEX
  5
129F
  8
0
 10
0.0
 20
0.0
 30
0.0
 70
   128
 71
     3
 72
     4
 73
    -1
  0
VERTEX
  5
12A0
  8
0
 10
0.0
 20
0.0
 30
0.0
 70
   128
 71
     2
 72
    -3
 73
     1
  0
SEQEND
  5
19E3
  8
0
  0
POLYLINE
  5
12A1
  8
0
 66
     1
 10
0.0
 20
0.0
 30
0.0
 70
    64
 71
     4
 72
     2
  0
VERTEX
  5
12A2
  8
0
 10
-180.113627601964
 20
-87.04511033676052
 30
-1.0
 70
   192
  0
VERTEX
  5
12A3
  8
0
 10
-180.113627601964
 20
-87.04511033676052
 30
-8.0
 70
   192
  0
VERTEX
  5
12A4
  8
0
 10
-180.113627601964
 20
-49.63261957190909
 30
-8.0
 70
   192
  0
VERTEX
  5
12A5
  8
0
 10
-180.113627601964
 20
-49.63261957190907
 30
-1.0
 70
   192
  0
VERTEX
  5
12A6
  8
0
 10
0.0
 20
0.0
 30
0.0
 70
   128
 71
     1
 72
     4
 73
    -3
  0
VERTEX
  5
12A7
  8
0
 10
0.0
 20
0.0
 30
0.0
 70
   128
 71
    -1
 72
     3
 73
     2
  0
SEQEND
  5
19E4
  8
0
  0
POLYLINE
  5
12A8
  8
0
 66
     1
 10
0.0
 20
0.0
 30
0.0
 70
    64
 71
     4
 72
     2
  0
VERTEX
  5
12A9
  8
0
 10
-180.113627601964
 20
-49.63261957190909
 30
-1.0
 70
   192
  0
VERTEX
  5
12AA
  8
0
 10
-180.113627601964
 20
-49.63261957190909
 30
-8.0
 70
   192
  0
VERTEX
  5
12AB
  8
0
 10
-170.109627601964
 20
-49.63261957190909
 30
-8.0
 70
   192
  0
VERTEX
  5
12AC
  8
0
 10
-170.109627601964
 20
-49.63261957190909
 30
-1.0
 70
   192
  0
VERTEX
  5
12AD
  8
0
 10
0.0
 20
0.0
 30
0.0
 70
   128
 71
     1
 72
     4
 73
    -3
  0
VERTEX
  5
12AE
  8
0
 10
0.0
 20
0.0
 30
0.0
 70
   128
 71
    -1
 72
     3
 73
     2
  0
SEQEND
  5
19E5
  8
0
  0
POLYLINE
  5
12AF
  8
0
 66
     1
 10
0.0
 20
0.0
 30
0.0
 70
    64
 71
     4
 72
     2
  0
VERTEX
  5
12B0
  8
0
 10
-170.109627601964
 20
-49.63261957190907
 30
-1.0
 70
   192
  0
VERTEX
  5
12B1
  8
0
 10
-170.109627601964
 20
-87.04511033676052
 30
-1.0
 70
   192
  0
VERTEX
  5
12B2
  8
0
 10
-170.109627601964
 20
-87.04511033676052
 30
-8.0
 70
   192
  0
VERTEX
  5
12B3
  8
0
 10
-170.109627601964
 20
-49.63261957190907
 30
-8.0
 70
   192
  0
VERTEX
  5
12B4
  8
0
 10
0.0
 20
0.0
 30
0.0
 70
   128
 71
     3
 72
     4
 73
    -1
  0
VERTEX
  5
12B5
  8
0
 10
0.0
 20
0.0
 30
0.0
 70
   128
 71
     2
 72
    -3
 73
     1
  0
SEQEND
  5
19E6
  8
0
  0
POLYLINE
  5
12B6
  8
0
 66
     1
 10
0.0
 20
0.0
 30
0.0
 70
    64
 71
     4
 72
     2
  0
VERTEX
  5
12B7
  8
0
 10
-170.109627601964
 20
-87.04511033676052
 30
-8.0
 70
   192
  0
VERTEX
  5
12B8
  8
0
 10
-170.109627601964
 20
-49.63261957190909
 30
-8.0
 70
   192
  0
VERTEX
  5
12B9
  8
0
 10
-180.113627601964
 20
-49.63261957190907
 30
-8.0
 70
   192
  0
VERTEX
  5
12BA
  8
0
 10
-180.113627601964
 20
-87.04511033676052
 30
-8.0
 70
   192
  0
VERTEX
  5
12BB
  8
0
 10
0.0
 20
0.0
 30
0.0
 70
   128
 71
     1
 72
     4
 73
    -3
  0
VERTEX
  5
12BC
  8
0
 10
0.0
 20
0.0
 30
0.0
 70
   128
 71
    -1
 72
     3
 73
     2
  0
SEQEND
  5
19E7
  8
0
  0
ENDBLK
  5
19D3
  8
0
  0
BLOCK
  8
0
  2
*X6
 70
     1
 10
0.0
 20
0.0
 30
0.0
  3
*X6
  1

  0
POLYLINE
  5
12BE
  8
0
 66
     1
 10
0.0
 20
0.0
 30
0.0
 70
    64
 71
    14
 72
    12
  0
VERTEX
  5
12BF
  8
0
 10
83.7425442435894
 20
31.7528000059646
 30
-6.75
 70
   192
  0
VERTEX
  5
12C0
  8
0
 10
85.35
 20
35.20000000000012
 30
-6.75
 70
   192
  0
VERTEX
  5
12C1
  8
0
 10
81.34999999999994
 20
35.20000000000012
 30
-6.75
 70
   192
  0
VERTEX
  5
12C2
  8
0
 10
81.17139380484326
 20
34.81697777844052
 30
-6.75
 70
   192
  0
VERTEX
  5
12C3
  8
0
 10
83.34999999999994
 20
35.20000000000012
 30
-4.749999999999998
 70
   192
  0
VERTEX
  5
12C4
  8
0
 10
82.45696902421633
 20
33.28488889220256
 30
-4.749999999999998
 70
   192
  0
VERTEX
  5
12C5
  8
0
 10
84.76421356237303
 20
35.20000000000012
 30
-5.335786437626904
 70
   192
  0
VERTEX
  5
12C6
  8
0
 10
83.36600797956042
 20
32.20153845136316
 30
-5.335786437626904
 70
   192
  0
VERTEX
  5
12C7
  8
0
 10
81.93578643762685
 20
35.20000000000012
 30
-5.335786437626904
 70
   192
  0
VERTEX
  5
12C8
  8
0
 10
81.54793006887225
 20
34.36823933304196
 30
-5.335786437626904
 70
   192
  0
VERTEX
  5
12C9
  8
0
 10
85.16095280541973
 20
33.90938545280017
 30
-6.75
 70
   192
  0
VERTEX
  5
12CA
  8
0
 10
84.60969515135822
 20
32.72720959868141
 30
-6.75
 70
   192
  0
VERTEX
  5
12CB
  8
0
 10
81.32899475615775
 20
35.05659838364453
 30
-6.75
 70
   192
  0
VERTEX
  5
12CC
  8
0
 10
81.26774390570648
 20
34.92524551096464
 30
-6.75
 70
   192
  0
VERTEX
  5
12CD
  8
0
 10
0.0
 20
0.0
 30
0.0
 70
   128
 71
    11
 72
     2
 73
     7
  0
VERTEX
  5
12CE
  8
0
 10
0.0
 20
0.0
 30
0.0
 70
   128
 71
    12
 72
    11
 73
    -7
  0
VERTEX
  5
12CF
  8
0
 10
0.0
 20
0.0
 30
0.0
 70
   128
 71
   -12
 72
     7
 73
     8
  0
VERTEX
  5
12D0
  8
0
 10
0.0
 20
0.0
 30
0.0
 70
   128
 71
     8
 72
     1
 73
    12
  0
VERTEX
  5
12D1
  8
0
 10
0.0
 20
0.0
 30
0.0
 70
   128
 71
     8
 72
     7
 73
    -5
  0
VERTEX
  5
12D2
  8
0
 10
0.0
 20
0.0
 30
0.0
 70
   128
 71
    -8
 72
     5
 73
     6
  0
VERTEX
  5
12D3
  8
0
 10
0.0
 20
0.0
 30
0.0
 70
   128
 71
     6
 72
     5
 73
    -9
  0
VERTEX
  5
12D4
  8
0
 10
0.0
 20
0.0
 30
0.0
 70
   128
 71
    -6
 72
     9
 73
    10
  0
VERTEX
  5
12D5
  8
0
 10
0.0
 20
0.0
 30
0.0
 70
   128
 71
    14
 72
     4
 73
    10
  0
VERTEX
  5
12D6
  8
0
 10
0.0
 20
0.0
 30
0.0
 70
   128
 71
    10
 72
     9
 73
   -13
  0
VERTEX
  5
12D7
  8
0
 10
0.0
 20
0.0
 30
0.0
 70
   128
 71
   -10
 72
    13
 73
    14
  0
VERTEX
  5
12D8
  8
0
 10
0.0
 20
0.0
 30
0.0
 70
   128
 71
     9
 72
     3
 73
    13
  0
SEQEND
  5
19EA
  8
0
  0
POLYLINE
  5
12D9
  8
0
 66
     1
 10
0.0
 20
0.0
 30
0.0
 70
    64
 71
    14
 72
    12
  0
VERTEX
  5
12DA
  8
0
 10
73.84644420318072
 20
26.57223080759582
 30
-6.75
 70
   192
  0
VERTEX
  5
12DB
  8
0
 10
75.4538999595913
 20
30.01943080163123
 30
-6.75
 70
   192
  0
VERTEX
  5
12DC
  8
0
 10
78.02505039833747
 20
26.9552530291553
 30
-6.75
 70
   192
  0
VERTEX
  5
12DD
  8
0
 10
77.84644420318072
 20
26.57223080759582
 30
-6.75
 70
   192
  0
VERTEX
  5
12DE
  8
0
 10
76.73947517896438
 20
28.48734191539326
 30
-8.750000000000002
 70
   192
  0
VERTEX
  5
12DF
  8
0
 10
75.84644420318072
 20
26.57223080759582
 30
-8.750000000000002
 70
   192
  0
VERTEX
  5
12E0
  8
0
 10
75.8304362236203
 20
29.57069235623266
 30
-8.164213562373096
 70
   192
  0
VERTEX
  5
12E1
  8
0
 10
74.43223064080763
 20
26.57223080759582
 30
-8.164213562373096
 70
   192
  0
VERTEX
  5
12E2
  8
0
 10
77.64851413430847
 20
27.40399147455385
 30
-8.164213562373096
 70
   192
  0
VERTEX
  5
12E3
  8
0
 10
77.26065776555382
 20
26.57223080759582
 30
-8.164213562373096
 70
   192
  0
VERTEX
  5
12E4
  8
0
 10
74.58674905182251
 20
29.04502120891445
 30
-6.75
 70
   192
  0
VERTEX
  5
12E5
  8
0
 10
74.03549139776102
 20
27.86284535479573
 30
-6.75
 70
   192
  0
VERTEX
  5
12E6
  8
0
 10
77.92870029747425
 20
26.84698529663122
 30
-6.75
 70
   192
  0
VERTEX
  5
12E7
  8
0
 10
77.86744944702298
 20
26.71563242395137
 30
-6.75
 70
   192
  0
VERTEX
  5
12E8
  8
0
 10
0.0
 20
0.0
 30
0.0
 70
   128
 71
    11
 72
     2
 73
     7
  0
VERTEX
  5
12E9
  8
0
 10
0.0
 20
0.0
 30
0.0
 70
   128
 71
    12
 72
    11
 73
    -7
  0
VERTEX
  5
12EA
  8
0
 10
0.0
 20
0.0
 30
0.0
 70
   128
 71
   -12
 72
     7
 73
     8
  0
VERTEX
  5
12EB
  8
0
 10
0.0
 20
0.0
 30
0.0
 70
   128
 71
     8
 72
     1
 73
    12
  0
VERTEX
  5
12EC
  8
0
 10
0.0
 20
0.0
 30
0.0
 70
   128
 71
     8
 72
     7
 73
    -5
  0
VERTEX
  5
12ED
  8
0
 10
0.0
 20
0.0
 30
0.0
 70
   128
 71
    -8
 72
     5
 73
     6
  0
VERTEX
  5
12EE
  8
0
 10
0.0
 20
0.0
 30
0.0
 70
   128
 71
     6
 72
     5
 73
    -9
  0
VERTEX
  5
12EF
  8
0
 10
0.0
 20
0.0
 30
0.0
 70
   128
 71
    -6
 72
     9
 73
    10
  0
VERTEX
  5
12F0
  8
0
 10
0.0
 20
0.0
 30
0.0
 70
   128
 71
    14
 72
     4
 73
    10
  0
VERTEX
  5
12F1
  8
0
 10
0.0
 20
0.0
 30
0.0
 70
   128
 71
    10
 72
     9
 73
   -13
  0
VERTEX
  5
12F2
  8
0
 10
0.0
 20
0.0
 30
0.0
 70
   128
 71
   -10
 72
    13
 73
    14
  0
VERTEX
  5
12F3
  8
0
 10
0.0
 20
0.0
 30
0.0
 70
   128
 71
     9
 72
     3
 73
    13
  0
SEQEND
  5
19EB
  8
0
  0
POLYLINE
  5
12F4
  8
0
 66
     1
 10
0.0
 20
0.0
 30
0.0
 70
    64
 71
    14
 72
    12
  0
VERTEX
  5
12F5
  8
0
 10
92.85355579681926
 20
13.8277691924042
 30
-6.75
 70
   192
  0
VERTEX
  5
12F6
  8
0
 10
90.86259505149395
 20
17.56337115440463
 30
-6.75
 70
   192
  0
VERTEX
  5
12F7
  8
0
 10
88.63233793622757
 20
14.24283607707094
 30
-6.75
 70
   192
  0
VERTEX
  5
12F8
  8
0
 10
88.85355579681926
 20
13.8277691924042
 30
-6.75
 70
   192
  0
VERTEX
  5
12F9
  8
0
 10
89.74746649386077
 20
15.9031036157378
 30
-4.749999999999998
 70
   192
  0
VERTEX
  5
12FA
  8
0
 10
90.85355579681926
 20
13.8277691924042
 30
-4.749999999999998
 70
   192
  0
VERTEX
  5
12FB
  8
0
 10
90.53598145885798
 20
17.07709005091303
 30
-5.335786437626904
 70
   192
  0
VERTEX
  5
12FC
  8
0
 10
92.26776935919236
 20
13.8277691924042
 30
-5.335786437626904
 70
   192
  0
VERTEX
  5
12FD
  8
0
 10
88.95895152886357
 20
14.72911718056256
 30
-5.335786437626904
 70
   192
  0
VERTEX
  5
12FE
  8
0
 10
89.43934223444617
 20
13.8277691924042
 30
-5.335786437626904
 70
   192
  0
VERTEX
  5
12FF
  8
0
 10
91.92802460378516
 20
16.56147962842844
 30
-6.75
 70
   192
  0
VERTEX
  5
1300
  8
0
 10
92.61589726785057
 20
15.27083716874029
 30
-6.75
 70
   192
  0
VERTEX
  5
1301
  8
0
 10
88.75071899759325
 20
14.1315147964069
 30
-6.75
 70
   192
  0
VERTEX
  5
1302
  8
0
 10
88.82714929360051
 20
13.98811007866377
 30
-6.75
 70
   192
  0
VERTEX
  5
1303
  8
0
 10
0.0
 20
0.0
 30
0.0
 70
   128
 71
    11
 72
     2
 73
     7
  0
VERTEX
  5
1304
  8
0
 10
0.0
 20
0.0
 30
0.0
 70
   128
 71
    12
 72
    11
 73
    -7
  0
VERTEX
  5
1305
  8
0
 10
0.0
 20
0.0
 30
0.0
 70
   128
 71
   -12
 72
     7
 73
     8
  0
VERTEX
  5
1306
  8
0
 10
0.0
 20
0.0
 30
0.0
 70
   128
 71
     8
 72
     1
 73
    12
  0
VERTEX
  5
1307
  8
0
 10
0.0
 20
0.0
 30
0.0
 70
   128
 71
     8
 72
     7
 73
    -5
  0
VERTEX
  5
1308
  8
0
 10
0.0
 20
0.0
 30
0.0
 70
   128
 71
    -8
 72
     5
 73
     6
  0
VERTEX
  5
1309
  8
0
 10
0.0
 20
0.0
 30
0.0
 70
   128
 71
     6
 72
     5
 73
    -9
  0
VERTEX
  5
130A
  8
0
 10
0.0
 20
0.0
 30
0.0
 70
   128
 71
    -6
 72
     9
 73
    10
  0
VERTEX
  5
130B
  8
0
 10
0.0
 20
0.0
 30
0.0
 70
   128
 71
    14
 72
     4
 73
    10
  0
VERTEX
  5
130C
  8
0
 10
0.0
 20
0.0
 30
0.0
 70
   128
 71
    10
 72
     9
 73
   -13
  0
VERTEX
  5
130D
  8
0
 10
0.0
 20
0.0
 30
0.0
 70
   128
 71
   -10
 72
    13
 73
    14
  0
VERTEX
  5
130E
  8
0
 10
0.0
 20
0.0
 30
0.0
 70
   128
 71
     9
 72
     3
 73
    13
  0
SEQEND
  5
19EC
  8
0
  0
POLYLINE
  5
130F
  8
0
 66
     1
 10
0.0
 20
0.0
 30
0.0
 70
    64
 71
    14
 72
    12
  0
VERTEX
  5
1310
  8
0
 10
81.35
 20
5.20000000000001
 30
-6.75
 70
   192
  0
VERTEX
  5
1311
  8
0
 10
82.95745575641051
 20
8.647199994035468
 30
-6.75
 70
   192
  0
VERTEX
  5
1312
  8
0
 10
85.52860619515673
 20
5.583022221559501
 30
-6.75
 70
   192
  0
VERTEX
  5
1313
  8
0
 10
85.34999999999992
 20
5.20000000000001
 30
-6.75
 70
   192
  0
VERTEX
  5
1314
  8
0
 10
84.24303097578364
 20
7.115111107797459
 30
-8.750000000000002
 70
   192
  0
VERTEX
  5
1315
  8
0
 10
83.35
 20
5.20000000000001
 30
-8.750000000000002
 70
   192
  0
VERTEX
  5
1316
  8
0
 10
83.33399202043955
 20
8.198461548636864
 30
-8.164213562373096
 70
   192
  0
VERTEX
  5
1317
  8
0
 10
81.9357864376269
 20
5.20000000000001
 30
-8.164213562373096
 70
   192
  0
VERTEX
  5
1318
  8
0
 10
85.15206993112773
 20
6.031760666958053
 30
-8.164213562373096
 70
   192
  0
VERTEX
  5
1319
  8
0
 10
84.76421356237309
 20
5.20000000000001
 30
-8.164213562373096
 70
   192
  0
VERTEX
  5
131A
  8
0
 10
82.09030484864172
 20
7.672790401318677
 30
-6.75
 70
   192
  0
VERTEX
  5
131B
  8
0
 10
81.53904719458022
 20
6.490614547199937
 30
-6.75
 70
   192
  0
VERTEX
  5
131C
  8
0
 10
85.43225609429346
 20
5.474754489035451
 30
-6.75
 70
   192
  0
VERTEX
  5
131D
  8
0
 10
85.37100524384218
 20
5.343401616355575
 30
-6.75
 70
   192
  0
VERTEX
  5
131E
  8
0
 10
0.0
 20
0.0
 30
0.0
 70
   128
 71
    11
 72
     2
 73
     7
  0
VERTEX
  5
131F
  8
0
 10
0.0
 20
0.0
 30
0.0
 70
   128
 71
    12
 72
    11
 73
    -7
  0
VERTEX
  5
1320
  8
0
 10
0.0
 20
0.0
 30
0.0
 70
   128
 71
   -12
 72
     7
 73
     8
  0
VERTEX
  5
1321
  8
0
 10
0.0
 20
0.0
 30
0.0
 70
   128
 71
     8
 72
     1
 73
    12
  0
VERTEX
  5
1322
  8
0
 10
0.0
 20
0.0
 30
0.0
 70
   128
 71
     8
 72
     7
 73
    -5
  0
VERTEX
  5
1323
  8
0
 10
0.0
 20
0.0
 30
0.0
 70
   128
 71
    -8
 72
     5
 73
     6
  0
VERTEX
  5
1324
  8
0
 10
0.0
 20
0.0
 30
0.0
 70
   128
 71
     6
 72
     5
 73
    -9
  0
VERTEX
  5
1325
  8
0
 10
0.0
 20
0.0
 30
0.0
 70
   128
 71
    -6
 72
     9
 73
    10
  0
VERTEX
  5
1326
  8
0
 10
0.0
 20
0.0
 30
0.0
 70
   128
 71
    14
 72
     4
 73
    10
  0
VERTEX
  5
1327
  8
0
 10
0.0
 20
0.0
 30
0.0
 70
   128
 71
    10
 72
     9
 73
   -13
  0
VERTEX
  5
1328
  8
0
 10
0.0
 20
0.0
 30
0.0
 70
   128
 71
   -10
 72
    13
 73
    14
  0
VERTEX
  5
1329
  8
0
 10
0.0
 20
0.0
 30
0.0
 70
   128
 71
     9
 72
     3
 73
    13
  0
SEQEND
  5
19ED
  8
0
  0
POLYLINE
  5
132A
  8
0
 66
     1
 10
0.0
 20
0.0
 30
0.0
 70
    64
 71
    32
 72
    30
  0
VERTEX
  5
132B
  8
0
 10
337.3225724926497
 20
-306.9543051995877
 30
-5.999999999999999
 70
   192
  0
VERTEX
  5
132C
  8
0
 10
337.3225724926497
 20
-306.9543051995877
 30
-16.0
 70
   192
  0
VERTEX
  5
132D
  8
0
 10
390.3940523212175
 20
-299.4874538103817
 30
-16.0
 70
   192
  0
VERTEX
  5
132E
  8
0
 10
390.3940523212175
 20
-299.4874538103817
 30
-5.999999999999999
 70
   192
  0
VERTEX
  5
132F
  8
0
 10
261.8853143350046
 20
-295.9437286344366
 30
-5.999999999999999
 70
   192
  0
VERTEX
  5
1330
  8
0
 10
261.8853143342635
 20
-295.9437286343152
 30
-16.0
 70
   192
  0
VERTEX
  5
1331
  8
0
 10
186.8620075331154
 20
-282.396915313592
 30
-5.999999999999999
 70
   192
  0
VERTEX
  5
1332
  8
0
 10
186.8620075316421
 20
-282.3969153133
 30
-16.0
 70
   192
  0
VERTEX
  5
1333
  8
0
 10
112.3378967146947
 20
-266.3292576945121
 30
-5.999999999999999
 70
   192
  0
VERTEX
  5
1334
  8
0
 10
112.3378650404728
 20
-266.3293934460698
 30
-16.0
 70
   192
  0
VERTEX
  5
1335
  8
0
 10
344.817248304139
 20
221.4187325620515
 30
-16.0
 70
   192
  0
VERTEX
  5
1336
  8
0
 10
344.8172483041389
 20
221.4187325620517
 30
-5.999999999999999
 70
   192
  0
VERTEX
  5
1337
  8
0
 10
410.7425232360878
 20
84.3705918667809
 30
-5.999999999999999
 70
   192
  0
VERTEX
  5
1338
  8
0
 10
410.7425232360878
 20
84.37059186678067
 30
-16.0
 70
   192
  0
VERTEX
  5
1339
  8
0
 10
299.2190519626482
 20
272.5626135688043
 30
-16.0
 70
   192
  0
VERTEX
  5
133A
  8
0
 10
299.219051962648
 20
272.5626135688045
 30
-5.999999999999999
 70
   192
  0
VERTEX
  5
133B
  8
0
 10
171.0148259363341
 20
314.6736001005858
 30
-16.0
 70
   192
  0
VERTEX
  5
133C
  8
0
 10
171.0148259363342
 20
314.6736001005861
 30
-5.999999999999999
 70
   192
  0
VERTEX
  5
133D
  8
0
 10
238.8418634900841
 20
304.9584032053996
 30
-5.999999999999999
 70
   192
  0
VERTEX
  5
133E
  8
0
 10
238.8418634900842
 20
304.9584032053996
 30
-16.0
 70
   192
  0
VERTEX
  5
133F
  8
0
 10
56.68215804863266
 20
305.1974121477567
 30
-16.0
 70
   192
  0
VERTEX
  5
1340
  8
0
 10
56.68215804863266
 20
305.1974121477567
 30
-5.999999999999999
 70
   192
  0
VERTEX
  5
1341
  8
0
 10
113.7325898043309
 20
311.3338961151107
 30
-5.999999999999999
 70
   192
  0
VERTEX
  5
1342
  8
0
 10
113.7325898043309
 20
311.3338961151107
 30
-16.0
 70
   192
  0
VERTEX
  5
1343
  8
0
 10
-0.0000000000000284
 20
296.2788271735014
 30
-16.0
 70
   192
  0
VERTEX
  5
1344
  8
0
 10
-0.0000000000000156
 20
296.2788271735015
 30
-5.999999999999998
 70
   192
  0
VERTEX
  5
1345
  8
0
 10
450.5069807840784
 20
-215.472950127719
 30
-16.0
 70
   192
  0
VERTEX
  5
1346
  8
0
 10
450.5069807840784
 20
-215.4729501277188
 30
-5.999999999999999
 70
   192
  0
VERTEX
  5
1347
  8
0
 10
432.0757945545699
 20
-265.7981646333304
 30
-5.999999999999999
 70
   192
  0
VERTEX
  5
1348
  8
0
 10
432.0757945545699
 20
-265.7981646333304
 30
-16.0
 70
   192
  0
VERTEX
  5
1349
  8
0
 10
446.5011877219595
 20
-63.4456882145102
 30
-5.999999999999999
 70
   192
  0
VERTEX
  5
134A
  8
0
 10
446.5011877219594
 20
-63.44568821451034
 30
-16.0
 70
   192
  0
VERTEX
  5
134B
  8
0
 10
0.0
 20
0.0
 30
0.0
 70
   128
 71
     1
 72
     2
 73
    -3
  0
VERTEX
  5
134C
  8
0
 10
0.0
 20
0.0
 30
0.0
 70
   128
 71
     4
 72
    -1
 73
     3
  0
VERTEX
  5
134D
  8
0
 10
0.0
 20
0.0
 30
0.0
 70
   128
 71
     5
 72
     6
 73
    -2
  0
VERTEX
  5
134E
  8
0
 10
0.0
 20
0.0
 30
0.0
 70
   128
 71
     1
 72
    -5
 73
     2
  0
VERTEX
  5
134F
  8
0
 10
0.0
 20
0.0
 30
0.0
 70
   128
 71
     7
 72
     8
 73
    -6
  0
VERTEX
  5
1350
  8
0
 10
0.0
 20
0.0
 30
0.0
 70
   128
 71
     5
 72
    -7
 73
     6
  0
VERTEX
  5
1351
  8
0
 10
0.0
 20
0.0
 30
0.0
 70
   128
 71
     9
 72
    10
 73
     8
  0
VERTEX
  5
1352
  8
0
 10
0.0
 20
0.0
 30
0.0
 70
   128
 71
     7
 72
     9
 73
     8
  0
VERTEX
  5
1353
  8
0
 10
0.0
 20
0.0
 30
0.0
 70
   128
 71
    11
 72
    12
 73
   -13
  0
VERTEX
  5
1354
  8
0
 10
0.0
 20
0.0
 30
0.0
 70
   128
 71
    14
 72
   -11
 73
    13
  0
VERTEX
  5
1355
  8
0
 10
0.0
 20
0.0
 30
0.0
 70
   128
 71
    12
 72
    11
 73
   -15
  0
VERTEX
  5
1356
  8
0
 10
0.0
 20
0.0
 30
0.0
 70
   128
 71
    16
 72
   -12
 73
    15
  0
VERTEX
  5
1357
  8
0
 10
0.0
 20
0.0
 30
0.0
 70
   128
 71
    17
 72
    18
 73
   -19
  0
VERTEX
  5
1358
  8
0
 10
0.0
 20
0.0
 30
0.0
 70
   128
 71
    20
 72
   -17
 73
    19
  0
VERTEX
  5
1359
  8
0
 10
0.0
 20
0.0
 30
0.0
 70
   128
 71
    21
 72
    22
 73
   -23
  0
VERTEX
  5
135A
  8
0
 10
0.0
 20
0.0
 30
0.0
 70
   128
 71
    24
 72
   -21
 73
    23
  0
VERTEX
  5
135B
  8
0
 10
0.0
 20
0.0
 30
0.0
 70
   128
 71
    25
 72
    26
 73
   -22
  0
VERTEX
  5
135C
  8
0
 10
0.0
 20
0.0
 30
0.0
 70
   128
 71
    21
 72
   -25
 73
    22
  0
VERTEX
  5
135D
  8
0
 10
0.0
 20
0.0
 30
0.0
 70
   128
 71
    27
 72
    28
 73
   -29
  0
VERTEX
  5
135E
  8
0
 10
0.0
 20
0.0
 30
0.0
 70
   128
 71
    30
 72
   -27
 73
    29
  0
VERTEX
  5
135F
  8
0
 10
0.0
 20
0.0
 30
0.0
 70
   128
 71
    13
 72
    31
 73
   -32
  0
VERTEX
  5
1360
  8
0
 10
0.0
 20
0.0
 30
0.0
 70
   128
 71
    14
 72
   -13
 73
    32
  0
VERTEX
  5
1361
  8
0
 10
0.0
 20
0.0
 30
0.0
 70
   128
 71
    29
 72
     4
 73
    -3
  0
VERTEX
  5
1362
  8
0
 10
0.0
 20
0.0
 30
0.0
 70
   128
 71
    30
 72
   -29
 73
     3
  0
VERTEX
  5
1363
  8
0
 10
0.0
 20
0.0
 30
0.0
 70
   128
 71
    19
 72
    16
 73
   -15
  0
VERTEX
  5
1364
  8
0
 10
0.0
 20
0.0
 30
0.0
 70
   128
 71
    20
 72
   -19
 73
    15
  0
VERTEX
  5
1365
  8
0
 10
0.0
 20
0.0
 30
0.0
 70
   128
 71
    23
 72
    18
 73
   -17
  0
VERTEX
  5
1366
  8
0
 10
0.0
 20
0.0
 30
0.0
 70
   128
 71
    24
 72
   -23
 73
    17
  0
VERTEX
  5
1367
  8
0
 10
0.0
 20
0.0
 30
0.0
 70
   128
 71
    31
 72
    28
 73
   -27
  0
VERTEX
  5
1368
  8
0
 10
0.0
 20
0.0
 30
0.0
 70
   128
 71
    32
 72
   -31
 73
    27
  0
SEQEND
  5
19EE
  8
0
  0
POLYLINE
  5
1369
  8
0
 66
     1
 10
0.0
 20
0.0
 30
0.0
 70
    64
 71
    14
 72
    12
  0
VERTEX
  5
136A
  8
0
 10
91.24610004040869
 20
10.38056919836878
 30
-6.75
 70
   192
  0
VERTEX
  5
136B
  8
0
 10
92.85355579681926
 20
13.8277691924042
 30
-6.75
 70
   192
  0
VERTEX
  5
136C
  8
0
 10
88.85355579681926
 20
13.8277691924042
 30
-6.75
 70
   192
  0
VERTEX
  5
136D
  8
0
 10
88.67494960166253
 20
13.44474697084471
 30
-6.75
 70
   192
  0
VERTEX
  5
136E
  8
0
 10
90.85355579681926
 20
13.8277691924042
 30
-4.749999999999998
 70
   192
  0
VERTEX
  5
136F
  8
0
 10
89.96052482103562
 20
11.91265808460674
 30
-4.749999999999998
 70
   192
  0
VERTEX
  5
1370
  8
0
 10
92.26776935919236
 20
13.8277691924042
 30
-5.335786437626904
 70
   192
  0
VERTEX
  5
1371
  8
0
 10
90.8695637763797
 20
10.82930764376733
 30
-5.335786437626904
 70
   192
  0
VERTEX
  5
1372
  8
0
 10
89.43934223444617
 20
13.8277691924042
 30
-5.335786437626904
 70
   192
  0
VERTEX
  5
1373
  8
0
 10
89.05148586569153
 20
12.99600852544615
 30
-5.335786437626904
 70
   192
  0
VERTEX
  5
1374
  8
0
 10
92.66450860223897
 20
12.53715464520429
 30
-6.75
 70
   192
  0
VERTEX
  5
1375
  8
0
 10
92.11325094817748
 20
11.35497879108556
 30
-6.75
 70
   192
  0
VERTEX
  5
1376
  8
0
 10
88.83255055297701
 20
13.68436757604866
 30
-6.75
 70
   192
  0
VERTEX
  5
1377
  8
0
 10
88.77129970252574
 20
13.5530147033688
 30
-6.75
 70
   192
  0
VERTEX
  5
1378
  8
0
 10
0.0
 20
0.0
 30
0.0
 70
   128
 71
    11
 72
     2
 73
     7
  0
VERTEX
  5
1379
  8
0
 10
0.0
 20
0.0
 30
0.0
 70
   128
 71
    12
 72
    11
 73
    -7
  0
VERTEX
  5
137A
  8
0
 10
0.0
 20
0.0
 30
0.0
 70
   128
 71
   -12
 72
     7
 73
     8
  0
VERTEX
  5
137B
  8
0
 10
0.0
 20
0.0
 30
0.0
 70
   128
 71
     8
 72
     1
 73
    12
  0
VERTEX
  5
137C
  8
0
 10
0.0
 20
0.0
 30
0.0
 70
   128
 71
     8
 72
     7
 73
    -5
  0
VERTEX
  5
137D
  8
0
 10
0.0
 20
0.0
 30
0.0
 70
   128
 71
    -8
 72
     5
 73
     6
  0
VERTEX
  5
137E
  8
0
 10
0.0
 20
0.0
 30
0.0
 70
   128
 71
     6
 72
     5
 73
    -9
  0
VERTEX
  5
137F
  8
0
 10
0.0
 20
0.0
 30
0.0
 70
   128
 71
    -6
 72
     9
 73
    10
  0
VERTEX
  5
1380
  8
0
 10
0.0
 20
0.0
 30
0.0
 70
   128
 71
    14
 72
     4
 73
    10
  0
VERTEX
  5
1381
  8
0
 10
0.0
 20
0.0
 30
0.0
 70
   128
 71
    10
 72
     9
 73
   -13
  0
VERTEX
  5
1382
  8
0
 10
0.0
 20
0.0
 30
0.0
 70
   128
 71
   -10
 72
    13
 73
    14
  0
VERTEX
  5
1383
  8
0
 10
0.0
 20
0.0
 30
0.0
 70
   128
 71
     9
 72
     3
 73
    13
  0
SEQEND
  5
19EF
  8
0
  0
POLYLINE
  5
1384
  8
0
 66
     1
 10
0.0
 20
0.0
 30
0.0
 70
    64
 71
    14
 72
    12
  0
VERTEX
  5
1385
  8
0
 10
75.83740494850608
 20
22.83662884559539
 30
-6.75
 70
   192
  0
VERTEX
  5
1386
  8
0
 10
73.84644420318072
 20
26.57223080759582
 30
-6.75
 70
   192
  0
VERTEX
  5
1387
  8
0
 10
77.84644420318072
 20
26.57223080759582
 30
-6.75
 70
   192
  0
VERTEX
  5
1388
  8
0
 10
78.06766206377245
 20
26.15716392292909
 30
-6.75
 70
   192
  0
VERTEX
  5
1389
  8
0
 10
75.84644420318072
 20
26.57223080759582
 30
-8.750000000000002
 70
   192
  0
VERTEX
  5
138A
  8
0
 10
76.95253350613926
 20
24.49689638426225
 30
-8.750000000000002
 70
   192
  0
VERTEX
  5
138B
  8
0
 10
74.43223064080763
 20
26.57223080759582
 30
-8.164213562373096
 70
   192
  0
VERTEX
  5
138C
  8
0
 10
76.16401854114206
 20
23.32290994908701
 30
-8.164213562373096
 70
   192
  0
VERTEX
  5
138D
  8
0
 10
77.26065776555382
 20
26.57223080759582
 30
-8.164213562373096
 70
   192
  0
VERTEX
  5
138E
  8
0
 10
77.74104847113647
 20
25.67088281943749
 30
-8.164213562373096
 70
   192
  0
VERTEX
  5
138F
  8
0
 10
74.08410273214943
 20
25.12916283125971
 30
-6.75
 70
   192
  0
VERTEX
  5
1390
  8
0
 10
74.77197539621484
 20
23.83852037157155
 30
-6.75
 70
   192
  0
VERTEX
  5
1391
  8
0
 10
77.87285070639948
 20
26.41188992133625
 30
-6.75
 70
   192
  0
VERTEX
  5
1392
  8
0
 10
77.94928100240675
 20
26.26848520359311
 30
-6.75
 70
   192
  0
VERTEX
  5
1393
  8
0
 10
0.0
 20
0.0
 30
0.0
 70
   128
 71
    11
 72
     2
 73
     7
  0
VERTEX
  5
1394
  8
0
 10
0.0
 20
0.0
 30
0.0
 70
   128
 71
    12
 72
    11
 73
    -7
  0
VERTEX
  5
1395
  8
0
 10
0.0
 20
0.0
 30
0.0
 70
   128
 71
   -12
 72
     7
 73
     8
  0
VERTEX
  5
1396
  8
0
 10
0.0
 20
0.0
 30
0.0
 70
   128
 71
     8
 72
     1
 73
    12
  0
VERTEX
  5
1397
  8
0
 10
0.0
 20
0.0
 30
0.0
 70
   128
 71
     8
 72
     7
 73
    -5
  0
VERTEX
  5
1398
  8
0
 10
0.0
 20
0.0
 30
0.0
 70
   128
 71
    -8
 72
     5
 73
     6
  0
VERTEX
  5
1399
  8
0
 10
0.0
 20
0.0
 30
0.0
 70
   128
 71
     6
 72
     5
 73
    -9
  0
VERTEX
  5
139A
  8
0
 10
0.0
 20
0.0
 30
0.0
 70
   128
 71
    -6
 72
     9
 73
    10
  0
VERTEX
  5
139B
  8
0
 10
0.0
 20
0.0
 30
0.0
 70
   128
 71
    14
 72
     4
 73
    10
  0
VERTEX
  5
139C
  8
0
 10
0.0
 20
0.0
 30
0.0
 70
   128
 71
    10
 72
     9
 73
   -13
  0
VERTEX
  5
139D
  8
0
 10
0.0
 20
0.0
 30
0.0
 70
   128
 71
   -10
 72
    13
 73
    14
  0
VERTEX
  5
139E
  8
0
 10
0.0
 20
0.0
 30
0.0
 70
   128
 71
     9
 72
     3
 73
    13
  0
SEQEND
  5
19F0
  8
0
  0
POLYLINE
  5
139F
  8
0
 66
     1
 10
0.0
 20
0.0
 30
0.0
 70
    64
 71
    10
 72
     8
  0
VERTEX
  5
13A0
  8
0
 10
81.35000000000001
 20
35.20000000000012
 30
-6.75
 70
   192
  0
VERTEX
  5
13A1
  8
0
 10
85.34999999999994
 20
35.20000000000012
 30
-6.75
 70
   192
  0
VERTEX
  5
13A2
  8
0
 10
85.35
 20
45.20000000000002
 30
-6.75
 70
   192
  0
VERTEX
  5
13A3
  8
0
 10
81.35
 20
45.20000000000002
 30
-6.75
 70
   192
  0
VERTEX
  5
13A4
  8
0
 10
83.35
 20
45.20000000000002
 30
-4.749999999999998
 70
   192
  0
VERTEX
  5
13A5
  8
0
 10
83.34999999999994
 20
35.20000000000012
 30
-4.749999999999998
 70
   192
  0
VERTEX
  5
13A6
  8
0
 10
81.9357864376269
 20
45.20000000000002
 30
-5.335786437626904
 70
   192
  0
VERTEX
  5
13A7
  8
0
 10
81.93578643762685
 20
35.20000000000012
 30
-5.335786437626904
 70
   192
  0
VERTEX
  5
13A8
  8
0
 10
84.76421356237309
 20
45.20000000000002
 30
-5.335786437626904
 70
   192
  0
VERTEX
  5
13A9
  8
0
 10
84.76421356237303
 20
35.20000000000012
 30
-5.335786437626904
 70
   192
  0
VERTEX
  5
13AA
  8
0
 10
0.0
 20
0.0
 30
0.0
 70
   128
 71
     7
 72
     4
 73
    -1
  0
VERTEX
  5
13AB
  8
0
 10
0.0
 20
0.0
 30
0.0
 70
   128
 71
    -7
 72
     1
 73
     8
  0
VERTEX
  5
13AC
  8
0
 10
0.0
 20
0.0
 30
0.0
 70
   128
 71
     6
 72
     5
 73
    -7
  0
VERTEX
  5
13AD
  8
0
 10
0.0
 20
0.0
 30
0.0
 70
   128
 71
    -6
 72
     7
 73
     8
  0
VERTEX
  5
13AE
  8
0
 10
0.0
 20
0.0
 30
0.0
 70
   128
 71
    10
 72
     9
 73
    -5
  0
VERTEX
  5
13AF
  8
0
 10
0.0
 20
0.0
 30
0.0
 70
   128
 71
   -10
 72
     5
 73
     6
  0
VERTEX
  5
13B0
  8
0
 10
0.0
 20
0.0
 30
0.0
 70
   128
 71
     2
 72
     3
 73
    -9
  0
VERTEX
  5
13B1
  8
0
 10
0.0
 20
0.0
 30
0.0
 70
   128
 71
    -2
 72
     9
 73
    10
  0
SEQEND
  5
19F1
  8
0
  0
POLYLINE
  5
13B2
  8
0
 66
     1
 10
0.0
 20
0.0
 30
0.0
 70
    64
 71
    10
 72
     8
  0
VERTEX
  5
13B3
  8
0
 10
75.4538999595913
 20
30.01943080163123
 30
-6.75
 70
   192
  0
VERTEX
  5
13B4
  8
0
 10
78.02505039833747
 20
26.9552530291553
 30
-6.75
 70
   192
  0
VERTEX
  5
13B5
  8
0
 10
83.74254424358942
 20
31.75280000596461
 30
-6.75
 70
   192
  0
VERTEX
  5
13B6
  8
0
 10
81.17139380484326
 20
34.81697777844052
 30
-6.75
 70
   192
  0
VERTEX
  5
13B7
  8
0
 10
82.45696902421633
 20
33.28488889220256
 30
-4.749999999999998
 70
   192
  0
VERTEX
  5
13B8
  8
0
 10
76.73947517896438
 20
28.48734191539326
 30
-4.749999999999998
 70
   192
  0
VERTEX
  5
13B9
  8
0
 10
81.54793006887225
 20
34.36823933304196
 30
-5.335786437626904
 70
   192
  0
VERTEX
  5
13BA
  8
0
 10
75.8304362236203
 20
29.57069235623266
 30
-5.335786437626904
 70
   192
  0
VERTEX
  5
13BB
  8
0
 10
83.36600797956042
 20
32.20153845136316
 30
-5.335786437626904
 70
   192
  0
VERTEX
  5
13BC
  8
0
 10
77.64851413430847
 20
27.40399147455385
 30
-5.335786437626904
 70
   192
  0
VERTEX
  5
13BD
  8
0
 10
0.0
 20
0.0
 30
0.0
 70
   128
 71
     7
 72
     4
 73
    -1
  0
VERTEX
  5
13BE
  8
0
 10
0.0
 20
0.0
 30
0.0
 70
   128
 71
    -7
 72
     1
 73
     8
  0
VERTEX
  5
13BF
  8
0
 10
0.0
 20
0.0
 30
0.0
 70
   128
 71
     6
 72
     5
 73
    -7
  0
VERTEX
  5
13C0
  8
0
 10
0.0
 20
0.0
 30
0.0
 70
   128
 71
    -6
 72
     7
 73
     8
  0
VERTEX
  5
13C1
  8
0
 10
0.0
 20
0.0
 30
0.0
 70
   128
 71
    10
 72
     9
 73
    -5
  0
VERTEX
  5
13C2
  8
0
 10
0.0
 20
0.0
 30
0.0
 70
   128
 71
   -10
 72
     5
 73
     6
  0
VERTEX
  5
13C3
  8
0
 10
0.0
 20
0.0
 30
0.0
 70
   128
 71
     2
 72
     3
 73
    -9
  0
VERTEX
  5
13C4
  8
0
 10
0.0
 20
0.0
 30
0.0
 70
   128
 71
    -2
 72
     9
 73
    10
  0
SEQEND
  5
19F2
  8
0
  0
POLYLINE
  5
13C5
  8
0
 66
     1
 10
0.0
 20
0.0
 30
0.0
 70
    64
 71
    14
 72
    12
  0
VERTEX
  5
13C6
  8
0
 10
78.06766206377245
 20
26.15716392292911
 30
-6.75
 70
   192
  0
VERTEX
  5
13C7
  8
0
 10
77.84644420318072
 20
26.57223080759582
 30
-6.75
 70
   192
  0
VERTEX
  5
13C8
  8
0
 10
73.84644420318072
 20
26.57223080759582
 30
-6.75
 70
   192
  0
VERTEX
  5
13C9
  8
0
 10
75.83740494850605
 20
22.83662884559536
 30
-6.75
 70
   192
  0
VERTEX
  5
13CA
  8
0
 10
75.84644420318072
 20
26.57223080759582
 30
-4.749999999999998
 70
   192
  0
VERTEX
  5
13CB
  8
0
 10
76.95253350613926
 20
24.49689638426225
 30
-4.749999999999998
 70
   192
  0
VERTEX
  5
13CC
  8
0
 10
77.26065776555382
 20
26.57223080759582
 30
-5.335786437626904
 70
   192
  0
VERTEX
  5
13CD
  8
0
 10
77.74104847113647
 20
25.67088281943749
 30
-5.335786437626904
 70
   192
  0
VERTEX
  5
13CE
  8
0
 10
74.43223064080763
 20
26.57223080759582
 30
-5.335786437626904
 70
   192
  0
VERTEX
  5
13CF
  8
0
 10
76.16401854114206
 20
23.32290994908701
 30
-5.335786437626904
 70
   192
  0
VERTEX
  5
13D0
  8
0
 10
77.87285070639948
 20
26.41188992133625
 30
-6.75
 70
   192
  0
VERTEX
  5
13D1
  8
0
 10
77.94928100240675
 20
26.26848520359311
 30
-6.75
 70
   192
  0
VERTEX
  5
13D2
  8
0
 10
74.77197539621484
 20
23.83852037157155
 30
-6.75
 70
   192
  0
VERTEX
  5
13D3
  8
0
 10
74.08410273214943
 20
25.12916283125971
 30
-6.75
 70
   192
  0
VERTEX
  5
13D4
  8
0
 10
0.0
 20
0.0
 30
0.0
 70
   128
 71
    11
 72
     2
 73
     7
  0
VERTEX
  5
13D5
  8
0
 10
0.0
 20
0.0
 30
0.0
 70
   128
 71
    12
 72
    11
 73
    -7
  0
VERTEX
  5
13D6
  8
0
 10
0.0
 20
0.0
 30
0.0
 70
   128
 71
   -12
 72
     7
 73
     8
  0
VERTEX
  5
13D7
  8
0
 10
0.0
 20
0.0
 30
0.0
 70
   128
 71
     8
 72
     1
 73
    12
  0
VERTEX
  5
13D8
  8
0
 10
0.0
 20
0.0
 30
0.0
 70
   128
 71
     8
 72
     7
 73
    -5
  0
VERTEX
  5
13D9
  8
0
 10
0.0
 20
0.0
 30
0.0
 70
   128
 71
    -8
 72
     5
 73
     6
  0
VERTEX
  5
13DA
  8
0
 10
0.0
 20
0.0
 30
0.0
 70
   128
 71
     6
 72
     5
 73
    -9
  0
VERTEX
  5
13DB
  8
0
 10
0.0
 20
0.0
 30
0.0
 70
   128
 71
    -6
 72
     9
 73
    10
  0
VERTEX
  5
13DC
  8
0
 10
0.0
 20
0.0
 30
0.0
 70
   128
 71
    13
 72
     4
 73
    10
  0
VERTEX
  5
13DD
  8
0
 10
0.0
 20
0.0
 30
0.0
 70
   128
 71
    10
 72
     9
 73
   -14
  0
VERTEX
  5
13DE
  8
0
 10
0.0
 20
0.0
 30
0.0
 70
   128
 71
   -10
 72
    14
 73
    13
  0
VERTEX
  5
13DF
  8
0
 10
0.0
 20
0.0
 30
0.0
 70
   128
 71
     9
 72
     3
 73
    14
  0
SEQEND
  5
19F3
  8
0
  0
POLYLINE
  5
13E0
  8
0
 66
     1
 10
0.0
 20
0.0
 30
0.0
 70
    64
 71
    10
 72
     8
  0
VERTEX
  5
13E1
  8
0
 10
88.63233793622757
 20
14.24283607707093
 30
-6.75
 70
   192
  0
VERTEX
  5
13E2
  8
0
 10
90.86259505149397
 20
17.56337115440466
 30
-6.75
 70
   192
  0
VERTEX
  5
13E3
  8
0
 10
78.06766206377245
 20
26.1571639229291
 30
-6.75
 70
   192
  0
VERTEX
  5
13E4
  8
0
 10
75.83740494850608
 20
22.83662884559538
 30
-6.75
 70
   192
  0
VERTEX
  5
13E5
  8
0
 10
76.95253350613926
 20
24.49689638426225
 30
-4.749999999999998
 70
   192
  0
VERTEX
  5
13E6
  8
0
 10
89.74746649386077
 20
15.9031036157378
 30
-4.749999999999998
 70
   192
  0
VERTEX
  5
13E7
  8
0
 10
76.16401854114206
 20
23.32290994908701
 30
-5.335786437626904
 70
   192
  0
VERTEX
  5
13E8
  8
0
 10
88.95895152886357
 20
14.72911718056256
 30
-5.335786437626904
 70
   192
  0
VERTEX
  5
13E9
  8
0
 10
77.74104847113647
 20
25.67088281943749
 30
-5.335786437626904
 70
   192
  0
VERTEX
  5
13EA
  8
0
 10
90.53598145885798
 20
17.07709005091303
 30
-5.335786437626904
 70
   192
  0
VERTEX
  5
13EB
  8
0
 10
0.0
 20
0.0
 30
0.0
 70
   128
 71
     7
 72
     4
 73
    -1
  0
VERTEX
  5
13EC
  8
0
 10
0.0
 20
0.0
 30
0.0
 70
   128
 71
    -7
 72
     1
 73
     8
  0
VERTEX
  5
13ED
  8
0
 10
0.0
 20
0.0
 30
0.0
 70
   128
 71
     6
 72
     5
 73
    -7
  0
VERTEX
  5
13EE
  8
0
 10
0.0
 20
0.0
 30
0.0
 70
   128
 71
    -6
 72
     7
 73
     8
  0
VERTEX
  5
13EF
  8
0
 10
0.0
 20
0.0
 30
0.0
 70
   128
 71
    10
 72
     9
 73
    -5
  0
VERTEX
  5
13F0
  8
0
 10
0.0
 20
0.0
 30
0.0
 70
   128
 71
   -10
 72
     5
 73
     6
  0
VERTEX
  5
13F1
  8
0
 10
0.0
 20
0.0
 30
0.0
 70
   128
 71
     2
 72
     3
 73
    -9
  0
VERTEX
  5
13F2
  8
0
 10
0.0
 20
0.0
 30
0.0
 70
   128
 71
    -2
 72
     9
 73
    10
  0
SEQEND
  5
19F4
  8
0
  0
POLYLINE
  5
13F3
  8
0
 66
     1
 10
0.0
 20
0.0
 30
0.0
 70
    64
 71
    14
 72
    12
  0
VERTEX
  5
13F4
  8
0
 10
88.67494960166255
 20
13.4447469708447
 30
-6.75
 70
   192
  0
VERTEX
  5
13F5
  8
0
 10
88.85355579681926
 20
13.8277691924042
 30
-6.75
 70
   192
  0
VERTEX
  5
13F6
  8
0
 10
92.85355579681926
 20
13.8277691924042
 30
-6.75
 70
   192
  0
VERTEX
  5
13F7
  8
0
 10
91.24610004040868
 20
10.38056919836879
 30
-6.75
 70
   192
  0
VERTEX
  5
13F8
  8
0
 10
90.85355579681926
 20
13.8277691924042
 30
-8.750000000000002
 70
   192
  0
VERTEX
  5
13F9
  8
0
 10
89.96052482103562
 20
11.91265808460674
 30
-8.750000000000002
 70
   192
  0
VERTEX
  5
13FA
  8
0
 10
89.43934223444617
 20
13.8277691924042
 30
-8.164213562373096
 70
   192
  0
VERTEX
  5
13FB
  8
0
 10
89.05148586569153
 20
12.99600852544615
 30
-8.164213562373096
 70
   192
  0
VERTEX
  5
13FC
  8
0
 10
92.26776935919236
 20
13.8277691924042
 30
-8.164213562373096
 70
   192
  0
VERTEX
  5
13FD
  8
0
 10
90.8695637763797
 20
10.82930764376733
 30
-8.164213562373096
 70
   192
  0
VERTEX
  5
13FE
  8
0
 10
88.83255055297701
 20
13.68436757604866
 30
-6.75
 70
   192
  0
VERTEX
  5
13FF
  8
0
 10
88.77129970252574
 20
13.5530147033688
 30
-6.75
 70
   192
  0
VERTEX
  5
1400
  8
0
 10
92.11325094817748
 20
11.35497879108556
 30
-6.75
 70
   192
  0
VERTEX
  5
1401
  8
0
 10
92.66450860223897
 20
12.53715464520429
 30
-6.75
 70
   192
  0
VERTEX
  5
1402
  8
0
 10
0.0
 20
0.0
 30
0.0
 70
   128
 71
    11
 72
     2
 73
     7
  0
VERTEX
  5
1403
  8
0
 10
0.0
 20
0.0
 30
0.0
 70
   128
 71
    12
 72
    11
 73
    -7
  0
VERTEX
  5
1404
  8
0
 10
0.0
 20
0.0
 30
0.0
 70
   128
 71
   -12
 72
     7
 73
     8
  0
VERTEX
  5
1405
  8
0
 10
0.0
 20
0.0
 30
0.0
 70
   128
 71
     8
 72
     1
 73
    12
  0
VERTEX
  5
1406
  8
0
 10
0.0
 20
0.0
 30
0.0
 70
   128
 71
     8
 72
     7
 73
    -5
  0
VERTEX
  5
1407
  8
0
 10
0.0
 20
0.0
 30
0.0
 70
   128
 71
    -8
 72
     5
 73
     6
  0
VERTEX
  5
1408
  8
0
 10
0.0
 20
0.0
 30
0.0
 70
   128
 71
     6
 72
     5
 73
    -9
  0
VERTEX
  5
1409
  8
0
 10
0.0
 20
0.0
 30
0.0
 70
   128
 71
    -6
 72
     9
 73
    10
  0
VERTEX
  5
140A
  8
0
 10
0.0
 20
0.0
 30
0.0
 70
   128
 71
    13
 72
     4
 73
    10
  0
VERTEX
  5
140B
  8
0
 10
0.0
 20
0.0
 30
0.0
 70
   128
 71
    10
 72
     9
 73
   -14
  0
VERTEX
  5
140C
  8
0
 10
0.0
 20
0.0
 30
0.0
 70
   128
 71
   -10
 72
    14
 73
    13
  0
VERTEX
  5
140D
  8
0
 10
0.0
 20
0.0
 30
0.0
 70
   128
 71
     9
 72
     3
 73
    14
  0
SEQEND
  5
19F5
  8
0
  0
POLYLINE
  5
140E
  8
0
 66
     1
 10
0.0
 20
0.0
 30
0.0
 70
    64
 71
    10
 72
     8
  0
VERTEX
  5
140F
  8
0
 10
82.95745575641055
 20
8.64719999403542
 30
-6.75
 70
   192
  0
VERTEX
  5
1410
  8
0
 10
85.52860619515671
 20
5.583022221559501
 30
-6.75
 70
   192
  0
VERTEX
  5
1411
  8
0
 10
91.24610004040869
 20
10.38056919836878
 30
-6.75
 70
   192
  0
VERTEX
  5
1412
  8
0
 10
88.67494960166255
 20
13.4447469708447
 30
-6.75
 70
   192
  0
VERTEX
  5
1413
  8
0
 10
89.96052482103562
 20
11.91265808460674
 30
-4.749999999999998
 70
   192
  0
VERTEX
  5
1414
  8
0
 10
84.24303097578364
 20
7.115111107797459
 30
-4.749999999999998
 70
   192
  0
VERTEX
  5
1415
  8
0
 10
89.05148586569153
 20
12.99600852544615
 30
-5.335786437626904
 70
   192
  0
VERTEX
  5
1416
  8
0
 10
83.33399202043955
 20
8.198461548636864
 30
-5.335786437626904
 70
   192
  0
VERTEX
  5
1417
  8
0
 10
90.8695637763797
 20
10.82930764376733
 30
-5.335786437626904
 70
   192
  0
VERTEX
  5
1418
  8
0
 10
85.15206993112773
 20
6.031760666958053
 30
-5.335786437626904
 70
   192
  0
VERTEX
  5
1419
  8
0
 10
0.0
 20
0.0
 30
0.0
 70
   128
 71
     7
 72
     4
 73
    -1
  0
VERTEX
  5
141A
  8
0
 10
0.0
 20
0.0
 30
0.0
 70
   128
 71
    -7
 72
     1
 73
     8
  0
VERTEX
  5
141B
  8
0
 10
0.0
 20
0.0
 30
0.0
 70
   128
 71
     6
 72
     5
 73
    -7
  0
VERTEX
  5
141C
  8
0
 10
0.0
 20
0.0
 30
0.0
 70
   128
 71
    -6
 72
     7
 73
     8
  0
VERTEX
  5
141D
  8
0
 10
0.0
 20
0.0
 30
0.0
 70
   128
 71
    10
 72
     9
 73
    -5
  0
VERTEX
  5
141E
  8
0
 10
0.0
 20
0.0
 30
0.0
 70
   128
 71
   -10
 72
     5
 73
     6
  0
VERTEX
  5
141F
  8
0
 10
0.0
 20
0.0
 30
0.0
 70
   128
 71
     2
 72
     3
 73
    -9
  0
VERTEX
  5
1420
  8
0
 10
0.0
 20
0.0
 30
0.0
 70
   128
 71
    -2
 72
     9
 73
    10
  0
SEQEND
  5
19F6
  8
0
  0
POLYLINE
  5
1421
  8
0
 66
     1
 10
0.0
 20
0.0
 30
0.0
 70
    64
 71
    10
 72
     8
  0
VERTEX
  5
1422
  8
0
 10
81.35000000000001
 20
-4.799999999999985
 30
-6.75
 70
   192
  0
VERTEX
  5
1423
  8
0
 10
85.35000000000001
 20
-4.799999999999985
 30
-6.75
 70
   192
  0
VERTEX
  5
1424
  8
0
 10
85.35
 20
5.200000000000011
 30
-6.75
 70
   192
  0
VERTEX
  5
1425
  8
0
 10
81.35
 20
5.20000000000001
 30
-6.75
 70
   192
  0
VERTEX
  5
1426
  8
0
 10
83.35
 20
5.20000000000001
 30
-4.749999999999998
 70
   192
  0
VERTEX
  5
1427
  8
0
 10
83.35000000000001
 20
-4.799999999999985
 30
-4.749999999999998
 70
   192
  0
VERTEX
  5
1428
  8
0
 10
81.9357864376269
 20
5.20000000000001
 30
-5.335786437626904
 70
   192
  0
VERTEX
  5
1429
  8
0
 10
81.93578643762692
 20
-4.799999999999985
 30
-5.335786437626904
 70
   192
  0
VERTEX
  5
142A
  8
0
 10
84.76421356237309
 20
5.20000000000001
 30
-5.335786437626904
 70
   192
  0
VERTEX
  5
142B
  8
0
 10
84.7642135623731
 20
-4.799999999999985
 30
-5.335786437626904
 70
   192
  0
VERTEX
  5
142C
  8
0
 10
0.0
 20
0.0
 30
0.0
 70
   128
 71
     7
 72
     4
 73
    -1
  0
VERTEX
  5
142D
  8
0
 10
0.0
 20
0.0
 30
0.0
 70
   128
 71
    -7
 72
     1
 73
     8
  0
VERTEX
  5
142E
  8
0
 10
0.0
 20
0.0
 30
0.0
 70
   128
 71
     6
 72
     5
 73
    -7
  0
VERTEX
  5
142F
  8
0
 10
0.0
 20
0.0
 30
0.0
 70
   128
 71
    -6
 72
     7
 73
     8
  0
VERTEX
  5
1430
  8
0
 10
0.0
 20
0.0
 30
0.0
 70
   128
 71
    10
 72
     9
 73
    -5
  0
VERTEX
  5
1431
  8
0
 10
0.0
 20
0.0
 30
0.0
 70
   128
 71
   -10
 72
     5
 73
     6
  0
VERTEX
  5
1432
  8
0
 10
0.0
 20
0.0
 30
0.0
 70
   128
 71
     2
 72
     3
 73
    -9
  0
VERTEX
  5
1433
  8
0
 10
0.0
 20
0.0
 30
0.0
 70
   128
 71
    -2
 72
     9
 73
    10
  0
SEQEND
  5
19F7
  8
0
  0
POLYLINE
  5
1434
  8
0
 66
     1
 10
0.0
 20
0.0
 30
0.0
 70
    64
 71
    12
 72
    10
  0
VERTEX
  5
1435
  8
0
 10
70.94807621135325
 20
-228.5277056785293
 30
-5.249999999999838
 70
   192
  0
VERTEX
  5
1436
  8
0
 10
71.35000000000002
 20
-228.5277056785293
 30
-6.75
 70
   192
  0
VERTEX
  5
1437
  8
0
 10
71.35000000000001
 20
-149.300000000001
 30
-6.75
 70
   192
  0
VERTEX
  5
1438
  8
0
 10
70.47132034355965
 20
-149.300000000001
 30
-4.628679656440355
 70
   192
  0
VERTEX
  5
1439
  8
0
 10
68.35000000000001
 20
-149.300000000001
 30
-3.749999999999996
 70
   192
  0
VERTEX
  5
143A
  8
0
 10
68.34999999999947
 20
-228.5277056785293
 30
-3.749999999999997
 70
   192
  0
VERTEX
  5
143B
  8
0
 10
69.84999999999971
 20
-228.5277056785293
 30
-4.151923788646497
 70
   192
  0
VERTEX
  5
143C
  8
0
 10
66.86642813257366
 20
-228.1448431914295
 30
-4.142563427901284
 70
   192
  0
VERTEX
  5
143D
  8
0
 10
66.22867965644036
 20
-149.300000000001
 30
-4.628679656440355
 70
   192
  0
VERTEX
  5
143E
  8
0
 10
65.35000000000001
 20
-149.300000000001
 30
-6.75
 70
   192
  0
VERTEX
  5
143F
  8
0
 10
65.35000000000002
 20
-227.7523805429308
 30
-6.75
 70
   192
  0
VERTEX
  5
1440
  8
0
 10
65.76256272760884
 20
-227.8592670712239
 30
-5.231840124536468
 70
   192
  0
VERTEX
  5
1441
  8
0
 10
0.0
 20
0.0
 30
0.0
 70
   128
 71
     1
 72
     2
 73
     3
  0
VERTEX
  5
1442
  8
0
 10
0.0
 20
0.0
 30
0.0
 70
   128
 71
     1
 72
     3
 73
     4
  0
VERTEX
  5
1443
  8
0
 10
0.0
 20
0.0
 30
0.0
 70
   128
 71
     4
 72
     5
 73
     6
  0
VERTEX
  5
1444
  8
0
 10
0.0
 20
0.0
 30
0.0
 70
   128
 71
     4
 72
     6
 73
     7
  0
VERTEX
  5
1445
  8
0
 10
0.0
 20
0.0
 30
0.0
 70
   128
 71
     8
 72
     6
 73
     5
  0
VERTEX
  5
1446
  8
0
 10
0.0
 20
0.0
 30
0.0
 70
   128
 71
     9
 72
    10
 73
    11
  0
VERTEX
  5
1447
  8
0
 10
0.0
 20
0.0
 30
0.0
 70
   128
 71
     9
 72
    11
 73
    12
  0
VERTEX
  5
1448
  8
0
 10
0.0
 20
0.0
 30
0.0
 70
   128
 71
     1
 72
     4
 73
     7
  0
VERTEX
  5
1449
  8
0
 10
0.0
 20
0.0
 30
0.0
 70
   128
 71
     8
 72
     5
 73
     9
  0
VERTEX
  5
144A
  8
0
 10
0.0
 20
0.0
 30
0.0
 70
   128
 71
     8
 72
     9
 73
    12
  0
SEQEND
  5
19F8
  8
0
  0
POLYLINE
  5
144B
  8
0
 66
     1
 10
0.0
 20
0.0
 30
0.0
 70
    64
 71
     9
 72
     7
  0
VERTEX
  5
144C
  8
0
 10
449.3014733988044
 20
-215.1528224119107
 30
0.0
 70
   192
  0
VERTEX
  5
144D
  8
0
 10
449.3014733988043
 20
-215.1528224119106
 30
-6.0
 70
   192
  0
VERTEX
  5
144E
  8
0
 10
449.3014925891259
 20
-215.1525795426436
 30
-5.999999999999998
 70
   192
  0
VERTEX
  5
144F
  8
0
 10
450.5454945681954
 20
-196.2479349849783
 30
0.0
 70
   192
  0
VERTEX
  5
1450
  8
0
 10
450.5455031021401
 20
-196.2477727918344
 30
-5.999999999999998
 70
   192
  0
VERTEX
  5
1451
  8
0
 10
451.292253317201
 20
-177.3168022789886
 30
-5.999999999999998
 70
   192
  0
VERTEX
  5
1452
  8
0
 10
451.2922511829776
 20
-177.3168834596889
 30
0.0
 70
   192
  0
VERTEX
  5
1453
  8
0
 10
451.5412273853108
 20
-158.3727453651346
 30
-5.999999999999998
 70
   192
  0
VERTEX
  5
1454
  8
0
 10
451.5412273853108
 20
-158.3727453651344
 30
0.0
 70
   192
  0
VERTEX
  5
1455
  8
0
 10
0.0
 20
0.0
 30
0.0
 70
   128
 71
     1
 72
     2
 73
     3
  0
VERTEX
  5
1456
  8
0
 10
0.0
 20
0.0
 30
0.0
 70
   128
 71
     4
 72
     5
 73
     6
  0
VERTEX
  5
1457
  8
0
 10
0.0
 20
0.0
 30
0.0
 70
   128
 71
     4
 72
     6
 73
     7
  0
VERTEX
  5
1458
  8
0
 10
0.0
 20
0.0
 30
0.0
 70
   128
 71
     1
 72
     3
 73
     5
  0
VERTEX
  5
1459
  8
0
 10
0.0
 20
0.0
 30
0.0
 70
   128
 71
     1
 72
     5
 73
     4
  0
VERTEX
  5
145A
  8
0
 10
0.0
 20
0.0
 30
0.0
 70
   128
 71
     7
 72
     6
 73
     8
  0
VERTEX
  5
145B
  8
0
 10
0.0
 20
0.0
 30
0.0
 70
   128
 71
     7
 72
     8
 73
     9
  0
SEQEND
  5
19F9
  8
0
  0
POLYLINE
  5
145C
  8
0
 66
     1
 10
0.0
 20
0.0
 30
0.0
 70
    64
 71
     8
 72
     6
  0
VERTEX
  5
145D
  8
0
 10
379.589886165394
 20
92.89703432034023
 30
-22.0
 70
   192
  0
VERTEX
  5
145E
  8
0
 10
414.7026852008011
 20
-30.56338476746944
 30
-22.0
 70
   192
  0
VERTEX
  5
145F
  8
0
 10
414.7026852008011
 20
-30.56338476746944
 30
0.0
 70
   192
  0
VERTEX
  5
1460
  8
0
 10
379.589886165394
 20
92.89703432034023
 30
0.0
 70
   192
  0
VERTEX
  5
1461
  8
0
 10
426.5412273853109
 20
-158.3727453651342
 30
-22.0
 70
   192
  0
VERTEX
  5
1462
  8
0
 10
426.5412273853109
 20
-158.3727453651344
 30
0.0
 70
   192
  0
VERTEX
  5
1463
  8
0
 10
322.397605908498
 20
207.8075508819456
 30
-22.0
 70
   192
  0
VERTEX
  5
1464
  8
0
 10
322.397605908498
 20
207.8075508819456
 30
0.0
 70
   192
  0
VERTEX
  5
1465
  8
0
 10
0.0
 20
0.0
 30
0.0
 70
   128
 71
     1
 72
     2
 73
    -3
  0
VERTEX
  5
1466
  8
0
 10
0.0
 20
0.0
 30
0.0
 70
   128
 71
     4
 72
    -1
 73
     3
  0
VERTEX
  5
1467
  8
0
 10
0.0
 20
0.0
 30
0.0
 70
   128
 71
     2
 72
     5
 73
    -6
  0
VERTEX
  5
1468
  8
0
 10
0.0
 20
0.0
 30
0.0
 70
   128
 71
     3
 72
    -2
 73
     6
  0
VERTEX
  5
1469
  8
0
 10
0.0
 20
0.0
 30
0.0
 70
   128
 71
     7
 72
     1
 73
    -4
  0
VERTEX
  5
146A
  8
0
 10
0.0
 20
0.0
 30
0.0
 70
   128
 71
     8
 72
    -7
 73
     4
  0
SEQEND
  5
19FA
  8
0
  0
POLYLINE
  5
146B
  8
0
 66
     1
 10
0.0
 20
0.0
 30
0.0
 70
    64
 71
     9
 72
     7
  0
VERTEX
  5
146C
  8
0
 10
449.3014925891259
 20
-215.1525795426433
 30
-16.0
 70
   192
  0
VERTEX
  5
146D
  8
0
 10
449.3014733988043
 20
-215.1528224119106
 30
-16.0
 70
   192
  0
VERTEX
  5
146E
  8
0
 10
449.3014733988043
 20
-215.1528224119106
 30
-22.0
 70
   192
  0
VERTEX
  5
146F
  8
0
 10
450.5455031021401
 20
-196.2477727918341
 30
-16.0
 70
   192
  0
VERTEX
  5
1470
  8
0
 10
450.5454945681954
 20
-196.2479349849783
 30
-22.0
 70
   192
  0
VERTEX
  5
1471
  8
0
 10
451.2922511829776
 20
-177.3168834596889
 30
-22.0
 70
   192
  0
VERTEX
  5
1472
  8
0
 10
451.292253317201
 20
-177.3168022789883
 30
-16.0
 70
   192
  0
VERTEX
  5
1473
  8
0
 10
451.5412273853108
 20
-158.3727453651344
 30
-22.0
 70
   192
  0
VERTEX
  5
1474
  8
0
 10
451.5412273853108
 20
-158.3727453651344
 30
-16.0
 70
   192
  0
VERTEX
  5
1475
  8
0
 10
0.0
 20
0.0
 30
0.0
 70
   128
 71
     1
 72
     2
 73
     3
  0
VERTEX
  5
1476
  8
0
 10
0.0
 20
0.0
 30
0.0
 70
   128
 71
     4
 72
     5
 73
     6
  0
VERTEX
  5
1477
  8
0
 10
0.0
 20
0.0
 30
0.0
 70
   128
 71
     4
 72
     6
 73
     7
  0
VERTEX
  5
1478
  8
0
 10
0.0
 20
0.0
 30
0.0
 70
   128
 71
     1
 72
     3
 73
     5
  0
VERTEX
  5
1479
  8
0
 10
0.0
 20
0.0
 30
0.0
 70
   128
 71
     1
 72
     5
 73
     4
  0
VERTEX
  5
147A
  8
0
 10
0.0
 20
0.0
 30
0.0
 70
   128
 71
     7
 72
     6
 73
     8
  0
VERTEX
  5
147B
  8
0
 10
0.0
 20
0.0
 30
0.0
 70
   128
 71
     7
 72
     8
 73
     9
  0
SEQEND
  5
19FB
  8
0
  0
POLYLINE
  5
147C
  8
0
 66
     1
 10
0.0
 20
0.0
 30
0.0
 70
    64
 71
     9
 72
     7
  0
VERTEX
  5
147D
  8
0
 10
-378.316506438841
 20
155.380839972805
 30
-16.0
 70
   192
  0
VERTEX
  5
147E
  8
0
 10
-378.3162958086861
 20
155.3809624047871
 30
-16.0
 70
   192
  0
VERTEX
  5
147F
  8
0
 10
-378.3162958086861
 20
155.3809624047871
 30
-22.0
 70
   192
  0
VERTEX
  5
1480
  8
0
 10
-441.0938139721394
 20
78.45266272317865
 30
-16.0
 70
   192
  0
VERTEX
  5
1481
  8
0
 10
-441.0937362629255
 20
78.45289362560496
 30
-22.0
 70
   192
  0
VERTEX
  5
1482
  8
0
 10
-437.6019553782247
 20
-20.77785897828035
 30
-22.0
 70
   192
  0
VERTEX
  5
1483
  8
0
 10
-437.6018616307069
 20
-20.77808384725392
 30
-16.0
 70
   192
  0
VERTEX
  5
1484
  8
0
 10
-369.5725179583101
 20
-93.10303053293455
 30
-22.0
 70
   192
  0
VERTEX
  5
1485
  8
0
 10
-369.57251795831
 20
-93.10303053293455
 30
-16.0
 70
   192
  0
VERTEX
  5
1486
  8
0
 10
0.0
 20
0.0
 30
0.0
 70
   128
 71
     1
 72
     2
 73
     3
  0
VERTEX
  5
1487
  8
0
 10
0.0
 20
0.0
 30
0.0
 70
   128
 71
     4
 72
     5
 73
     6
  0
VERTEX
  5
1488
  8
0
 10
0.0
 20
0.0
 30
0.0
 70
   128
 71
     4
 72
     6
 73
     7
  0
VERTEX
  5
1489
  8
0
 10
0.0
 20
0.0
 30
0.0
 70
   128
 71
     1
 72
     3
 73
     5
  0
VERTEX
  5
148A
  8
0
 10
0.0
 20
0.0
 30
0.0
 70
   128
 71
     1
 72
     5
 73
     4
  0
VERTEX
  5
148B
  8
0
 10
0.0
 20
0.0
 30
0.0
 70
   128
 71
     7
 72
     6
 73
     8
  0
VERTEX
  5
148C
  8
0
 10
0.0
 20
0.0
 30
0.0
 70
   128
 71
     7
 72
     8
 73
     9
  0
SEQEND
  5
19FC
  8
0
  0
POLYLINE
  5
148D
  8
0
 66
     1
 10
0.0
 20
0.0
 30
0.0
 70
    64
 71
    11
 72
     9
  0
VERTEX
  5
148E
  8
0
 10
113.6106032015018
 20
310.0925573516677
 30
-16.0
 70
   192
  0
VERTEX
  5
148F
  8
0
 10
170.8324531778421
 20
313.4397159944642
 30
-16.0
 70
   192
  0
VERTEX
  5
1490
  8
0
 10
170.8324531778418
 20
313.4397159944644
 30
-22.0
 70
   192
  0
VERTEX
  5
1491
  8
0
 10
56.62085071838561
 20
303.951572283454
 30
-16.0
 70
   192
  0
VERTEX
  5
1492
  8
0
 10
-131.2027020033316
 20
263.1508598660423
 30
-16.0
 70
   192
  0
VERTEX
  5
1493
  8
0
 10
-0.0000000000001137
 20
295.0288271735021
 30
-16.0
 70
   192
  0
VERTEX
  5
1494
  8
0
 10
-20.07858157233596
 20
291.1817994985092
 30
-22.0
 70
   192
  0
VERTEX
  5
1495
  8
0
 10
-204.784146650092
 20
238.0189152141579
 30
-22.0
 70
   192
  0
VERTEX
  5
1496
  8
0
 10
-257.8681667946266
 20
216.3938941621425
 30
-16.0
 70
   192
  0
VERTEX
  5
1497
  8
0
 10
-378.3162958086865
 20
155.3809624047868
 30
-22.0
 70
   192
  0
VERTEX
  5
1498
  8
0
 10
-378.3162958086861
 20
155.3809624047871
 30
-16.0
 70
   192
  0
VERTEX
  5
1499
  8
0
 10
0.0
 20
0.0
 30
0.0
 70
   128
 71
     1
 72
     2
 73
     3
  0
VERTEX
  5
149A
  8
0
 10
0.0
 20
0.0
 30
0.0
 70
   128
 71
     3
 72
     4
 73
     1
  0
VERTEX
  5
149B
  8
0
 10
0.0
 20
0.0
 30
0.0
 70
   128
 71
     5
 72
     6
 73
     7
  0
VERTEX
  5
149C
  8
0
 10
0.0
 20
0.0
 30
0.0
 70
   128
 71
     7
 72
     8
 73
     5
  0
VERTEX
  5
149D
  8
0
 10
0.0
 20
0.0
 30
0.0
 70
   128
 71
     4
 72
     3
 73
     7
  0
VERTEX
  5
149E
  8
0
 10
0.0
 20
0.0
 30
0.0
 70
   128
 71
     7
 72
     6
 73
     4
  0
VERTEX
  5
149F
  8
0
 10
0.0
 20
0.0
 30
0.0
 70
   128
 71
     9
 72
     5
 73
     8
  0
VERTEX
  5
14A0
  8
0
 10
0.0
 20
0.0
 30
0.0
 70
   128
 71
     8
 72
    10
 73
    11
  0
VERTEX
  5
14A1
  8
0
 10
0.0
 20
0.0
 30
0.0
 70
   128
 71
     8
 72
    11
 73
     9
  0
SEQEND
  5
19FD
  8
0
  0
POLYLINE
  5
14A2
  8
0
 66
     1
 10
0.0
 20
0.0
 30
0.0
 70
    64
 71
    17
 72
    15
  0
VERTEX
  5
14A3
  8
0
 10
336.5738305808708
 20
231.6121992305742
 30
-16.0
 70
   192
  0
VERTEX
  5
14A4
  8
0
 10
343.6559368956566
 20
220.9636659483475
 30
-16.0
 70
   192
  0
VERTEX
  5
14A5
  8
0
 10
343.6559368956566
 20
220.9636659483475
 30
-22.0
 70
   192
  0
VERTEX
  5
14A6
  8
0
 10
328.8104608753164
 20
241.7747570646777
 30
-16.0
 70
   192
  0
VERTEX
  5
14A7
  8
0
 10
320.3990696540651
 20
251.4078245221222
 30
-16.0
 70
   192
  0
VERTEX
  5
14A8
  8
0
 10
280.8900124020252
 20
283.9464690758958
 30
-16.0
 70
   192
  0
VERTEX
  5
14A9
  8
0
 10
301.7143522027473
 20
268.9761324061178
 30
-16.0
 70
   192
  0
VERTEX
  5
14AA
  8
0
 10
298.2843512089458
 20
271.7367417195397
 30
-22.0
 70
   192
  0
VERTEX
  5
14AB
  8
0
 10
230.1080005337666
 20
306.330451205857
 30
-16.0
 70
   192
  0
VERTEX
  5
14AC
  8
0
 10
244.3936065968941
 20
301.7370035175775
 30
-16.0
 70
   192
  0
VERTEX
  5
14AD
  8
0
 10
238.2472360366748
 20
303.8619781044322
 30
-22.0
 70
   192
  0
VERTEX
  5
14AE
  8
0
 10
170.8324531778418
 20
313.4397159944643
 30
-22.0
 70
   192
  0
VERTEX
  5
14AF
  8
0
 10
170.8324531778418
 20
313.4397159944644
 30
-16.0
 70
   192
  0
VERTEX
  5
14B0
  8
0
 10
185.8037530874447
 20
313.3747222893946
 30
-16.0
 70
   192
  0
VERTEX
  5
14B1
  8
0
 10
258.2846688201832
 20
296.0610284855203
 30
-16.0
 70
   192
  0
VERTEX
  5
14B2
  8
0
 10
215.5120708891134
 20
309.8142910506487
 30
-16.0
 70
   192
  0
VERTEX
  5
14B3
  8
0
 10
200.7261491105699
 20
312.1638787429404
 30
-16.0
 70
   192
  0
VERTEX
  5
14B4
  8
0
 10
0.0
 20
0.0
 30
0.0
 70
   128
 71
     1
 72
     2
 73
     3
  0
VERTEX
  5
14B5
  8
0
 10
0.0
 20
0.0
 30
0.0
 70
   128
 71
     3
 72
     4
 73
     1
  0
VERTEX
  5
14B6
  8
0
 10
0.0
 20
0.0
 30
0.0
 70
   128
 71
     3
 72
     5
 73
     4
  0
VERTEX
  5
14B7
  8
0
 10
0.0
 20
0.0
 30
0.0
 70
   128
 71
     6
 72
     7
 73
     8
  0
VERTEX
  5
14B8
  8
0
 10
0.0
 20
0.0
 30
0.0
 70
   128
 71
     9
 72
    10
 73
    11
  0
VERTEX
  5
14B9
  8
0
 10
0.0
 20
0.0
 30
0.0
 70
   128
 71
    12
 72
    13
 73
    14
  0
VERTEX
  5
14BA
  8
0
 10
0.0
 20
0.0
 30
0.0
 70
   128
 71
    15
 72
     6
 73
     8
  0
VERTEX
  5
14BB
  8
0
 10
0.0
 20
0.0
 30
0.0
 70
   128
 71
    15
 72
     8
 73
    11
  0
VERTEX
  5
14BC
  8
0
 10
0.0
 20
0.0
 30
0.0
 70
   128
 71
    11
 72
    10
 73
    15
  0
VERTEX
  5
14BD
  8
0
 10
0.0
 20
0.0
 30
0.0
 70
   128
 71
     5
 72
     3
 73
     8
  0
VERTEX
  5
14BE
  8
0
 10
0.0
 20
0.0
 30
0.0
 70
   128
 71
     5
 72
     8
 73
     7
  0
VERTEX
  5
14BF
  8
0
 10
0.0
 20
0.0
 30
0.0
 70
   128
 71
    16
 72
     9
 73
    11
  0
VERTEX
  5
14C0
  8
0
 10
0.0
 20
0.0
 30
0.0
 70
   128
 71
    11
 72
    12
 73
    17
  0
VERTEX
  5
14C1
  8
0
 10
0.0
 20
0.0
 30
0.0
 70
   128
 71
    11
 72
    17
 73
    16
  0
VERTEX
  5
14C2
  8
0
 10
0.0
 20
0.0
 30
0.0
 70
   128
 71
    12
 72
    14
 73
    17
  0
SEQEND
  5
19FE
  8
0
  0
POLYLINE
  5
14C3
  8
0
 66
     1
 10
0.0
 20
0.0
 30
0.0
 70
    64
 71
     8
 72
     6
  0
VERTEX
  5
14C4
  8
0
 10
439.2773504004468
 20
-25.97145376566681
 30
-16.0
 70
   192
  0
VERTEX
  5
14C5
  8
0
 10
439.2773504004469
 20
-25.97145376566706
 30
-22.0
 70
   192
  0
VERTEX
  5
14C6
  8
0
 10
402.9030197393687
 20
101.9246476794737
 30
-22.0
 70
   192
  0
VERTEX
  5
14C7
  8
0
 10
402.903019739369
 20
101.9246476794733
 30
-16.0
 70
   192
  0
VERTEX
  5
14C8
  8
0
 10
451.5412273853108
 20
-158.3727453651343
 30
-16.0
 70
   192
  0
VERTEX
  5
14C9
  8
0
 10
451.5412273853108
 20
-158.3727453651344
 30
-22.0
 70
   192
  0
VERTEX
  5
14CA
  8
0
 10
343.6559368956565
 20
220.9636659483476
 30
-22.0
 70
   192
  0
VERTEX
  5
14CB
  8
0
 10
343.6559368956566
 20
220.9636659483475
 30
-16.0
 70
   192
  0
VERTEX
  5
14CC
  8
0
 10
0.0
 20
0.0
 30
0.0
 70
   128
 71
     1
 72
     2
 73
    -3
  0
VERTEX
  5
14CD
  8
0
 10
0.0
 20
0.0
 30
0.0
 70
   128
 71
    -1
 72
     3
 73
     4
  0
VERTEX
  5
14CE
  8
0
 10
0.0
 20
0.0
 30
0.0
 70
   128
 71
     5
 72
     6
 73
    -2
  0
VERTEX
  5
14CF
  8
0
 10
0.0
 20
0.0
 30
0.0
 70
   128
 71
    -5
 72
     2
 73
     1
  0
VERTEX
  5
14D0
  8
0
 10
0.0
 20
0.0
 30
0.0
 70
   128
 71
     4
 72
     3
 73
    -7
  0
VERTEX
  5
14D1
  8
0
 10
0.0
 20
0.0
 30
0.0
 70
   128
 71
    -4
 72
     7
 73
     8
  0
SEQEND
  5
19FF
  8
0
  0
POLYLINE
  5
14D2
  8
0
 66
     1
 10
0.0
 20
0.0
 30
0.0
 70
    64
 71
     9
 72
     7
  0
VERTEX
  5
14D3
  8
0
 10
337.7020962599659
 20
-305.7633592317159
 30
-16.0
 70
   192
  0
VERTEX
  5
14D4
  8
0
 10
337.7015142567342
 20
-305.7659731963949
 30
-16.0
 70
   192
  0
VERTEX
  5
14D5
  8
0
 10
337.7015142567342
 20
-305.7659731963949
 30
-22.0
 70
   192
  0
VERTEX
  5
14D6
  8
0
 10
390.1072956711035
 20
-298.2708350484175
 30
-16.0
 70
   192
  0
VERTEX
  5
14D7
  8
0
 10
390.1081403510627
 20
-298.2733763187439
 30
-22.0
 70
   192
  0
VERTEX
  5
14D8
  8
0
 10
431.2063870126981
 20
-264.9038155199995
 30
-22.0
 70
   192
  0
VERTEX
  5
14D9
  8
0
 10
431.2043560088774
 20
-264.9020700794862
 30
-16.0
 70
   192
  0
VERTEX
  5
14DA
  8
0
 10
449.3014733988042
 20
-215.1528224119107
 30
-22.0
 70
   192
  0
VERTEX
  5
14DB
  8
0
 10
449.3014733988043
 20
-215.1528224119106
 30
-16.0
 70
   192
  0
VERTEX
  5
14DC
  8
0
 10
0.0
 20
0.0
 30
0.0
 70
   128
 71
     1
 72
     2
 73
     3
  0
VERTEX
  5
14DD
  8
0
 10
0.0
 20
0.0
 30
0.0
 70
   128
 71
     4
 72
     5
 73
     6
  0
VERTEX
  5
14DE
  8
0
 10
0.0
 20
0.0
 30
0.0
 70
   128
 71
     4
 72
     6
 73
     7
  0
VERTEX
  5
14DF
  8
0
 10
0.0
 20
0.0
 30
0.0
 70
   128
 71
     1
 72
     3
 73
     5
  0
VERTEX
  5
14E0
  8
0
 10
0.0
 20
0.0
 30
0.0
 70
   128
 71
     1
 72
     5
 73
     4
  0
VERTEX
  5
14E1
  8
0
 10
0.0
 20
0.0
 30
0.0
 70
   128
 71
     7
 72
     6
 73
     8
  0
VERTEX
  5
14E2
  8
0
 10
0.0
 20
0.0
 30
0.0
 70
   128
 71
     7
 72
     8
 73
     9
  0
SEQEND
  5
1A00
  8
0
  0
POLYLINE
  5
14E3
  8
0
 66
     1
 10
0.0
 20
0.0
 30
0.0
 70
    64
 71
     9
 72
     7
  0
VERTEX
  5
14E4
  8
0
 10
-369.5711244281893
 20
-93.10074369690756
 30
-16.0
 70
   192
  0
VERTEX
  5
14E5
  8
0
 10
-369.57251795831
 20
-93.10303053293455
 30
-16.0
 70
   192
  0
VERTEX
  5
14E6
  8
0
 10
-369.57251795831
 20
-93.10303053293455
 30
-22.0
 70
   192
  0
VERTEX
  5
14E7
  8
0
 10
-142.0557232671756
 20
-189.6900803611254
 30
-16.0
 70
   192
  0
VERTEX
  5
14E8
  8
0
 10
-142.056858783853
 20
-189.6925056749371
 30
-22.0
 70
   192
  0
VERTEX
  5
14E9
  8
0
 10
94.6445303322372
 20
-260.8638079554819
 30
-22.0
 70
   192
  0
VERTEX
  5
14EA
  8
0
 10
94.64539425859368
 20
-260.8612731623032
 30
-16.0
 70
   192
  0
VERTEX
  5
14EB
  8
0
 10
337.7015142567341
 20
-305.7659731963952
 30
-22.0
 70
   192
  0
VERTEX
  5
14EC
  8
0
 10
337.7015142567342
 20
-305.7659731963949
 30
-16.0
 70
   192
  0
VERTEX
  5
14ED
  8
0
 10
0.0
 20
0.0
 30
0.0
 70
   128
 71
     1
 72
     2
 73
     3
  0
VERTEX
  5
14EE
  8
0
 10
0.0
 20
0.0
 30
0.0
 70
   128
 71
     4
 72
     5
 73
     6
  0
VERTEX
  5
14EF
  8
0
 10
0.0
 20
0.0
 30
0.0
 70
   128
 71
     4
 72
     6
 73
     7
  0
VERTEX
  5
14F0
  8
0
 10
0.0
 20
0.0
 30
0.0
 70
   128
 71
     1
 72
     3
 73
     5
  0
VERTEX
  5
14F1
  8
0
 10
0.0
 20
0.0
 30
0.0
 70
   128
 71
     1
 72
     5
 73
     4
  0
VERTEX
  5
14F2
  8
0
 10
0.0
 20
0.0
 30
0.0
 70
   128
 71
     7
 72
     6
 73
     8
  0
VERTEX
  5
14F3
  8
0
 10
0.0
 20
0.0
 30
0.0
 70
   128
 71
     7
 72
     8
 73
     9
  0
SEQEND
  5
1A01
  8
0
  0
POLYLINE
  5
14F4
  8
0
 66
     1
 10
0.0
 20
0.0
 30
0.0
 70
    64
 71
    15
 72
    15
  0
VERTEX
  5
14F5
  8
0
 10
66.86788254934709
 20
-228.145219147557
 30
-9.358349254877982
 70
   192
  0
VERTEX
  5
14F6
  8
0
 10
68.34999999999947
 20
-228.5277056785292
 30
-9.750000000000002
 70
   192
  0
VERTEX
  5
14F7
  8
0
 10
100.5234516819243
 20
-236.5648720988609
 30
-22.0
 70
   192
  0
VERTEX
  5
14F8
  8
0
 10
68.34999999999947
 20
-228.5277056785292
 30
-3.749999999999996
 70
   192
  0
VERTEX
  5
14F9
  8
0
 10
100.5234516819243
 20
-236.5648720988609
 30
0.0
 70
   192
  0
VERTEX
  5
14FA
  8
0
 10
-133.5600641494785
 20
-166.1807111678975
 30
0.0
 70
   192
  0
VERTEX
  5
14FB
  8
0
 10
66.86642813257366
 20
-228.1448431914295
 30
-4.142563427901284
 70
   192
  0
VERTEX
  5
14FC
  8
0
 10
65.76256272760884
 20
-227.8592670712239
 30
-5.231840124536468
 70
   192
  0
VERTEX
  5
14FD
  8
0
 10
65.35000000000002
 20
-227.7523805429308
 30
-6.75
 70
   192
  0
VERTEX
  5
14FE
  8
0
 10
65.76292606841552
 20
-227.8593611714317
 30
-8.26877106273416
 70
   192
  0
VERTEX
  5
14FF
  8
0
 10
-133.5600641494785
 20
-166.1807111678975
 30
-22.0
 70
   192
  0
VERTEX
  5
1500
  8
0
 10
-358.559442501821
 20
-70.65949763390813
 30
-22.0
 70
   192
  0
VERTEX
  5
1501
  8
0
 10
-358.559442501821
 20
-70.65949763390813
 30
0.0
 70
   192
  0
VERTEX
  5
1502
  8
0
 10
340.8922706267031
 20
-280.9704277539671
 30
-22.0
 70
   192
  0
VERTEX
  5
1503
  8
0
 10
340.8922706267031
 20
-280.9704277539674
 30
0.0
 70
   192
  0
VERTEX
  5
1504
  8
0
 10
0.0
 20
0.0
 30
0.0
 70
   128
 71
     1
 72
     2
 73
     3
  0
VERTEX
  5
1505
  8
0
 10
0.0
 20
0.0
 30
0.0
 70
   128
 71
     4
 72
     5
 73
    -3
  0
VERTEX
  5
1506
  8
0
 10
0.0
 20
0.0
 30
0.0
 70
   128
 71
     2
 72
    -4
 73
     3
  0
VERTEX
  5
1507
  8
0
 10
0.0
 20
0.0
 30
0.0
 70
   128
 71
     6
 72
     5
 73
     4
  0
VERTEX
  5
1508
  8
0
 10
0.0
 20
0.0
 30
0.0
 70
   128
 71
     4
 72
     7
 73
     6
  0
VERTEX
  5
1509
  8
0
 10
0.0
 20
0.0
 30
0.0
 70
   128
 71
     7
 72
     8
 73
     6
  0
VERTEX
  5
150A
  8
0
 10
0.0
 20
0.0
 30
0.0
 70
   128
 71
     8
 72
     9
 73
     6
  0
VERTEX
  5
150B
  8
0
 10
0.0
 20
0.0
 30
0.0
 70
   128
 71
     9
 72
    10
 73
     6
  0
VERTEX
  5
150C
  8
0
 10
0.0
 20
0.0
 30
0.0
 70
   128
 71
    10
 72
     1
 73
     6
  0
VERTEX
  5
150D
  8
0
 10
0.0
 20
0.0
 30
0.0
 70
   128
 71
     1
 72
     3
 73
     6
  0
VERTEX
  5
150E
  8
0
 10
0.0
 20
0.0
 30
0.0
 70
   128
 71
     3
 72
    11
 73
     6
  0
VERTEX
  5
150F
  8
0
 10
0.0
 20
0.0
 30
0.0
 70
   128
 71
    11
 72
    12
 73
   -13
  0
VERTEX
  5
1510
  8
0
 10
0.0
 20
0.0
 30
0.0
 70
   128
 71
     6
 72
   -11
 73
    13
  0
VERTEX
  5
1511
  8
0
 10
0.0
 20
0.0
 30
0.0
 70
   128
 71
    14
 72
     3
 73
    -5
  0
VERTEX
  5
1512
  8
0
 10
0.0
 20
0.0
 30
0.0
 70
   128
 71
    15
 72
   -14
 73
     5
  0
SEQEND
  5
1A02
  8
0
  0
POLYLINE
  5
1513
  8
0
 66
     1
 10
0.0
 20
0.0
 30
0.0
 70
    64
 71
     8
 72
     6
  0
VERTEX
  5
1514
  8
0
 10
410.8423881174687
 20
-250.4018312076684
 30
-22.0
 70
   192
  0
VERTEX
  5
1515
  8
0
 10
380.0971756177008
 20
-275.3652863698331
 30
-22.0
 70
   192
  0
VERTEX
  5
1516
  8
0
 10
380.0971756177008
 20
-275.3652863698331
 30
0.0
 70
   192
  0
VERTEX
  5
1517
  8
0
 10
410.8423881174687
 20
-250.4018312076684
 30
0.0
 70
   192
  0
VERTEX
  5
1518
  8
0
 10
340.8922706267031
 20
-280.970427753967
 30
-22.0
 70
   192
  0
VERTEX
  5
1519
  8
0
 10
340.8922706267031
 20
-280.970427753967
 30
0.0
 70
   192
  0
VERTEX
  5
151A
  8
0
 10
424.3791523673613
 20
-213.1835803227582
 30
-22.0
 70
   192
  0
VERTEX
  5
151B
  8
0
 10
424.3791523673611
 20
-213.1835803227582
 30
0.0
 70
   192
  0
VERTEX
  5
151C
  8
0
 10
0.0
 20
0.0
 30
0.0
 70
   128
 71
     1
 72
     2
 73
    -3
  0
VERTEX
  5
151D
  8
0
 10
0.0
 20
0.0
 30
0.0
 70
   128
 71
     4
 72
    -1
 73
     3
  0
VERTEX
  5
151E
  8
0
 10
0.0
 20
0.0
 30
0.0
 70
   128
 71
     2
 72
     5
 73
    -6
  0
VERTEX
  5
151F
  8
0
 10
0.0
 20
0.0
 30
0.0
 70
   128
 71
     3
 72
    -2
 73
     6
  0
VERTEX
  5
1520
  8
0
 10
0.0
 20
0.0
 30
0.0
 70
   128
 71
     7
 72
     1
 73
    -4
  0
VERTEX
  5
1521
  8
0
 10
0.0
 20
0.0
 30
0.0
 70
   128
 71
     8
 72
    -7
 73
     4
  0
SEQEND
  5
1A03
  8
0
  0
POLYLINE
  5
1522
  8
0
 66
     1
 10
0.0
 20
0.0
 30
0.0
 70
    64
 71
     8
 72
     6
  0
VERTEX
  5
1523
  8
0
 10
426.3008861557065
 20
-176.6598643780173
 30
-22.0
 70
   192
  0
VERTEX
  5
1524
  8
0
 10
425.58002849409
 20
-194.9343506889833
 30
-22.0
 70
   192
  0
VERTEX
  5
1525
  8
0
 10
425.58002849409
 20
-194.9343506889833
 30
0.0
 70
   192
  0
VERTEX
  5
1526
  8
0
 10
426.3008861557065
 20
-176.6598643780173
 30
0.0
 70
   192
  0
VERTEX
  5
1527
  8
0
 10
424.3791523673613
 20
-213.1835803227582
 30
-22.0
 70
   192
  0
VERTEX
  5
1528
  8
0
 10
424.3791523673613
 20
-213.1835803227582
 30
0.0
 70
   192
  0
VERTEX
  5
1529
  8
0
 10
426.5412273853109
 20
-158.3727453651344
 30
-22.0
 70
   192
  0
VERTEX
  5
152A
  8
0
 10
426.5412273853109
 20
-158.3727453651344
 30
0.0
 70
   192
  0
VERTEX
  5
152B
  8
0
 10
0.0
 20
0.0
 30
0.0
 70
   128
 71
     1
 72
     2
 73
    -3
  0
VERTEX
  5
152C
  8
0
 10
0.0
 20
0.0
 30
0.0
 70
   128
 71
     4
 72
    -1
 73
     3
  0
VERTEX
  5
152D
  8
0
 10
0.0
 20
0.0
 30
0.0
 70
   128
 71
     2
 72
     5
 73
    -6
  0
VERTEX
  5
152E
  8
0
 10
0.0
 20
0.0
 30
0.0
 70
   128
 71
     3
 72
    -2
 73
     6
  0
VERTEX
  5
152F
  8
0
 10
0.0
 20
0.0
 30
0.0
 70
   128
 71
     7
 72
     1
 73
    -4
  0
VERTEX
  5
1530
  8
0
 10
0.0
 20
0.0
 30
0.0
 70
   128
 71
     8
 72
    -7
 73
     4
  0
SEQEND
  5
1A04
  8
0
  0
POLYLINE
  5
1531
  8
0
 66
     1
 10
0.0
 20
0.0
 30
0.0
 70
    64
 71
     8
 72
     6
  0
VERTEX
  5
1532
  8
0
 10
230.4727002882697
 20
280.1015784045792
 30
-22.0
 70
   192
  0
VERTEX
  5
1533
  8
0
 10
282.8299165422211
 20
252.0857761164978
 30
-22.0
 70
   192
  0
VERTEX
  5
1534
  8
0
 10
282.8299165422211
 20
252.0857761164978
 30
0.0
 70
   192
  0
VERTEX
  5
1535
  8
0
 10
230.4727002882697
 20
280.1015784045792
 30
0.0
 70
   192
  0
VERTEX
  5
1536
  8
0
 10
322.3976059084979
 20
207.8075508819455
 30
-22.0
 70
   192
  0
VERTEX
  5
1537
  8
0
 10
322.3976059084979
 20
207.8075508819455
 30
0.0
 70
   192
  0
VERTEX
  5
1538
  8
0
 10
171.6815615947285
 20
288.4541398574934
 30
-22.0
 70
   192
  0
VERTEX
  5
1539
  8
0
 10
171.6815615947284
 20
288.4541398574934
 30
0.0
 70
   192
  0
VERTEX
  5
153A
  8
0
 10
0.0
 20
0.0
 30
0.0
 70
   128
 71
     1
 72
     2
 73
    -3
  0
VERTEX
  5
153B
  8
0
 10
0.0
 20
0.0
 30
0.0
 70
   128
 71
     4
 72
    -1
 73
     3
  0
VERTEX
  5
153C
  8
0
 10
0.0
 20
0.0
 30
0.0
 70
   128
 71
     2
 72
     5
 73
    -6
  0
VERTEX
  5
153D
  8
0
 10
0.0
 20
0.0
 30
0.0
 70
   128
 71
     3
 72
    -2
 73
     6
  0
VERTEX
  5
153E
  8
0
 10
0.0
 20
0.0
 30
0.0
 70
   128
 71
     7
 72
     1
 73
    -4
  0
VERTEX
  5
153F
  8
0
 10
0.0
 20
0.0
 30
0.0
 70
   128
 71
     8
 72
    -7
 73
     4
  0
SEQEND
  5
1A05
  8
0
  0
POLYLINE
  5
1540
  8
0
 66
     1
 10
0.0
 20
0.0
 30
0.0
 70
    64
 71
     8
 72
     6
  0
VERTEX
  5
1541
  8
0
 10
-195.9224935832725
 20
214.6421937818589
 30
-22.0
 70
   192
  0
VERTEX
  5
1542
  8
0
 10
-15.15701418850952
 20
266.6710227975059
 30
-22.0
 70
   192
  0
VERTEX
  5
1543
  8
0
 10
-15.15701418850952
 20
266.6710227975059
 30
0.0
 70
   192
  0
VERTEX
  5
1544
  8
0
 10
-195.9224935832725
 20
214.6421937818589
 30
0.0
 70
   192
  0
VERTEX
  5
1545
  8
0
 10
171.6815615947286
 20
288.4541398574936
 30
-22.0
 70
   192
  0
VERTEX
  5
1546
  8
0
 10
171.6815615947286
 20
288.4541398574936
 30
0.0
 70
   192
  0
VERTEX
  5
1547
  8
0
 10
-365.7529051350382
 20
133.7670498764806
 30
-22.0
 70
   192
  0
VERTEX
  5
1548
  8
0
 10
-365.7529051350385
 20
133.7670498764804
 30
0.0
 70
   192
  0
VERTEX
  5
1549
  8
0
 10
0.0
 20
0.0
 30
0.0
 70
   128
 71
     1
 72
     2
 73
    -3
  0
VERTEX
  5
154A
  8
0
 10
0.0
 20
0.0
 30
0.0
 70
   128
 71
     4
 72
    -1
 73
     3
  0
VERTEX
  5
154B
  8
0
 10
0.0
 20
0.0
 30
0.0
 70
   128
 71
     2
 72
     5
 73
    -6
  0
VERTEX
  5
154C
  8
0
 10
0.0
 20
0.0
 30
0.0
 70
   128
 71
     3
 72
    -2
 73
     6
  0
VERTEX
  5
154D
  8
0
 10
0.0
 20
0.0
 30
0.0
 70
   128
 71
     7
 72
     1
 73
    -4
  0
VERTEX
  5
154E
  8
0
 10
0.0
 20
0.0
 30
0.0
 70
   128
 71
     8
 72
    -7
 73
     4
  0
SEQEND
  5
1A06
  8
0
  0
POLYLINE
  5
154F
  8
0
 66
     1
 10
0.0
 20
0.0
 30
0.0
 70
    64
 71
     9
 72
     7
  0
VERTEX
  5
1550
  8
0
 10
-378.3162958086868
 20
155.3809624047883
 30
0.0
 70
   192
  0
VERTEX
  5
1551
  8
0
 10
-378.3162958086861
 20
155.3809624047871
 30
-6.0
 70
   192
  0
VERTEX
  5
1552
  8
0
 10
-378.316506438841
 20
155.380839972805
 30
-5.999999999999998
 70
   192
  0
VERTEX
  5
1553
  8
0
 10
-441.0937362629255
 20
78.45289362560496
 30
0.0
 70
   192
  0
VERTEX
  5
1554
  8
0
 10
-441.0938139721394
 20
78.45266272317866
 30
-5.999999999999998
 70
   192
  0
VERTEX
  5
1555
  8
0
 10
-437.6018616307069
 20
-20.77808384725389
 30
-5.999999999999998
 70
   192
  0
VERTEX
  5
1556
  8
0
 10
-437.6019553782247
 20
-20.77785897828035
 30
0.0
 70
   192
  0
VERTEX
  5
1557
  8
0
 10
-369.5722992432039
 20
-93.10313785653267
 30
-5.999999999999998
 70
   192
  0
VERTEX
  5
1558
  8
0
 10
-369.57251795831
 20
-93.10303053293455
 30
0.0
 70
   192
  0
VERTEX
  5
1559
  8
0
 10
0.0
 20
0.0
 30
0.0
 70
   128
 71
     1
 72
     2
 73
     3
  0
VERTEX
  5
155A
  8
0
 10
0.0
 20
0.0
 30
0.0
 70
   128
 71
     4
 72
     5
 73
     6
  0
VERTEX
  5
155B
  8
0
 10
0.0
 20
0.0
 30
0.0
 70
   128
 71
     4
 72
     6
 73
     7
  0
VERTEX
  5
155C
  8
0
 10
0.0
 20
0.0
 30
0.0
 70
   128
 71
     1
 72
     3
 73
     5
  0
VERTEX
  5
155D
  8
0
 10
0.0
 20
0.0
 30
0.0
 70
   128
 71
     1
 72
     5
 73
     4
  0
VERTEX
  5
155E
  8
0
 10
0.0
 20
0.0
 30
0.0
 70
   128
 71
     7
 72
     6
 73
     8
  0
VERTEX
  5
155F
  8
0
 10
0.0
 20
0.0
 30
0.0
 70
   128
 71
     7
 72
     8
 73
     9
  0
SEQEND
  5
1A07
  8
0
  0
POLYLINE
  5
1560
  8
0
 66
     1
 10
0.0
 20
0.0
 30
0.0
 70
    64
 71
    11
 72
     9
  0
VERTEX
  5
1561
  8
0
 10
170.8324531778419
 20
313.4397159944642
 30
0.0
 70
   192
  0
VERTEX
  5
1562
  8
0
 10
170.8324531778418
 20
313.4397159944644
 30
-6.0
 70
   192
  0
VERTEX
  5
1563
  8
0
 10
113.6106032015014
 20
310.0925573516674
 30
-5.999999999999998
 70
   192
  0
VERTEX
  5
1564
  8
0
 10
-257.8681667946266
 20
216.3938941621425
 30
-5.999999999999998
 70
   192
  0
VERTEX
  5
1565
  8
0
 10
-378.3151662399083
 20
155.3785343151435
 30
-5.999999999999998
 70
   192
  0
VERTEX
  5
1566
  8
0
 10
-378.3162958086861
 20
155.3809624047871
 30
0.0
 70
   192
  0
VERTEX
  5
1567
  8
0
 10
-131.2027020033316
 20
263.1508598660423
 30
-5.999999999999998
 70
   192
  0
VERTEX
  5
1568
  8
0
 10
-204.784146650092
 20
238.0189152141579
 30
0.0
 70
   192
  0
VERTEX
  5
1569
  8
0
 10
-20.07858157233596
 20
291.1817994985092
 30
0.0
 70
   192
  0
VERTEX
  5
156A
  8
0
 10
-0.0004793182298215
 20
295.0314506150291
 30
-5.999999999999998
 70
   192
  0
VERTEX
  5
156B
  8
0
 10
56.62085071838573
 20
303.951572283454
 30
-5.999999999999998
 70
   192
  0
VERTEX
  5
156C
  8
0
 10
0.0
 20
0.0
 30
0.0
 70
   128
 71
     1
 72
     2
 73
     3
  0
VERTEX
  5
156D
  8
0
 10
0.0
 20
0.0
 30
0.0
 70
   128
 71
     4
 72
     5
 73
     6
  0
VERTEX
  5
156E
  8
0
 10
0.0
 20
0.0
 30
0.0
 70
   128
 71
     7
 72
     8
 73
     9
  0
VERTEX
  5
156F
  8
0
 10
0.0
 20
0.0
 30
0.0
 70
   128
 71
     9
 72
    10
 73
     7
  0
VERTEX
  5
1570
  8
0
 10
0.0
 20
0.0
 30
0.0
 70
   128
 71
    11
 72
     9
 73
     1
  0
VERTEX
  5
1571
  8
0
 10
0.0
 20
0.0
 30
0.0
 70
   128
 71
     1
 72
     3
 73
    11
  0
VERTEX
  5
1572
  8
0
 10
0.0
 20
0.0
 30
0.0
 70
   128
 71
    11
 72
    10
 73
     9
  0
VERTEX
  5
1573
  8
0
 10
0.0
 20
0.0
 30
0.0
 70
   128
 71
     4
 72
     6
 73
     8
  0
VERTEX
  5
1574
  8
0
 10
0.0
 20
0.0
 30
0.0
 70
   128
 71
     8
 72
     7
 73
     4
  0
SEQEND
  5
1A08
  8
0
  0
POLYLINE
  5
1575
  8
0
 66
     1
 10
0.0
 20
0.0
 30
0.0
 70
    64
 71
    17
 72
    15
  0
VERTEX
  5
1576
  8
0
 10
343.6559368956566
 20
220.9636659483475
 30
0.0
 70
   192
  0
VERTEX
  5
1577
  8
0
 10
343.6559368956566
 20
220.9636659483475
 30
-6.0
 70
   192
  0
VERTEX
  5
1578
  8
0
 10
335.295266170179
 20
233.3835270636824
 30
-5.999999999999998
 70
   192
  0
VERTEX
  5
1579
  8
0
 10
304.8531330445268
 20
266.3353470573257
 30
-5.999999999999998
 70
   192
  0
VERTEX
  5
157A
  8
0
 10
293.1055125558996
 20
275.6719247716549
 30
-5.999999999999998
 70
   192
  0
VERTEX
  5
157B
  8
0
 10
298.2843512089458
 20
271.7367417195397
 30
0.0
 70
   192
  0
VERTEX
  5
157C
  8
0
 10
258.0552276018596
 20
296.165052043923
 30
-5.999999999999998
 70
   192
  0
VERTEX
  5
157D
  8
0
 10
234.046522921255
 20
305.1842678861561
 30
-5.999999999999998
 70
   192
  0
VERTEX
  5
157E
  8
0
 10
238.2472360366748
 20
303.8619781044322
 30
0.0
 70
   192
  0
VERTEX
  5
157F
  8
0
 10
183.6206874490393
 20
313.4556730920891
 30
-5.999999999999998
 70
   192
  0
VERTEX
  5
1580
  8
0
 10
170.8324531778418
 20
313.4397159944643
 30
-5.999999999999998
 70
   192
  0
VERTEX
  5
1581
  8
0
 10
170.8324531778418
 20
313.4397159944644
 30
0.0
 70
   192
  0
VERTEX
  5
1582
  8
0
 10
196.382587805346
 20
312.6352526512842
 30
-5.999999999999998
 70
   192
  0
VERTEX
  5
1583
  8
0
 10
209.0635119995771
 20
310.9819674417211
 30
-5.999999999999998
 70
   192
  0
VERTEX
  5
1584
  8
0
 10
280.6761690966475
 20
284.079640973601
 30
-5.999999999999998
 70
   192
  0
VERTEX
  5
1585
  8
0
 10
326.0083777107534
 20
245.1269280977208
 30
-5.999999999999998
 70
   192
  0
VERTEX
  5
1586
  8
0
 10
315.8497729133629
 20
256.1249512689321
 30
-5.999999999999998
 70
   192
  0
VERTEX
  5
1587
  8
0
 10
0.0
 20
0.0
 30
0.0
 70
   128
 71
     1
 72
     2
 73
     3
  0
VERTEX
  5
1588
  8
0
 10
0.0
 20
0.0
 30
0.0
 70
   128
 71
     4
 72
     5
 73
     6
  0
VERTEX
  5
1589
  8
0
 10
0.0
 20
0.0
 30
0.0
 70
   128
 71
     7
 72
     8
 73
     9
  0
VERTEX
  5
158A
  8
0
 10
0.0
 20
0.0
 30
0.0
 70
   128
 71
    10
 72
    11
 73
    12
  0
VERTEX
  5
158B
  8
0
 10
0.0
 20
0.0
 30
0.0
 70
   128
 71
    12
 72
    13
 73
    10
  0
VERTEX
  5
158C
  8
0
 10
0.0
 20
0.0
 30
0.0
 70
   128
 71
    12
 72
    14
 73
    13
  0
VERTEX
  5
158D
  8
0
 10
0.0
 20
0.0
 30
0.0
 70
   128
 71
     6
 72
     5
 73
    15
  0
VERTEX
  5
158E
  8
0
 10
0.0
 20
0.0
 30
0.0
 70
   128
 71
     6
 72
    15
 73
     7
  0
VERTEX
  5
158F
  8
0
 10
0.0
 20
0.0
 30
0.0
 70
   128
 71
     6
 72
     7
 73
     9
  0
VERTEX
  5
1590
  8
0
 10
0.0
 20
0.0
 30
0.0
 70
   128
 71
     6
 72
     1
 73
    16
  0
VERTEX
  5
1591
  8
0
 10
0.0
 20
0.0
 30
0.0
 70
   128
 71
     6
 72
    16
 73
    17
  0
VERTEX
  5
1592
  8
0
 10
0.0
 20
0.0
 30
0.0
 70
   128
 71
     1
 72
     3
 73
    16
  0
VERTEX
  5
1593
  8
0
 10
0.0
 20
0.0
 30
0.0
 70
   128
 71
    17
 72
     4
 73
     6
  0
VERTEX
  5
1594
  8
0
 10
0.0
 20
0.0
 30
0.0
 70
   128
 71
     9
 72
     8
 73
    14
  0
VERTEX
  5
1595
  8
0
 10
0.0
 20
0.0
 30
0.0
 70
   128
 71
     9
 72
    14
 73
    12
  0
SEQEND
  5
1A09
  8
0
  0
POLYLINE
  5
1596
  8
0
 66
     1
 10
0.0
 20
0.0
 30
0.0
 70
    64
 71
     8
 72
     6
  0
VERTEX
  5
1597
  8
0
 10
439.2773504004469
 20
-25.97145376566706
 30
0.0
 70
   192
  0
VERTEX
  5
1598
  8
0
 10
439.2773504004468
 20
-25.97145376566701
 30
-5.999999999999998
 70
   192
  0
VERTEX
  5
1599
  8
0
 10
402.903019739369
 20
101.9246476794734
 30
-5.999999999999998
 70
   192
  0
VERTEX
  5
159A
  8
0
 10
402.9030197393687
 20
101.9246476794737
 30
0.0
 70
   192
  0
VERTEX
  5
159B
  8
0
 10
451.5412273853108
 20
-158.3727453651342
 30
0.0
 70
   192
  0
VERTEX
  5
159C
  8
0
 10
451.5412273853108
 20
-158.3727453651344
 30
-6.0
 70
   192
  0
VERTEX
  5
159D
  8
0
 10
343.6559368956566
 20
220.9636659483475
 30
-5.999999999999998
 70
   192
  0
VERTEX
  5
159E
  8
0
 10
343.6559368956566
 20
220.9636659483475
 30
0.0
 70
   192
  0
VERTEX
  5
159F
  8
0
 10
0.0
 20
0.0
 30
0.0
 70
   128
 71
     1
 72
     2
 73
    -3
  0
VERTEX
  5
15A0
  8
0
 10
0.0
 20
0.0
 30
0.0
 70
   128
 71
    -1
 72
     3
 73
     4
  0
VERTEX
  5
15A1
  8
0
 10
0.0
 20
0.0
 30
0.0
 70
   128
 71
     5
 72
     6
 73
    -2
  0
VERTEX
  5
15A2
  8
0
 10
0.0
 20
0.0
 30
0.0
 70
   128
 71
    -5
 72
     2
 73
     1
  0
VERTEX
  5
15A3
  8
0
 10
0.0
 20
0.0
 30
0.0
 70
   128
 71
     4
 72
     3
 73
    -7
  0
VERTEX
  5
15A4
  8
0
 10
0.0
 20
0.0
 30
0.0
 70
   128
 71
    -4
 72
     7
 73
     8
  0
SEQEND
  5
1A0A
  8
0
  0
POLYLINE
  5
15A5
  8
0
 66
     1
 10
0.0
 20
0.0
 30
0.0
 70
    64
 71
     9
 72
     7
  0
VERTEX
  5
15A6
  8
0
 10
337.7015142567342
 20
-305.7659731963949
 30
0.0
 70
   192
  0
VERTEX
  5
15A7
  8
0
 10
337.7015142567342
 20
-305.7659731963949
 30
-6.0
 70
   192
  0
VERTEX
  5
15A8
  8
0
 10
337.7020962599659
 20
-305.7633592317159
 30
-5.999999999999998
 70
   192
  0
VERTEX
  5
15A9
  8
0
 10
390.1081403510627
 20
-298.2733763187439
 30
0.0
 70
   192
  0
VERTEX
  5
15AA
  8
0
 10
390.1072956711035
 20
-298.2708350484175
 30
-5.999999999999998
 70
   192
  0
VERTEX
  5
15AB
  8
0
 10
431.2043560088774
 20
-264.9020700794862
 30
-5.999999999999998
 70
   192
  0
VERTEX
  5
15AC
  8
0
 10
431.2063870126981
 20
-264.9038155199995
 30
0.0
 70
   192
  0
VERTEX
  5
15AD
  8
0
 10
449.2988340068368
 20
-215.1523694779774
 30
-5.999999999999998
 70
   192
  0
VERTEX
  5
15AE
  8
0
 10
449.3014733988043
 20
-215.1528224119106
 30
0.0
 70
   192
  0
VERTEX
  5
15AF
  8
0
 10
0.0
 20
0.0
 30
0.0
 70
   128
 71
     1
 72
     2
 73
     3
  0
VERTEX
  5
15B0
  8
0
 10
0.0
 20
0.0
 30
0.0
 70
   128
 71
     4
 72
     5
 73
     6
  0
VERTEX
  5
15B1
  8
0
 10
0.0
 20
0.0
 30
0.0
 70
   128
 71
     4
 72
     6
 73
     7
  0
VERTEX
  5
15B2
  8
0
 10
0.0
 20
0.0
 30
0.0
 70
   128
 71
     1
 72
     3
 73
     5
  0
VERTEX
  5
15B3
  8
0
 10
0.0
 20
0.0
 30
0.0
 70
   128
 71
     1
 72
     5
 73
     4
  0
VERTEX
  5
15B4
  8
0
 10
0.0
 20
0.0
 30
0.0
 70
   128
 71
     7
 72
     6
 73
     8
  0
VERTEX
  5
15B5
  8
0
 10
0.0
 20
0.0
 30
0.0
 70
   128
 71
     7
 72
     8
 73
     9
  0
SEQEND
  5
1A0B
  8
0
  0
POLYLINE
  5
15B6
  8
0
 66
     1
 10
0.0
 20
0.0
 30
0.0
 70
    64
 71
     9
 72
     7
  0
VERTEX
  5
15B7
  8
0
 10
-369.5725179583103
 20
-93.1030305329341
 30
0.0
 70
   192
  0
VERTEX
  5
15B8
  8
0
 10
-369.57251795831
 20
-93.10303053293455
 30
-6.0
 70
   192
  0
VERTEX
  5
15B9
  8
0
 10
-369.5711244281893
 20
-93.10074369690756
 30
-5.999999999999998
 70
   192
  0
VERTEX
  5
15BA
  8
0
 10
-142.056858783853
 20
-189.6925056749371
 30
0.0
 70
   192
  0
VERTEX
  5
15BB
  8
0
 10
-142.0557232671756
 20
-189.6900803611254
 30
-5.999999999999998
 70
   192
  0
VERTEX
  5
15BC
  8
0
 10
94.64539425859368
 20
-260.8612731623032
 30
-5.999999999999998
 70
   192
  0
VERTEX
  5
15BD
  8
0
 10
94.6445303322372
 20
-260.8638079554819
 30
0.0
 70
   192
  0
VERTEX
  5
15BE
  8
0
 10
337.7020962631799
 20
-305.7633592312638
 30
-5.999999999999998
 70
   192
  0
VERTEX
  5
15BF
  8
0
 10
337.7015142567342
 20
-305.7659731963949
 30
0.0
 70
   192
  0
VERTEX
  5
15C0
  8
0
 10
0.0
 20
0.0
 30
0.0
 70
   128
 71
     1
 72
     2
 73
     3
  0
VERTEX
  5
15C1
  8
0
 10
0.0
 20
0.0
 30
0.0
 70
   128
 71
     4
 72
     5
 73
     6
  0
VERTEX
  5
15C2
  8
0
 10
0.0
 20
0.0
 30
0.0
 70
   128
 71
     4
 72
     6
 73
     7
  0
VERTEX
  5
15C3
  8
0
 10
0.0
 20
0.0
 30
0.0
 70
   128
 71
     1
 72
     3
 73
     5
  0
VERTEX
  5
15C4
  8
0
 10
0.0
 20
0.0
 30
0.0
 70
   128
 71
     1
 72
     5
 73
     4
  0
VERTEX
  5
15C5
  8
0
 10
0.0
 20
0.0
 30
0.0
 70
   128
 71
     7
 72
     6
 73
     8
  0
VERTEX
  5
15C6
  8
0
 10
0.0
 20
0.0
 30
0.0
 70
   128
 71
     7
 72
     8
 73
     9
  0
SEQEND
  5
1A0C
  8
0
  0
POLYLINE
  5
15C7
  8
0
 66
     1
 10
0.0
 20
0.0
 30
0.0
 70
    64
 71
     8
 72
     6
  0
VERTEX
  5
15C8
  8
0
 10
-414.5269229677057
 20
-11.15793801948166
 30
-22.0
 70
   192
  0
VERTEX
  5
15C9
  8
0
 10
-417.3995937682794
 20
70.47870956430802
 30
-22.0
 70
   192
  0
VERTEX
  5
15CA
  8
0
 10
-417.3995937682794
 20
70.47870956430802
 30
0.0
 70
   192
  0
VERTEX
  5
15CB
  8
0
 10
-414.5269229677057
 20
-11.15793801948166
 30
0.0
 70
   192
  0
VERTEX
  5
15CC
  8
0
 10
-365.7529051350385
 20
133.7670498764809
 30
-22.0
 70
   192
  0
VERTEX
  5
15CD
  8
0
 10
-365.7529051350385
 20
133.7670498764809
 30
0.0
 70
   192
  0
VERTEX
  5
15CE
  8
0
 10
-358.5594425018207
 20
-70.6594976339081
 30
-22.0
 70
   192
  0
VERTEX
  5
15CF
  8
0
 10
-358.5594425018205
 20
-70.65949763390765
 30
0.0
 70
   192
  0
VERTEX
  5
15D0
  8
0
 10
0.0
 20
0.0
 30
0.0
 70
   128
 71
     1
 72
     2
 73
    -3
  0
VERTEX
  5
15D1
  8
0
 10
0.0
 20
0.0
 30
0.0
 70
   128
 71
     4
 72
    -1
 73
     3
  0
VERTEX
  5
15D2
  8
0
 10
0.0
 20
0.0
 30
0.0
 70
   128
 71
     2
 72
     5
 73
    -6
  0
VERTEX
  5
15D3
  8
0
 10
0.0
 20
0.0
 30
0.0
 70
   128
 71
     3
 72
    -2
 73
     6
  0
VERTEX
  5
15D4
  8
0
 10
0.0
 20
0.0
 30
0.0
 70
   128
 71
     7
 72
     1
 73
    -4
  0
VERTEX
  5
15D5
  8
0
 10
0.0
 20
0.0
 30
0.0
 70
   128
 71
     8
 72
    -7
 73
     4
  0
SEQEND
  5
1A0D
  8
0
  0
POLYLINE
  5
15D6
  8
0
 66
     1
 10
0.0
 20
0.0
 30
0.0
 70
    64
 71
    42
 72
    42
  0
VERTEX
  5
15D7
  8
0
 10
-369.5725179583103
 20
-93.1030305329341
 30
-22.0
 70
   192
  0
VERTEX
  5
15D8
  8
0
 10
-142.056858783853
 20
-189.6925056749371
 30
-22.0
 70
   192
  0
VERTEX
  5
15D9
  8
0
 10
94.6445303322372
 20
-260.8638079554819
 30
-22.0
 70
   192
  0
VERTEX
  5
15DA
  8
0
 10
337.7015142567342
 20
-305.7659731963949
 30
-22.0
 70
   192
  0
VERTEX
  5
15DB
  8
0
 10
390.1081403510627
 20
-298.2733763187439
 30
-22.0
 70
   192
  0
VERTEX
  5
15DC
  8
0
 10
431.2063870126981
 20
-264.9038155199995
 30
-22.0
 70
   192
  0
VERTEX
  5
15DD
  8
0
 10
449.3014733988044
 20
-215.1528224119107
 30
-22.0
 70
   192
  0
VERTEX
  5
15DE
  8
0
 10
450.5454945681954
 20
-196.2479349849783
 30
-22.0
 70
   192
  0
VERTEX
  5
15DF
  8
0
 10
451.2922511829776
 20
-177.3168834596889
 30
-22.0
 70
   192
  0
VERTEX
  5
15E0
  8
0
 10
451.5412273853108
 20
-158.3727453651342
 30
-22.0
 70
   192
  0
VERTEX
  5
15E1
  8
0
 10
439.2773504004469
 20
-25.97145376566706
 30
-22.0
 70
   192
  0
VERTEX
  5
15E2
  8
0
 10
402.9030197393687
 20
101.9246476794737
 30
-22.0
 70
   192
  0
VERTEX
  5
15E3
  8
0
 10
343.6559368956566
 20
220.9636659483475
 30
-22.0
 70
   192
  0
VERTEX
  5
15E4
  8
0
 10
298.2843512089458
 20
271.7367417195397
 30
-22.0
 70
   192
  0
VERTEX
  5
15E5
  8
0
 10
238.2472360366748
 20
303.8619781044322
 30
-22.0
 70
   192
  0
VERTEX
  5
15E6
  8
0
 10
170.8324531778419
 20
313.4397159944642
 30
-22.0
 70
   192
  0
VERTEX
  5
15E7
  8
0
 10
-20.07858157233596
 20
291.1817994985092
 30
-22.0
 70
   192
  0
VERTEX
  5
15E8
  8
0
 10
-204.784146650092
 20
238.0189152141579
 30
-22.0
 70
   192
  0
VERTEX
  5
15E9
  8
0
 10
-378.3162958086868
 20
155.3809624047883
 30
-22.0
 70
   192
  0
VERTEX
  5
15EA
  8
0
 10
-441.0937362629255
 20
78.45289362560496
 30
-22.0
 70
   192
  0
VERTEX
  5
15EB
  8
0
 10
-437.6019553782247
 20
-20.77785897828035
 30
-22.0
 70
   192
  0
VERTEX
  5
15EC
  8
0
 10
-358.5594425018205
 20
-70.65949763390765
 30
-22.0
 70
   192
  0
VERTEX
  5
15ED
  8
0
 10
-414.5269229677057
 20
-11.15793801948166
 30
-22.0
 70
   192
  0
VERTEX
  5
15EE
  8
0
 10
-417.3995937682794
 20
70.47870956430802
 30
-22.0
 70
   192
  0
VERTEX
  5
15EF
  8
0
 10
-365.7529051350385
 20
133.7670498764804
 30
-22.0
 70
   192
  0
VERTEX
  5
15F0
  8
0
 10
-195.9224935832725
 20
214.6421937818589
 30
-22.0
 70
   192
  0
VERTEX
  5
15F1
  8
0
 10
-15.15701418850952
 20
266.6710227975059
 30
-22.0
 70
   192
  0
VERTEX
  5
15F2
  8
0
 10
171.6815615947284
 20
288.4541398574934
 30
-22.0
 70
   192
  0
VERTEX
  5
15F3
  8
0
 10
230.4727002882697
 20
280.1015784045792
 30
-22.0
 70
   192
  0
VERTEX
  5
15F4
  8
0
 10
282.8299165422211
 20
252.0857761164978
 30
-22.0
 70
   192
  0
VERTEX
  5
15F5
  8
0
 10
322.397605908498
 20
207.8075508819456
 30
-22.0
 70
   192
  0
VERTEX
  5
15F6
  8
0
 10
379.589886165394
 20
92.89703432034023
 30
-22.0
 70
   192
  0
VERTEX
  5
15F7
  8
0
 10
414.7026852008011
 20
-30.56338476746944
 30
-22.0
 70
   192
  0
VERTEX
  5
15F8
  8
0
 10
426.5412273853109
 20
-158.3727453651344
 30
-22.0
 70
   192
  0
VERTEX
  5
15F9
  8
0
 10
426.3008861557065
 20
-176.6598643780173
 30
-22.0
 70
   192
  0
VERTEX
  5
15FA
  8
0
 10
425.58002849409
 20
-194.9343506889833
 30
-22.0
 70
   192
  0
VERTEX
  5
15FB
  8
0
 10
424.3791523673611
 20
-213.1835803227582
 30
-22.0
 70
   192
  0
VERTEX
  5
15FC
  8
0
 10
410.8423881174687
 20
-250.4018312076684
 30
-22.0
 70
   192
  0
VERTEX
  5
15FD
  8
0
 10
380.0971756177008
 20
-275.3652863698331
 30
-22.0
 70
   192
  0
VERTEX
  5
15FE
  8
0
 10
340.8922706267031
 20
-280.9704277539674
 30
-22.0
 70
   192
  0
VERTEX
  5
15FF
  8
0
 10
100.5234516819243
 20
-236.5648720988609
 30
-22.0
 70
   192
  0
VERTEX
  5
1600
  8
0
 10
-133.5600641494785
 20
-166.1807111678975
 30
-22.0
 70
   192
  0
VERTEX
  5
1601
  8
0
 10
0.0
 20
0.0
 30
0.0
 70
   128
 71
    37
 72
   -36
 73
    -8
  0
VERTEX
  5
1602
  8
0
 10
0.0
 20
0.0
 30
0.0
 70
   128
 71
     8
 72
     7
 73
    -6
  0
VERTEX
  5
1603
  8
0
 10
0.0
 20
0.0
 30
0.0
 70
   128
 71
    -8
 72
    -6
 73
   -38
  0
VERTEX
  5
1604
  8
0
 10
0.0
 20
0.0
 30
0.0
 70
   128
 71
    -8
 72
    38
 73
   -37
  0
VERTEX
  5
1605
  8
0
 10
0.0
 20
0.0
 30
0.0
 70
   128
 71
     6
 72
    -5
 73
   -39
  0
VERTEX
  5
1606
  8
0
 10
0.0
 20
0.0
 30
0.0
 70
   128
 71
    -6
 72
    39
 73
   -38
  0
VERTEX
  5
1607
  8
0
 10
0.0
 20
0.0
 30
0.0
 70
   128
 71
    -5
 72
    40
 73
   -39
  0
VERTEX
  5
1608
  8
0
 10
0.0
 20
0.0
 30
0.0
 70
   128
 71
     5
 72
     4
 73
    -3
  0
VERTEX
  5
1609
  8
0
 10
0.0
 20
0.0
 30
0.0
 70
   128
 71
    -5
 72
    -3
 73
   -41
  0
VERTEX
  5
160A
  8
0
 10
0.0
 20
0.0
 30
0.0
 70
   128
 71
    -5
 72
    41
 73
   -40
  0
VERTEX
  5
160B
  8
0
 10
0.0
 20
0.0
 30
0.0
 70
   128
 71
     3
 72
    -2
 73
   -42
  0
VERTEX
  5
160C
  8
0
 10
0.0
 20
0.0
 30
0.0
 70
   128
 71
    -3
 72
    42
 73
   -41
  0
VERTEX
  5
160D
  8
0
 10
0.0
 20
0.0
 30
0.0
 70
   128
 71
     2
 72
    -1
 73
   -22
  0
VERTEX
  5
160E
  8
0
 10
0.0
 20
0.0
 30
0.0
 70
   128
 71
    -2
 72
    22
 73
   -42
  0
VERTEX
  5
160F
  8
0
 10
0.0
 20
0.0
 30
0.0
 70
   128
 71
    36
 72
   -35
 73
    -9
  0
VERTEX
  5
1610
  8
0
 10
0.0
 20
0.0
 30
0.0
 70
   128
 71
   -36
 72
     9
 73
    -8
  0
VERTEX
  5
1611
  8
0
 10
0.0
 20
0.0
 30
0.0
 70
   128
 71
    23
 72
   -22
 73
    -1
  0
VERTEX
  5
1612
  8
0
 10
0.0
 20
0.0
 30
0.0
 70
   128
 71
   -23
 72
     1
 73
   -21
  0
VERTEX
  5
1613
  8
0
 10
0.0
 20
0.0
 30
0.0
 70
   128
 71
    21
 72
   -20
 73
   -24
  0
VERTEX
  5
1614
  8
0
 10
0.0
 20
0.0
 30
0.0
 70
   128
 71
   -21
 72
    24
 73
   -23
  0
VERTEX
  5
1615
  8
0
 10
0.0
 20
0.0
 30
0.0
 70
   128
 71
    20
 72
   -19
 73
   -25
  0
VERTEX
  5
1616
  8
0
 10
0.0
 20
0.0
 30
0.0
 70
   128
 71
   -20
 72
    25
 73
   -24
  0
VERTEX
  5
1617
  8
0
 10
0.0
 20
0.0
 30
0.0
 70
   128
 71
    19
 72
   -18
 73
   -26
  0
VERTEX
  5
1618
  8
0
 10
0.0
 20
0.0
 30
0.0
 70
   128
 71
   -19
 72
    26
 73
   -25
  0
VERTEX
  5
1619
  8
0
 10
0.0
 20
0.0
 30
0.0
 70
   128
 71
    18
 72
   -17
 73
   -27
  0
VERTEX
  5
161A
  8
0
 10
0.0
 20
0.0
 30
0.0
 70
   128
 71
   -18
 72
    27
 73
   -26
  0
VERTEX
  5
161B
  8
0
 10
0.0
 20
0.0
 30
0.0
 70
   128
 71
    17
 72
   -16
 73
   -28
  0
VERTEX
  5
161C
  8
0
 10
0.0
 20
0.0
 30
0.0
 70
   128
 71
   -17
 72
    28
 73
   -27
  0
VERTEX
  5
161D
  8
0
 10
0.0
 20
0.0
 30
0.0
 70
   128
 71
    16
 72
   -15
 73
   -29
  0
VERTEX
  5
161E
  8
0
 10
0.0
 20
0.0
 30
0.0
 70
   128
 71
   -16
 72
    29
 73
   -28
  0
VERTEX
  5
161F
  8
0
 10
0.0
 20
0.0
 30
0.0
 70
   128
 71
    15
 72
   -14
 73
   -30
  0
VERTEX
  5
1620
  8
0
 10
0.0
 20
0.0
 30
0.0
 70
   128
 71
   -15
 72
    30
 73
   -29
  0
VERTEX
  5
1621
  8
0
 10
0.0
 20
0.0
 30
0.0
 70
   128
 71
    14
 72
   -13
 73
   -31
  0
VERTEX
  5
1622
  8
0
 10
0.0
 20
0.0
 30
0.0
 70
   128
 71
   -14
 72
    31
 73
   -30
  0
VERTEX
  5
1623
  8
0
 10
0.0
 20
0.0
 30
0.0
 70
   128
 71
    13
 72
   -12
 73
   -32
  0
VERTEX
  5
1624
  8
0
 10
0.0
 20
0.0
 30
0.0
 70
   128
 71
   -13
 72
    32
 73
   -31
  0
VERTEX
  5
1625
  8
0
 10
0.0
 20
0.0
 30
0.0
 70
   128
 71
    12
 72
   -11
 73
   -33
  0
VERTEX
  5
1626
  8
0
 10
0.0
 20
0.0
 30
0.0
 70
   128
 71
   -12
 72
    33
 73
   -32
  0
VERTEX
  5
1627
  8
0
 10
0.0
 20
0.0
 30
0.0
 70
   128
 71
    11
 72
   -10
 73
   -34
  0
VERTEX
  5
1628
  8
0
 10
0.0
 20
0.0
 30
0.0
 70
   128
 71
   -11
 72
    34
 73
   -33
  0
VERTEX
  5
1629
  8
0
 10
0.0
 20
0.0
 30
0.0
 70
   128
 71
    10
 72
    -9
 73
   -35
  0
VERTEX
  5
162A
  8
0
 10
0.0
 20
0.0
 30
0.0
 70
   128
 71
   -10
 72
    35
 73
   -34
  0
SEQEND
  5
1A0E
  8
0
  0
POLYLINE
  5
162B
  8
0
 66
     1
 10
0.0
 20
0.0
 30
0.0
 70
    64
 71
    42
 72
    42
  0
VERTEX
  5
162C
  8
0
 10
-378.3162958086868
 20
155.3809624047883
 30
0.0
 70
   192
  0
VERTEX
  5
162D
  8
0
 10
-441.0937362629255
 20
78.45289362560496
 30
0.0
 70
   192
  0
VERTEX
  5
162E
  8
0
 10
-437.6019553782247
 20
-20.77785897828035
 30
0.0
 70
   192
  0
VERTEX
  5
162F
  8
0
 10
-369.5725179583101
 20
-93.10303053293455
 30
0.0
 70
   192
  0
VERTEX
  5
1630
  8
0
 10
-142.056858783853
 20
-189.6925056749371
 30
0.0
 70
   192
  0
VERTEX
  5
1631
  8
0
 10
94.6445303322372
 20
-260.8638079554819
 30
0.0
 70
   192
  0
VERTEX
  5
1632
  8
0
 10
337.7015142567341
 20
-305.7659731963952
 30
0.0
 70
   192
  0
VERTEX
  5
1633
  8
0
 10
390.1081403510627
 20
-298.2733763187439
 30
0.0
 70
   192
  0
VERTEX
  5
1634
  8
0
 10
431.2063870126981
 20
-264.9038155199995
 30
0.0
 70
   192
  0
VERTEX
  5
1635
  8
0
 10
449.3014733988042
 20
-215.1528224119107
 30
0.0
 70
   192
  0
VERTEX
  5
1636
  8
0
 10
450.5454945681954
 20
-196.2479349849783
 30
0.0
 70
   192
  0
VERTEX
  5
1637
  8
0
 10
451.2922511829776
 20
-177.3168834596889
 30
0.0
 70
   192
  0
VERTEX
  5
1638
  8
0
 10
451.5412273853108
 20
-158.3727453651344
 30
0.0
 70
   192
  0
VERTEX
  5
1639
  8
0
 10
439.2773504004469
 20
-25.97145376566706
 30
0.0
 70
   192
  0
VERTEX
  5
163A
  8
0
 10
402.9030197393687
 20
101.9246476794737
 30
0.0
 70
   192
  0
VERTEX
  5
163B
  8
0
 10
343.6559368956565
 20
220.9636659483476
 30
0.0
 70
   192
  0
VERTEX
  5
163C
  8
0
 10
298.2843512089458
 20
271.7367417195397
 30
0.0
 70
   192
  0
VERTEX
  5
163D
  8
0
 10
238.2472360366748
 20
303.8619781044322
 30
0.0
 70
   192
  0
VERTEX
  5
163E
  8
0
 10
170.8324531778418
 20
313.4397159944643
 30
0.0
 70
   192
  0
VERTEX
  5
163F
  8
0
 10
-20.07858157233596
 20
291.1817994985092
 30
0.0
 70
   192
  0
VERTEX
  5
1640
  8
0
 10
-204.784146650092
 20
238.0189152141579
 30
0.0
 70
   192
  0
VERTEX
  5
1641
  8
0
 10
340.8922706267031
 20
-280.9704277539674
 30
0.0
 70
   192
  0
VERTEX
  5
1642
  8
0
 10
100.5234516819243
 20
-236.5648720988609
 30
0.0
 70
   192
  0
VERTEX
  5
1643
  8
0
 10
-133.5600641494785
 20
-166.1807111678975
 30
0.0
 70
   192
  0
VERTEX
  5
1644
  8
0
 10
-358.559442501821
 20
-70.65949763390813
 30
0.0
 70
   192
  0
VERTEX
  5
1645
  8
0
 10
-414.5269229677057
 20
-11.15793801948166
 30
0.0
 70
   192
  0
VERTEX
  5
1646
  8
0
 10
-417.3995937682794
 20
70.47870956430802
 30
0.0
 70
   192
  0
VERTEX
  5
1647
  8
0
 10
-365.7529051350385
 20
133.7670498764809
 30
0.0
 70
   192
  0
VERTEX
  5
1648
  8
0
 10
-195.9224935832725
 20
214.6421937818589
 30
0.0
 70
   192
  0
VERTEX
  5
1649
  8
0
 10
-15.15701418850952
 20
266.6710227975059
 30
0.0
 70
   192
  0
VERTEX
  5
164A
  8
0
 10
171.6815615947286
 20
288.4541398574936
 30
0.0
 70
   192
  0
VERTEX
  5
164B
  8
0
 10
230.4727002882697
 20
280.1015784045792
 30
0.0
 70
   192
  0
VERTEX
  5
164C
  8
0
 10
282.8299165422211
 20
252.0857761164978
 30
0.0
 70
   192
  0
VERTEX
  5
164D
  8
0
 10
322.3976059084979
 20
207.8075508819455
 30
0.0
 70
   192
  0
VERTEX
  5
164E
  8
0
 10
379.589886165394
 20
92.89703432034023
 30
0.0
 70
   192
  0
VERTEX
  5
164F
  8
0
 10
414.7026852008011
 20
-30.56338476746944
 30
0.0
 70
   192
  0
VERTEX
  5
1650
  8
0
 10
426.5412273853109
 20
-158.3727453651342
 30
0.0
 70
   192
  0
VERTEX
  5
1651
  8
0
 10
426.3008861557065
 20
-176.6598643780173
 30
0.0
 70
   192
  0
VERTEX
  5
1652
  8
0
 10
425.58002849409
 20
-194.9343506889833
 30
0.0
 70
   192
  0
VERTEX
  5
1653
  8
0
 10
424.3791523673613
 20
-213.1835803227582
 30
0.0
 70
   192
  0
VERTEX
  5
1654
  8
0
 10
410.8423881174687
 20
-250.4018312076684
 30
0.0
 70
   192
  0
VERTEX
  5
1655
  8
0
 10
380.0971756177008
 20
-275.3652863698331
 30
0.0
 70
   192
  0
VERTEX
  5
1656
  8
0
 10
0.0
 20
0.0
 30
0.0
 70
   128
 71
   -11
 72
    39
 73
   -40
  0
VERTEX
  5
1657
  8
0
 10
0.0
 20
0.0
 30
0.0
 70
   128
 71
     9
 72
    10
 73
   -11
  0
VERTEX
  5
1658
  8
0
 10
0.0
 20
0.0
 30
0.0
 70
   128
 71
   -41
 72
    -9
 73
   -11
  0
VERTEX
  5
1659
  8
0
 10
0.0
 20
0.0
 30
0.0
 70
   128
 71
    40
 72
   -41
 73
   -11
  0
VERTEX
  5
165A
  8
0
 10
0.0
 20
0.0
 30
0.0
 70
   128
 71
   -42
 72
     8
 73
    -9
  0
VERTEX
  5
165B
  8
0
 10
0.0
 20
0.0
 30
0.0
 70
   128
 71
    41
 72
   -42
 73
    -9
  0
VERTEX
  5
165C
  8
0
 10
0.0
 20
0.0
 30
0.0
 70
   128
 71
    42
 72
   -22
 73
    -8
  0
VERTEX
  5
165D
  8
0
 10
0.0
 20
0.0
 30
0.0
 70
   128
 71
   -12
 72
    38
 73
   -39
  0
VERTEX
  5
165E
  8
0
 10
0.0
 20
0.0
 30
0.0
 70
   128
 71
    11
 72
   -12
 73
   -39
  0
VERTEX
  5
165F
  8
0
 10
0.0
 20
0.0
 30
0.0
 70
   128
 71
    -8
 72
    22
 73
   -23
  0
VERTEX
  5
1660
  8
0
 10
0.0
 20
0.0
 30
0.0
 70
   128
 71
     7
 72
    -8
 73
   -23
  0
VERTEX
  5
1661
  8
0
 10
0.0
 20
0.0
 30
0.0
 70
   128
 71
     6
 72
    -7
 73
   -23
  0
VERTEX
  5
1662
  8
0
 10
0.0
 20
0.0
 30
0.0
 70
   128
 71
   -24
 72
     5
 73
    -6
  0
VERTEX
  5
1663
  8
0
 10
0.0
 20
0.0
 30
0.0
 70
   128
 71
    23
 72
   -24
 73
    -6
  0
VERTEX
  5
1664
  8
0
 10
0.0
 20
0.0
 30
0.0
 70
   128
 71
   -25
 72
     4
 73
    -5
  0
VERTEX
  5
1665
  8
0
 10
0.0
 20
0.0
 30
0.0
 70
   128
 71
    24
 72
   -25
 73
    -5
  0
VERTEX
  5
1666
  8
0
 10
0.0
 20
0.0
 30
0.0
 70
   128
 71
   -26
 72
     3
 73
    -4
  0
VERTEX
  5
1667
  8
0
 10
0.0
 20
0.0
 30
0.0
 70
   128
 71
    25
 72
   -26
 73
    -4
  0
VERTEX
  5
1668
  8
0
 10
0.0
 20
0.0
 30
0.0
 70
   128
 71
   -27
 72
     2
 73
    -3
  0
VERTEX
  5
1669
  8
0
 10
0.0
 20
0.0
 30
0.0
 70
   128
 71
    26
 72
   -27
 73
    -3
  0
VERTEX
  5
166A
  8
0
 10
0.0
 20
0.0
 30
0.0
 70
   128
 71
   -28
 72
     1
 73
    -2
  0
VERTEX
  5
166B
  8
0
 10
0.0
 20
0.0
 30
0.0
 70
   128
 71
    27
 72
   -28
 73
    -2
  0
VERTEX
  5
166C
  8
0
 10
0.0
 20
0.0
 30
0.0
 70
   128
 71
   -29
 72
    21
 73
    -1
  0
VERTEX
  5
166D
  8
0
 10
0.0
 20
0.0
 30
0.0
 70
   128
 71
    28
 72
   -29
 73
    -1
  0
VERTEX
  5
166E
  8
0
 10
0.0
 20
0.0
 30
0.0
 70
   128
 71
   -30
 72
    20
 73
   -21
  0
VERTEX
  5
166F
  8
0
 10
0.0
 20
0.0
 30
0.0
 70
   128
 71
    29
 72
   -30
 73
   -21
  0
VERTEX
  5
1670
  8
0
 10
0.0
 20
0.0
 30
0.0
 70
   128
 71
   -31
 72
    19
 73
   -20
  0
VERTEX
  5
1671
  8
0
 10
0.0
 20
0.0
 30
0.0
 70
   128
 71
    30
 72
   -31
 73
   -20
  0
VERTEX
  5
1672
  8
0
 10
0.0
 20
0.0
 30
0.0
 70
   128
 71
   -32
 72
    18
 73
   -19
  0
VERTEX
  5
1673
  8
0
 10
0.0
 20
0.0
 30
0.0
 70
   128
 71
    31
 72
   -32
 73
   -19
  0
VERTEX
  5
1674
  8
0
 10
0.0
 20
0.0
 30
0.0
 70
   128
 71
   -33
 72
    17
 73
   -18
  0
VERTEX
  5
1675
  8
0
 10
0.0
 20
0.0
 30
0.0
 70
   128
 71
    32
 72
   -33
 73
   -18
  0
VERTEX
  5
1676
  8
0
 10
0.0
 20
0.0
 30
0.0
 70
   128
 71
   -34
 72
    16
 73
   -17
  0
VERTEX
  5
1677
  8
0
 10
0.0
 20
0.0
 30
0.0
 70
   128
 71
    33
 72
   -34
 73
   -17
  0
VERTEX
  5
1678
  8
0
 10
0.0
 20
0.0
 30
0.0
 70
   128
 71
   -35
 72
    15
 73
   -16
  0
VERTEX
  5
1679
  8
0
 10
0.0
 20
0.0
 30
0.0
 70
   128
 71
    34
 72
   -35
 73
   -16
  0
VERTEX
  5
167A
  8
0
 10
0.0
 20
0.0
 30
0.0
 70
   128
 71
   -36
 72
    14
 73
   -15
  0
VERTEX
  5
167B
  8
0
 10
0.0
 20
0.0
 30
0.0
 70
   128
 71
    35
 72
   -36
 73
   -15
  0
VERTEX
  5
167C
  8
0
 10
0.0
 20
0.0
 30
0.0
 70
   128
 71
   -37
 72
    13
 73
   -14
  0
VERTEX
  5
167D
  8
0
 10
0.0
 20
0.0
 30
0.0
 70
   128
 71
    36
 72
   -37
 73
   -14
  0
VERTEX
  5
167E
  8
0
 10
0.0
 20
0.0
 30
0.0
 70
   128
 71
   -38
 72
    12
 73
   -13
  0
VERTEX
  5
167F
  8
0
 10
0.0
 20
0.0
 30
0.0
 70
   128
 71
    37
 72
   -38
 73
   -13
  0
SEQEND
  5
1A0F
  8
0
  0
POLYLINE
  5
1680
  8
0
 66
     1
 10
0.0
 20
0.0
 30
0.0
 70
    64
 71
    12
 72
    10
  0
VERTEX
  5
1681
  8
0
 10
65.76292606841552
 20
-227.8593611714317
 30
-8.26877106273416
 70
   192
  0
VERTEX
  5
1682
  8
0
 10
65.35000000000002
 20
-227.7523805429308
 30
-6.75
 70
   192
  0
VERTEX
  5
1683
  8
0
 10
65.35000000000001
 20
-149.300000000001
 30
-6.75
 70
   192
  0
VERTEX
  5
1684
  8
0
 10
66.22867965644036
 20
-149.300000000001
 30
-8.871320343559644
 70
   192
  0
VERTEX
  5
1685
  8
0
 10
66.86788254934709
 20
-228.145219147557
 30
-9.358349254877982
 70
   192
  0
VERTEX
  5
1686
  8
0
 10
68.35000000000001
 20
-149.300000000001
 30
-9.750000000000004
 70
   192
  0
VERTEX
  5
1687
  8
0
 10
68.35000000000025
 20
-228.5277056785293
 30
-9.750000000000004
 70
   192
  0
VERTEX
  5
1688
  8
0
 10
69.85000000000015
 20
-228.5277056785293
 30
-9.348076211353243
 70
   192
  0
VERTEX
  5
1689
  8
0
 10
70.47132034355965
 20
-149.300000000001
 30
-8.871320343559645
 70
   192
  0
VERTEX
  5
168A
  8
0
 10
71.35000000000001
 20
-149.300000000001
 30
-6.75
 70
   192
  0
VERTEX
  5
168B
  8
0
 10
71.35000000000002
 20
-228.5277056785292
 30
-6.75
 70
   192
  0
VERTEX
  5
168C
  8
0
 10
70.94807621135338
 20
-228.5277056785293
 30
-8.249999999999936
 70
   192
  0
VERTEX
  5
168D
  8
0
 10
0.0
 20
0.0
 30
0.0
 70
   128
 71
     1
 72
     2
 73
     3
  0
VERTEX
  5
168E
  8
0
 10
0.0
 20
0.0
 30
0.0
 70
   128
 71
     1
 72
     3
 73
     4
  0
VERTEX
  5
168F
  8
0
 10
0.0
 20
0.0
 30
0.0
 70
   128
 71
     5
 72
     4
 73
     6
  0
VERTEX
  5
1690
  8
0
 10
0.0
 20
0.0
 30
0.0
 70
   128
 71
     6
 72
     7
 73
     5
  0
VERTEX
  5
1691
  8
0
 10
0.0
 20
0.0
 30
0.0
 70
   128
 71
     8
 72
     7
 73
     6
  0
VERTEX
  5
1692
  8
0
 10
0.0
 20
0.0
 30
0.0
 70
   128
 71
     8
 72
     6
 73
     9
  0
VERTEX
  5
1693
  8
0
 10
0.0
 20
0.0
 30
0.0
 70
   128
 71
     9
 72
    10
 73
    11
  0
VERTEX
  5
1694
  8
0
 10
0.0
 20
0.0
 30
0.0
 70
   128
 71
     9
 72
    11
 73
    12
  0
VERTEX
  5
1695
  8
0
 10
0.0
 20
0.0
 30
0.0
 70
   128
 71
     8
 72
     9
 73
    12
  0
VERTEX
  5
1696
  8
0
 10
0.0
 20
0.0
 30
0.0
 70
   128
 71
     1
 72
     4
 73
     5
  0
SEQEND
  5
1A10
  8
0
  0
POLYLINE
  5
1697
  8
0
 66
     1
 10
0.0
 20
0.0
 30
0.0
 70
    64
 71
     7
 72
     5
  0
VERTEX
  5
1698
  8
0
 10
68.35000000000025
 20
-228.5277056785293
 30
-9.750000000000004
 70
   192
  0
VERTEX
  5
1699
  8
0
 10
69.85000000000015
 20
-228.5277056785293
 30
-9.348076211353243
 70
   192
  0
VERTEX
  5
169A
  8
0
 10
70.94807621135338
 20
-228.5277056785293
 30
-8.249999999999936
 70
   192
  0
VERTEX
  5
169B
  8
0
 10
71.35000000000002
 20
-228.5277056785293
 30
-6.750000000000001
 70
   192
  0
VERTEX
  5
169C
  8
0
 10
70.94807621135325
 20
-228.5277056785293
 30
-5.249999999999838
 70
   192
  0
VERTEX
  5
169D
  8
0
 10
69.84999999999971
 20
-228.5277056785293
 30
-4.151923788646497
 70
   192
  0
VERTEX
  5
169E
  8
0
 10
68.34999999999947
 20
-228.5277056785293
 30
-3.749999999999998
 70
   192
  0
VERTEX
  5
169F
  8
0
 10
0.0
 20
0.0
 30
0.0
 70
   128
 71
     6
 72
     7
 73
    -1
  0
VERTEX
  5
16A0
  8
0
 10
0.0
 20
0.0
 30
0.0
 70
   128
 71
     5
 72
    -6
 73
    -1
  0
VERTEX
  5
16A1
  8
0
 10
0.0
 20
0.0
 30
0.0
 70
   128
 71
     4
 72
    -5
 73
    -1
  0
VERTEX
  5
16A2
  8
0
 10
0.0
 20
0.0
 30
0.0
 70
   128
 71
     3
 72
    -4
 73
    -1
  0
VERTEX
  5
16A3
  8
0
 10
0.0
 20
0.0
 30
0.0
 70
   128
 71
     2
 72
    -3
 73
     1
  0
SEQEND
  5
1A11
  8
0
  0
POLYLINE
  5
16A4
  8
0
 66
     1
 10
0.0
 20
0.0
 30
0.0
 70
    64
 71
     4
 72
     2
  0
VERTEX
  5
16A5
  8
0
 10
55.85
 20
-14.80000000000089
 30
-1.0
 70
   192
  0
VERTEX
  5
16A6
  8
0
 10
55.84999999999999
 20
-14.80000000000089
 30
-13.5
 70
   192
  0
VERTEX
  5
16A7
  8
0
 10
60.85000000000091
 20
-14.80000000000089
 30
-13.5
 70
   192
  0
VERTEX
  5
16A8
  8
0
 10
60.85000000000091
 20
-14.80000000000089
 30
-1.0
 70
   192
  0
VERTEX
  5
16A9
  8
0
 10
0.0
 20
0.0
 30
0.0
 70
   128
 71
     1
 72
     4
 73
    -3
  0
VERTEX
  5
16AA
  8
0
 10
0.0
 20
0.0
 30
0.0
 70
   128
 71
    -1
 72
     3
 73
     2
  0
SEQEND
  5
1A12
  8
0
  0
POLYLINE
  5
16AB
  8
0
 66
     1
 10
0.0
 20
0.0
 30
0.0
 70
    64
 71
     8
 72
     6
  0
VERTEX
  5
16AC
  8
0
 10
65.1801270189231
 20
-12.30000000000089
 30
-13.5
 70
   192
  0
VERTEX
  5
16AD
  8
0
 10
63.35000000000091
 20
-14.13012701892308
 30
-13.5
 70
   192
  0
VERTEX
  5
16AE
  8
0
 10
63.35000000000091
 20
-14.13012701892308
 30
-1.0
 70
   192
  0
VERTEX
  5
16AF
  8
0
 10
65.1801270189231
 20
-12.30000000000089
 30
-1.0
 70
   192
  0
VERTEX
  5
16B0
  8
0
 10
60.85000000000091
 20
-14.80000000000089
 30
-13.5
 70
   192
  0
VERTEX
  5
16B1
  8
0
 10
60.85000000000091
 20
-14.80000000000089
 30
-1.0
 70
   192
  0
VERTEX
  5
16B2
  8
0
 10
65.8500000000009
 20
-9.800000000000896
 30
-13.5
 70
   192
  0
VERTEX
  5
16B3
  8
0
 10
65.8500000000009
 20
-9.800000000000896
 30
-1.0
 70
   192
  0
VERTEX
  5
16B4
  8
0
 10
0.0
 20
0.0
 30
0.0
 70
   128
 71
     1
 72
     2
 73
    -3
  0
VERTEX
  5
16B5
  8
0
 10
0.0
 20
0.0
 30
0.0
 70
   128
 71
     4
 72
    -1
 73
     3
  0
VERTEX
  5
16B6
  8
0
 10
0.0
 20
0.0
 30
0.0
 70
   128
 71
     2
 72
     5
 73
    -6
  0
VERTEX
  5
16B7
  8
0
 10
0.0
 20
0.0
 30
0.0
 70
   128
 71
     3
 72
    -2
 73
     6
  0
VERTEX
  5
16B8
  8
0
 10
0.0
 20
0.0
 30
0.0
 70
   128
 71
     7
 72
     1
 73
    -4
  0
VERTEX
  5
16B9
  8
0
 10
0.0
 20
0.0
 30
0.0
 70
   128
 71
     8
 72
    -7
 73
     4
  0
SEQEND
  5
1A13
  8
0
  0
POLYLINE
  5
16BA
  8
0
 66
     1
 10
0.0
 20
0.0
 30
0.0
 70
    64
 71
     4
 72
     2
  0
VERTEX
  5
16BB
  8
0
 10
65.8500000000009
 20
-9.800000000000896
 30
-13.5
 70
   192
  0
VERTEX
  5
16BC
  8
0
 10
65.8500000000009
 20
-9.800000000000896
 30
-1.0
 70
   192
  0
VERTEX
  5
16BD
  8
0
 10
65.8500000000009
 20
-4.79999999999999
 30
-1.0
 70
   192
  0
VERTEX
  5
16BE
  8
0
 10
65.8500000000009
 20
-4.79999999999999
 30
-13.5
 70
   192
  0
VERTEX
  5
16BF
  8
0
 10
0.0
 20
0.0
 30
0.0
 70
   128
 71
     3
 72
     4
 73
    -1
  0
VERTEX
  5
16C0
  8
0
 10
0.0
 20
0.0
 30
0.0
 70
   128
 71
     2
 72
    -3
 73
     1
  0
SEQEND
  5
1A14
  8
0
  0
POLYLINE
  5
16C1
  8
0
 66
     1
 10
0.0
 20
0.0
 30
0.0
 70
    64
 71
     4
 72
     2
  0
VERTEX
  5
16C2
  8
0
 10
85.85000000000001
 20
-144.3000000000001
 30
-13.5
 70
   192
  0
VERTEX
  5
16C3
  8
0
 10
85.85000000000001
 20
-144.3000000000001
 30
-1.0
 70
   192
  0
VERTEX
  5
16C4
  8
0
 10
85.85000000000001
 20
-149.300000000001
 30
-1.0
 70
   192
  0
VERTEX
  5
16C5
  8
0
 10
85.85000000000001
 20
-149.300000000001
 30
-13.5
 70
   192
  0
VERTEX
  5
16C6
  8
0
 10
0.0
 20
0.0
 30
0.0
 70
   128
 71
     3
 72
     4
 73
    -1
  0
VERTEX
  5
16C7
  8
0
 10
0.0
 20
0.0
 30
0.0
 70
   128
 71
     2
 72
    -3
 73
     1
  0
SEQEND
  5
1A15
  8
0
  0
POLYLINE
  5
16C8
  8
0
 66
     1
 10
0.0
 20
0.0
 30
0.0
 70
    64
 71
     4
 72
     2
  0
VERTEX
  5
16C9
  8
0
 10
95.85000000000002
 20
-139.300000000001
 30
-1.0
 70
   192
  0
VERTEX
  5
16CA
  8
0
 10
95.85000000000004
 20
-139.300000000001
 30
-13.5
 70
   192
  0
VERTEX
  5
16CB
  8
0
 10
90.84999999999913
 20
-139.300000000001
 30
-13.5
 70
   192
  0
VERTEX
  5
16CC
  8
0
 10
90.84999999999913
 20
-139.300000000001
 30
-1.0
 70
   192
  0
VERTEX
  5
16CD
  8
0
 10
0.0
 20
0.0
 30
0.0
 70
   128
 71
     1
 72
     4
 73
    -3
  0
VERTEX
  5
16CE
  8
0
 10
0.0
 20
0.0
 30
0.0
 70
   128
 71
    -1
 72
     3
 73
     2
  0
SEQEND
  5
1A16
  8
0
  0
POLYLINE
  5
16CF
  8
0
 66
     1
 10
0.0
 20
0.0
 30
0.0
 70
    64
 71
     8
 72
     6
  0
VERTEX
  5
16D0
  8
0
 10
86.5198729810777
 20
-141.8000000000006
 30
-13.5
 70
   192
  0
VERTEX
  5
16D1
  8
0
 10
88.34999999999957
 20
-139.9698729810787
 30
-13.5
 70
   192
  0
VERTEX
  5
16D2
  8
0
 10
88.34999999999957
 20
-139.9698729810787
 30
-1.0
 70
   192
  0
VERTEX
  5
16D3
  8
0
 10
86.5198729810777
 20
-141.8000000000006
 30
-1.0
 70
   192
  0
VERTEX
  5
16D4
  8
0
 10
90.84999999999913
 20
-139.300000000001
 30
-13.5
 70
   192
  0
VERTEX
  5
16D5
  8
0
 10
90.84999999999913
 20
-139.300000000001
 30
-1.0
 70
   192
  0
VERTEX
  5
16D6
  8
0
 10
85.85000000000001
 20
-144.3000000000001
 30
-13.5
 70
   192
  0
VERTEX
  5
16D7
  8
0
 10
85.85000000000001
 20
-144.3000000000001
 30
-1.0
 70
   192
  0
VERTEX
  5
16D8
  8
0
 10
0.0
 20
0.0
 30
0.0
 70
   128
 71
     1
 72
     2
 73
    -3
  0
VERTEX
  5
16D9
  8
0
 10
0.0
 20
0.0
 30
0.0
 70
   128
 71
     4
 72
    -1
 73
     3
  0
VERTEX
  5
16DA
  8
0
 10
0.0
 20
0.0
 30
0.0
 70
   128
 71
     2
 72
     5
 73
    -6
  0
VERTEX
  5
16DB
  8
0
 10
0.0
 20
0.0
 30
0.0
 70
   128
 71
     3
 72
    -2
 73
     6
  0
VERTEX
  5
16DC
  8
0
 10
0.0
 20
0.0
 30
0.0
 70
   128
 71
     7
 72
     1
 73
    -4
  0
VERTEX
  5
16DD
  8
0
 10
0.0
 20
0.0
 30
0.0
 70
   128
 71
     8
 72
    -7
 73
     4
  0
SEQEND
  5
1A17
  8
0
  0
POLYLINE
  5
16DE
  8
0
 66
     1
 10
0.0
 20
0.0
 30
0.0
 70
    64
 71
    14
 72
    14
  0
VERTEX
  5
16DF
  8
0
 10
95.85000000000002
 20
-149.300000000001
 30
0.0
 70
   192
  0
VERTEX
  5
16E0
  8
0
 10
95.85000000000004
 20
-149.300000000001
 30
-1.0
 70
   192
  0
VERTEX
  5
16E1
  8
0
 10
85.85000000000001
 20
-149.300000000001
 30
-1.0
 70
   192
  0
VERTEX
  5
16E2
  8
0
 10
85.85000000000001
 20
-149.300000000001
 30
-13.5
 70
   192
  0
VERTEX
  5
16E3
  8
0
 10
55.85000000000002
 20
-149.300000000001
 30
-13.5
 70
   192
  0
VERTEX
  5
16E4
  8
0
 10
55.85000000000002
 20
-149.300000000001
 30
0.0
 70
   192
  0
VERTEX
  5
16E5
  8
0
 10
65.35000000000001
 20
-149.300000000001
 30
-6.75
 70
   192
  0
VERTEX
  5
16E6
  8
0
 10
66.22867965644036
 20
-149.300000000001
 30
-8.871320343559644
 70
   192
  0
VERTEX
  5
16E7
  8
0
 10
68.35000000000001
 20
-149.300000000001
 30
-9.750000000000004
 70
   192
  0
VERTEX
  5
16E8
  8
0
 10
70.47132034355965
 20
-149.300000000001
 30
-8.871320343559645
 70
   192
  0
VERTEX
  5
16E9
  8
0
 10
71.35000000000001
 20
-149.300000000001
 30
-6.75
 70
   192
  0
VERTEX
  5
16EA
  8
0
 10
70.47132034355965
 20
-149.300000000001
 30
-4.628679656440355
 70
   192
  0
VERTEX
  5
16EB
  8
0
 10
68.35000000000001
 20
-149.300000000001
 30
-3.749999999999996
 70
   192
  0
VERTEX
  5
16EC
  8
0
 10
66.22867965644036
 20
-149.300000000001
 30
-4.628679656440355
 70
   192
  0
VERTEX
  5
16ED
  8
0
 10
0.0
 20
0.0
 30
0.0
 70
   128
 71
     3
 72
     2
 73
    -1
  0
VERTEX
  5
16EE
  8
0
 10
0.0
 20
0.0
 30
0.0
 70
   128
 71
     8
 72
    -7
 73
    -5
  0
VERTEX
  5
16EF
  8
0
 10
0.0
 20
0.0
 30
0.0
 70
   128
 71
    -5
 72
     9
 73
    -8
  0
VERTEX
  5
16F0
  8
0
 10
0.0
 20
0.0
 30
0.0
 70
   128
 71
    -9
 72
     5
 73
    -4
  0
VERTEX
  5
16F1
  8
0
 10
0.0
 20
0.0
 30
0.0
 70
   128
 71
    -4
 72
    10
 73
    -9
  0
VERTEX
  5
16F2
  8
0
 10
0.0
 20
0.0
 30
0.0
 70
   128
 71
     4
 72
    -3
 73
   -11
  0
VERTEX
  5
16F3
  8
0
 10
0.0
 20
0.0
 30
0.0
 70
   128
 71
    -4
 72
    11
 73
   -10
  0
VERTEX
  5
16F4
  8
0
 10
0.0
 20
0.0
 30
0.0
 70
   128
 71
    -3
 72
     1
 73
    -6
  0
VERTEX
  5
16F5
  8
0
 10
0.0
 20
0.0
 30
0.0
 70
   128
 71
    12
 72
   -11
 73
    -3
  0
VERTEX
  5
16F6
  8
0
 10
0.0
 20
0.0
 30
0.0
 70
   128
 71
    -3
 72
    13
 73
   -12
  0
VERTEX
  5
16F7
  8
0
 10
0.0
 20
0.0
 30
0.0
 70
   128
 71
    -3
 72
    -6
 73
   -13
  0
VERTEX
  5
16F8
  8
0
 10
0.0
 20
0.0
 30
0.0
 70
   128
 71
    -6
 72
    14
 73
   -13
  0
VERTEX
  5
16F9
  8
0
 10
0.0
 20
0.0
 30
0.0
 70
   128
 71
     6
 72
    -5
 73
    -7
  0
VERTEX
  5
16FA
  8
0
 10
0.0
 20
0.0
 30
0.0
 70
   128
 71
    -6
 72
     7
 73
   -14
  0
SEQEND
  5
1A18
  8
0
  0
POLYLINE
  5
16FB
  8
0
 66
     1
 10
0.0
 20
0.0
 30
0.0
 70
    64
 71
     6
 72
     4
  0
VERTEX
  5
16FC
  8
0
 10
55.85000000000002
 20
-149.300000000001
 30
0.0
 70
   192
  0
VERTEX
  5
16FD
  8
0
 10
55.85
 20
-4.799999999999994
 30
0.0
 70
   192
  0
VERTEX
  5
16FE
  8
0
 10
55.85
 20
-4.799999999999994
 30
-1.0
 70
   192
  0
VERTEX
  5
16FF
  8
0
 10
55.85
 20
-14.80000000000089
 30
-1.0
 70
   192
  0
VERTEX
  5
1700
  8
0
 10
55.85
 20
-14.80000000000089
 30
-13.5
 70
   192
  0
VERTEX
  5
1701
  8
0
 10
55.85000000000002
 20
-149.300000000001
 30
-13.5
 70
   192
  0
VERTEX
  5
1702
  8
0
 10
0.0
 20
0.0
 30
0.0
 70
   128
 71
     2
 72
     3
 73
    -4
  0
VERTEX
  5
1703
  8
0
 10
0.0
 20
0.0
 30
0.0
 70
   128
 71
     1
 72
    -2
 73
    -4
  0
VERTEX
  5
1704
  8
0
 10
0.0
 20
0.0
 30
0.0
 70
   128
 71
     5
 72
     6
 73
    -1
  0
VERTEX
  5
1705
  8
0
 10
0.0
 20
0.0
 30
0.0
 70
   128
 71
     4
 72
    -5
 73
    -1
  0
SEQEND
  5
1A19
  8
0
  0
POLYLINE
  5
1706
  8
0
 66
     1
 10
0.0
 20
0.0
 30
0.0
 70
    64
 71
    14
 72
    14
  0
VERTEX
  5
1707
  8
0
 10
55.84999999999999
 20
-4.799999999999994
 30
0.0
 70
   192
  0
VERTEX
  5
1708
  8
0
 10
95.85000000000002
 20
-4.799999999999988
 30
0.0
 70
   192
  0
VERTEX
  5
1709
  8
0
 10
95.85000000000001
 20
-4.799999999999988
 30
-13.5
 70
   192
  0
VERTEX
  5
170A
  8
0
 10
65.8500000000009
 20
-4.799999999999992
 30
-13.5
 70
   192
  0
VERTEX
  5
170B
  8
0
 10
65.8500000000009
 20
-4.79999999999999
 30
-1.0
 70
   192
  0
VERTEX
  5
170C
  8
0
 10
55.84999999999999
 20
-4.799999999999994
 30
-1.0
 70
   192
  0
VERTEX
  5
170D
  8
0
 10
81.35000000000001
 20
-4.799999999999985
 30
-6.75
 70
   192
  0
VERTEX
  5
170E
  8
0
 10
81.93578643762692
 20
-4.799999999999985
 30
-8.164213562373096
 70
   192
  0
VERTEX
  5
170F
  8
0
 10
83.35000000000001
 20
-4.799999999999985
 30
-8.750000000000002
 70
   192
  0
VERTEX
  5
1710
  8
0
 10
84.7642135623731
 20
-4.799999999999985
 30
-8.164213562373096
 70
   192
  0
VERTEX
  5
1711
  8
0
 10
85.35000000000001
 20
-4.799999999999985
 30
-6.75
 70
   192
  0
VERTEX
  5
1712
  8
0
 10
84.7642135623731
 20
-4.799999999999985
 30
-5.335786437626904
 70
   192
  0
VERTEX
  5
1713
  8
0
 10
83.35000000000001
 20
-4.799999999999985
 30
-4.749999999999998
 70
   192
  0
VERTEX
  5
1714
  8
0
 10
81.93578643762692
 20
-4.799999999999985
 30
-5.335786437626904
 70
   192
  0
VERTEX
  5
1715
  8
0
 10
0.0
 20
0.0
 30
0.0
 70
   128
 71
    -5
 72
     7
 73
    -8
  0
VERTEX
  5
1716
  8
0
 10
0.0
 20
0.0
 30
0.0
 70
   128
 71
     4
 72
    -5
 73
    -8
  0
VERTEX
  5
1717
  8
0
 10
0.0
 20
0.0
 30
0.0
 70
   128
 71
     8
 72
    -9
 73
    -4
  0
VERTEX
  5
1718
  8
0
 10
0.0
 20
0.0
 30
0.0
 70
   128
 71
    -9
 72
     3
 73
    -4
  0
VERTEX
  5
1719
  8
0
 10
0.0
 20
0.0
 30
0.0
 70
   128
 71
     9
 72
   -10
 73
    -3
  0
VERTEX
  5
171A
  8
0
 10
0.0
 20
0.0
 30
0.0
 70
   128
 71
    10
 72
   -11
 73
    -3
  0
VERTEX
  5
171B
  8
0
 10
0.0
 20
0.0
 30
0.0
 70
   128
 71
   -12
 72
     2
 73
    -3
  0
VERTEX
  5
171C
  8
0
 10
0.0
 20
0.0
 30
0.0
 70
   128
 71
    11
 72
   -12
 73
    -3
  0
VERTEX
  5
171D
  8
0
 10
0.0
 20
0.0
 30
0.0
 70
   128
 71
    12
 72
   -13
 73
    -2
  0
VERTEX
  5
171E
  8
0
 10
0.0
 20
0.0
 30
0.0
 70
   128
 71
    -5
 72
    -2
 73
   -13
  0
VERTEX
  5
171F
  8
0
 10
0.0
 20
0.0
 30
0.0
 70
   128
 71
    13
 72
   -14
 73
    -5
  0
VERTEX
  5
1720
  8
0
 10
0.0
 20
0.0
 30
0.0
 70
   128
 71
    14
 72
    -7
 73
    -5
  0
VERTEX
  5
1721
  8
0
 10
0.0
 20
0.0
 30
0.0
 70
   128
 71
    -5
 72
     1
 73
    -2
  0
VERTEX
  5
1722
  8
0
 10
0.0
 20
0.0
 30
0.0
 70
   128
 71
     5
 72
     6
 73
    -1
  0
SEQEND
  5
1A1A
  8
0
  0
POLYLINE
  5
1723
  8
0
 66
     1
 10
0.0
 20
0.0
 30
0.0
 70
    64
 71
     6
 72
     4
  0
VERTEX
  5
1724
  8
0
 10
95.85000000000001
 20
-4.799999999999988
 30
0.0
 70
   192
  0
VERTEX
  5
1725
  8
0
 10
95.85000000000001
 20
-4.799999999999988
 30
-13.5
 70
   192
  0
VERTEX
  5
1726
  8
0
 10
95.85000000000002
 20
-139.300000000001
 30
-13.5
 70
   192
  0
VERTEX
  5
1727
  8
0
 10
95.85000000000002
 20
-139.300000000001
 30
-1.0
 70
   192
  0
VERTEX
  5
1728
  8
0
 10
95.85000000000002
 20
-149.300000000001
 30
-1.0
 70
   192
  0
VERTEX
  5
1729
  8
0
 10
95.85000000000002
 20
-149.300000000001
 30
0.0
 70
   192
  0
VERTEX
  5
172A
  8
0
 10
0.0
 20
0.0
 30
0.0
 70
   128
 71
     4
 72
     3
 73
    -2
  0
VERTEX
  5
172B
  8
0
 10
0.0
 20
0.0
 30
0.0
 70
   128
 71
    -4
 72
     2
 73
    -1
  0
VERTEX
  5
172C
  8
0
 10
0.0
 20
0.0
 30
0.0
 70
   128
 71
     1
 72
    -6
 73
    -4
  0
VERTEX
  5
172D
  8
0
 10
0.0
 20
0.0
 30
0.0
 70
   128
 71
     6
 72
     5
 73
    -4
  0
SEQEND
  5
1A1B
  8
0
  0
POLYLINE
  5
172E
  8
0
 66
     1
 10
0.0
 20
0.0
 30
0.0
 70
    64
 71
    14
 72
    12
  0
VERTEX
  5
172F
  8
0
 10
85.85000000000001
 20
-144.3000000000001
 30
-13.5
 70
   192
  0
VERTEX
  5
1730
  8
0
 10
86.5198729810777
 20
-141.8000000000006
 30
-13.5
 70
   192
  0
VERTEX
  5
1731
  8
0
 10
88.34999999999957
 20
-139.9698729810787
 30
-13.5
 70
   192
  0
VERTEX
  5
1732
  8
0
 10
90.84999999999913
 20
-139.300000000001
 30
-13.5
 70
   192
  0
VERTEX
  5
1733
  8
0
 10
95.85000000000002
 20
-139.300000000001
 30
-13.5
 70
   192
  0
VERTEX
  5
1734
  8
0
 10
95.85000000000002
 20
-4.799999999999988
 30
-13.5
 70
   192
  0
VERTEX
  5
1735
  8
0
 10
65.8500000000009
 20
-4.79999999999999
 30
-13.5
 70
   192
  0
VERTEX
  5
1736
  8
0
 10
65.8500000000009
 20
-9.800000000000896
 30
-13.5
 70
   192
  0
VERTEX
  5
1737
  8
0
 10
65.1801270189231
 20
-12.30000000000089
 30
-13.5
 70
   192
  0
VERTEX
  5
1738
  8
0
 10
63.35000000000091
 20
-14.13012701892308
 30
-13.5
 70
   192
  0
VERTEX
  5
1739
  8
0
 10
60.85000000000091
 20
-14.80000000000089
 30
-13.5
 70
   192
  0
VERTEX
  5
173A
  8
0
 10
55.85
 20
-14.80000000000089
 30
-13.5
 70
   192
  0
VERTEX
  5
173B
  8
0
 10
55.85000000000002
 20
-149.300000000001
 30
-13.5
 70
   192
  0
VERTEX
  5
173C
  8
0
 10
85.85000000000001
 20
-149.300000000001
 30
-13.5
 70
   192
  0
VERTEX
  5
173D
  8
0
 10
0.0
 20
0.0
 30
0.0
 70
   128
 71
     1
 72
    14
 73
   -13
  0
VERTEX
  5
173E
  8
0
 10
0.0
 20
0.0
 30
0.0
 70
   128
 71
     8
 72
     7
 73
    -6
  0
VERTEX
  5
173F
  8
0
 10
0.0
 20
0.0
 30
0.0
 70
   128
 71
    -6
 72
     9
 73
    -8
  0
VERTEX
  5
1740
  8
0
 10
0.0
 20
0.0
 30
0.0
 70
   128
 71
    -6
 72
    10
 73
    -9
  0
VERTEX
  5
1741
  8
0
 10
0.0
 20
0.0
 30
0.0
 70
   128
 71
   -10
 72
     6
 73
    -5
  0
VERTEX
  5
1742
  8
0
 10
0.0
 20
0.0
 30
0.0
 70
   128
 71
    -5
 72
    11
 73
   -10
  0
VERTEX
  5
1743
  8
0
 10
0.0
 20
0.0
 30
0.0
 70
   128
 71
     2
 72
    -1
 73
   -13
  0
VERTEX
  5
1744
  8
0
 10
0.0
 20
0.0
 30
0.0
 70
   128
 71
   -13
 72
     3
 73
    -2
  0
VERTEX
  5
1745
  8
0
 10
0.0
 20
0.0
 30
0.0
 70
   128
 71
    -3
 72
    13
 73
   -12
  0
VERTEX
  5
1746
  8
0
 10
0.0
 20
0.0
 30
0.0
 70
   128
 71
   -12
 72
     4
 73
    -3
  0
VERTEX
  5
1747
  8
0
 10
0.0
 20
0.0
 30
0.0
 70
   128
 71
    12
 72
   -11
 73
    -5
  0
VERTEX
  5
1748
  8
0
 10
0.0
 20
0.0
 30
0.0
 70
   128
 71
   -12
 72
     5
 73
    -4
  0
SEQEND
  5
1A1C
  8
0
  0
POLYLINE
  5
1749
  8
0
 66
     1
 10
0.0
 20
0.0
 30
0.0
 70
    64
 71
     4
 72
     2
  0
VERTEX
  5
174A
  8
0
 10
55.85000000000002
 20
-149.300000000001
 30
0.0
 70
   192
  0
VERTEX
  5
174B
  8
0
 10
95.85000000000004
 20
-149.300000000001
 30
0.0
 70
   192
  0
VERTEX
  5
174C
  8
0
 10
95.85000000000001
 20
-4.799999999999988
 30
0.0
 70
   192
  0
VERTEX
  5
174D
  8
0
 10
55.84999999999999
 20
-4.799999999999994
 30
0.0
 70
   192
  0
VERTEX
  5
174E
  8
0
 10
0.0
 20
0.0
 30
0.0
 70
   128
 71
     3
 72
     4
 73
    -1
  0
VERTEX
  5
174F
  8
0
 10
0.0
 20
0.0
 30
0.0
 70
   128
 71
     2
 72
    -3
 73
     1
  0
SEQEND
  5
1A1D
  8
0
  0
POLYLINE
  5
1750
  8
0
 66
     1
 10
0.0
 20
0.0
 30
0.0
 70
    64
 71
     7
 72
     5
  0
VERTEX
  5
1751
  8
0
 10
85.85000000000001
 20
-144.3000000000001
 30
-1.0
 70
   192
  0
VERTEX
  5
1752
  8
0
 10
85.85000000000001
 20
-149.300000000001
 30
-1.0
 70
   192
  0
VERTEX
  5
1753
  8
0
 10
95.85000000000002
 20
-149.300000000001
 30
-1.0
 70
   192
  0
VERTEX
  5
1754
  8
0
 10
95.85000000000004
 20
-139.300000000001
 30
-1.0
 70
   192
  0
VERTEX
  5
1755
  8
0
 10
90.84999999999913
 20
-139.300000000001
 30
-1.0
 70
   192
  0
VERTEX
  5
1756
  8
0
 10
88.34999999999957
 20
-139.9698729810787
 30
-1.0
 70
   192
  0
VERTEX
  5
1757
  8
0
 10
86.5198729810777
 20
-141.8000000000006
 30
-1.0
 70
   192
  0
VERTEX
  5
1758
  8
0
 10
0.0
 20
0.0
 30
0.0
 70
   128
 71
     1
 72
     7
 73
    -6
  0
VERTEX
  5
1759
  8
0
 10
0.0
 20
0.0
 30
0.0
 70
   128
 71
    -1
 72
     6
 73
    -5
  0
VERTEX
  5
175A
  8
0
 10
0.0
 20
0.0
 30
0.0
 70
   128
 71
    -1
 72
     5
 73
    -4
  0
VERTEX
  5
175B
  8
0
 10
0.0
 20
0.0
 30
0.0
 70
   128
 71
    -1
 72
     4
 73
    -3
  0
VERTEX
  5
175C
  8
0
 10
0.0
 20
0.0
 30
0.0
 70
   128
 71
    -1
 72
     3
 73
     2
  0
SEQEND
  5
1A1E
  8
0
  0
POLYLINE
  5
175D
  8
0
 66
     1
 10
0.0
 20
0.0
 30
0.0
 70
    64
 71
     7
 72
     5
  0
VERTEX
  5
175E
  8
0
 10
60.85000000000091
 20
-14.80000000000089
 30
-1.0
 70
   192
  0
VERTEX
  5
175F
  8
0
 10
63.35000000000091
 20
-14.13012701892308
 30
-1.0
 70
   192
  0
VERTEX
  5
1760
  8
0
 10
65.1801270189231
 20
-12.30000000000089
 30
-1.0
 70
   192
  0
VERTEX
  5
1761
  8
0
 10
65.8500000000009
 20
-9.800000000000896
 30
-1.0
 70
   192
  0
VERTEX
  5
1762
  8
0
 10
65.8500000000009
 20
-4.799999999999992
 30
-1.0
 70
   192
  0
VERTEX
  5
1763
  8
0
 10
55.85
 20
-4.799999999999994
 30
-1.0
 70
   192
  0
VERTEX
  5
1764
  8
0
 10
55.84999999999999
 20
-14.80000000000089
 30
-1.0
 70
   192
  0
VERTEX
  5
1765
  8
0
 10
0.0
 20
0.0
 30
0.0
 70
   128
 71
     1
 72
     7
 73
    -6
  0
VERTEX
  5
1766
  8
0
 10
0.0
 20
0.0
 30
0.0
 70
   128
 71
    -1
 72
     6
 73
    -5
  0
VERTEX
  5
1767
  8
0
 10
0.0
 20
0.0
 30
0.0
 70
   128
 71
    -1
 72
     5
 73
    -4
  0
VERTEX
  5
1768
  8
0
 10
0.0
 20
0.0
 30
0.0
 70
   128
 71
    -1
 72
     4
 73
    -3
  0
VERTEX
  5
1769
  8
0
 10
0.0
 20
0.0
 30
0.0
 70
   128
 71
    -1
 72
     3
 73
     2
  0
SEQEND
  5
1A1F
  8
0
  0
POLYLINE
  5
176A
  8
0
 66
     1
 10
0.0
 20
0.0
 30
0.0
 70
    64
 71
    75
 72
    61
  0
VERTEX
  5
176B
  8
0
 10
230.7869025622012
 20
306.1121544854169
 30
-16.0
 70
   192
  0
VERTEX
  5
176C
  8
0
 10
230.1080005337666
 20
306.330451205857
 30
-16.0
 70
   192
  0
VERTEX
  5
176D
  8
0
 10
215.5120708891134
 20
309.8142910506487
 30
-16.0
 70
   192
  0
VERTEX
  5
176E
  8
0
 10
200.7261491105699
 20
312.1638787429404
 30
-16.0
 70
   192
  0
VERTEX
  5
176F
  8
0
 10
185.8037530874447
 20
313.3747222893946
 30
-16.0
 70
   192
  0
VERTEX
  5
1770
  8
0
 10
179.9041871630518
 20
313.4003336023765
 30
-16.0
 70
   192
  0
VERTEX
  5
1771
  8
0
 10
244.3936065968941
 20
301.7370035175775
 30
-16.0
 70
   192
  0
VERTEX
  5
1772
  8
0
 10
246.2894512870906
 20
300.9623495024099
 30
-16.0
 70
   192
  0
VERTEX
  5
1773
  8
0
 10
238.8418634900842
 20
304.9584032053996
 30
-16.0
 70
   192
  0
VERTEX
  5
1774
  8
0
 10
289.3871741716278
 20
277.8379742258403
 30
-16.0
 70
   192
  0
VERTEX
  5
1775
  8
0
 10
280.8900124020252
 20
283.9464690758958
 30
-16.0
 70
   192
  0
VERTEX
  5
1776
  8
0
 10
258.2846688201832
 20
296.0610284855202
 30
-16.0
 70
   192
  0
VERTEX
  5
1777
  8
0
 10
301.7143522027473
 20
268.9761324061178
 30
-16.0
 70
   192
  0
VERTEX
  5
1778
  8
0
 10
306.057398126145
 20
264.8925829419431
 30
-16.0
 70
   192
  0
VERTEX
  5
1779
  8
0
 10
299.2190519626482
 20
272.5626135688043
 30
-16.0
 70
   192
  0
VERTEX
  5
177A
  8
0
 10
339.0543873793731
 20
227.8824766800728
 30
-16.0
 70
   192
  0
VERTEX
  5
177B
  8
0
 10
336.5738305808708
 20
231.6121992305742
 30
-16.0
 70
   192
  0
VERTEX
  5
177C
  8
0
 10
328.8104608753164
 20
241.7747570646777
 30
-16.0
 70
   192
  0
VERTEX
  5
177D
  8
0
 10
320.3990696540651
 20
251.4078245221222
 30
-16.0
 70
   192
  0
VERTEX
  5
177E
  8
0
 10
343.6559368956566
 20
220.9636659483475
 30
-16.0
 70
   192
  0
VERTEX
  5
177F
  8
0
 10
384.8545043206085
 20
138.1876576630592
 30
-16.0
 70
   192
  0
VERTEX
  5
1780
  8
0
 10
344.8172483041391
 20
221.4187325620514
 30
-16.0
 70
   192
  0
VERTEX
  5
1781
  8
0
 10
403.7775798595421
 20
98.84959920939309
 30
-16.0
 70
   192
  0
VERTEX
  5
1782
  8
0
 10
402.903019739369
 20
101.9246476794733
 30
-16.0
 70
   192
  0
VERTEX
  5
1783
  8
0
 10
426.9509431046507
 20
17.36953448911316
 30
-16.0
 70
   192
  0
VERTEX
  5
1784
  8
0
 10
410.7425232360878
 20
84.37059186678067
 30
-16.0
 70
   192
  0
VERTEX
  5
1785
  8
0
 10
440.4200333585962
 20
-38.30790330233572
 30
-16.0
 70
   192
  0
VERTEX
  5
1786
  8
0
 10
439.2773504004468
 20
-25.97145376566681
 30
-16.0
 70
   192
  0
VERTEX
  5
1787
  8
0
 10
113.7325898043309
 20
311.3338961151107
 30
-16.0
 70
   192
  0
VERTEX
  5
1788
  8
0
 10
56.68215804863266
 20
305.1974121477567
 30
-16.0
 70
   192
  0
VERTEX
  5
1789
  8
0
 10
-0.0000000000000284
 20
296.2788271735014
 30
-16.0
 70
   192
  0
VERTEX
  5
178A
  8
0
 10
-131.3465511598821
 20
264.3925405566893
 30
-16.0
 70
   192
  0
VERTEX
  5
178B
  8
0
 10
-258.1539503496606
 20
217.6107568526747
 30
-16.0
 70
   192
  0
VERTEX
  5
178C
  8
0
 10
-378.7390835216994
 20
156.5544104692988
 30
-16.0
 70
   192
  0
VERTEX
  5
178D
  8
0
 10
-442.185119267301
 20
79.05672551291971
 30
-16.0
 70
   192
  0
VERTEX
  5
178E
  8
0
 10
-438.8207197604439
 20
-21.0430818864385
 30
-16.0
 70
   192
  0
VERTEX
  5
178F
  8
0
 10
-370.3142817201981
 20
-94.10578490561466
 30
-16.0
 70
   192
  0
VERTEX
  5
1790
  8
0
 10
-213.9334631784041
 20
-163.6478056453609
 30
-16.0
 70
   192
  0
VERTEX
  5
1791
  8
0
 10
-147.8793914740316
 20
-187.2177015850854
 30
-16.0
 70
   192
  0
VERTEX
  5
1792
  8
0
 10
-369.5711244281893
 20
-93.10074369690756
 30
-16.0
 70
   192
  0
VERTEX
  5
1793
  8
0
 10
-369.5722992432039
 20
-93.1031378565327
 30
-16.0
 70
   192
  0
VERTEX
  5
1794
  8
0
 10
-437.6018616307069
 20
-20.77808384725392
 30
-16.0
 70
   192
  0
VERTEX
  5
1795
  8
0
 10
-441.0938139721394
 20
78.45266272317865
 30
-16.0
 70
   192
  0
VERTEX
  5
1796
  8
0
 10
-378.316506438841
 20
155.380839972805
 30
-16.0
 70
   192
  0
VERTEX
  5
1797
  8
0
 10
-378.3151662399083
 20
155.3785343151435
 30
-16.0
 70
   192
  0
VERTEX
  5
1798
  8
0
 10
-257.8681667946266
 20
216.3938941621425
 30
-16.0
 70
   192
  0
VERTEX
  5
1799
  8
0
 10
-131.2027020033316
 20
263.1508598660423
 30
-16.0
 70
   192
  0
VERTEX
  5
179A
  8
0
 10
-0.0000000000001137
 20
295.0288271735021
 30
-16.0
 70
   192
  0
VERTEX
  5
179B
  8
0
 10
-0.0004793182299636
 20
295.0314506150291
 30
-16.0
 70
   192
  0
VERTEX
  5
179C
  8
0
 10
56.62085071838561
 20
303.951572283454
 30
-16.0
 70
   192
  0
VERTEX
  5
179D
  8
0
 10
113.6106032015018
 20
310.0925573516677
 30
-16.0
 70
   192
  0
VERTEX
  5
179E
  8
0
 10
170.8324531778418
 20
313.4397159944643
 30
-16.0
 70
   192
  0
VERTEX
  5
179F
  8
0
 10
171.0148259363342
 20
314.6736001005861
 30
-16.0
 70
   192
  0
VERTEX
  5
17A0
  8
0
 10
447.9931185455269
 20
-120.0672247126793
 30
-16.0
 70
   192
  0
VERTEX
  5
17A1
  8
0
 10
446.5011877219594
 20
-63.44568821451034
 30
-16.0
 70
   192
  0
VERTEX
  5
17A2
  8
0
 10
-142.0557232671756
 20
-189.6900803611254
 30
-16.0
 70
   192
  0
VERTEX
  5
17A3
  8
0
 10
-135.0325529049078
 20
-191.8018042817954
 30
-16.0
 70
   192
  0
VERTEX
  5
17A4
  8
0
 10
450.1562698090507
 20
-202.1628194171291
 30
-16.0
 70
   192
  0
VERTEX
  5
17A5
  8
0
 10
450.5455031021401
 20
-196.2477727918341
 30
-16.0
 70
   192
  0
VERTEX
  5
17A6
  8
0
 10
451.292253317201
 20
-177.3168022789883
 30
-16.0
 70
   192
  0
VERTEX
  5
17A7
  8
0
 10
451.5412273853108
 20
-158.3727453651343
 30
-16.0
 70
   192
  0
VERTEX
  5
17A8
  8
0
 10
-52.74172263193316
 20
-221.1654189126727
 30
-16.0
 70
   192
  0
VERTEX
  5
17A9
  8
0
 10
112.3378967125009
 20
-266.329257694
 30
-16.0
 70
   192
  0
VERTEX
  5
17AA
  8
0
 10
186.8620075316421
 20
-282.3969153133
 30
-16.0
 70
   192
  0
VERTEX
  5
17AB
  8
0
 10
261.8853143342635
 20
-295.9437286343152
 30
-16.0
 70
   192
  0
VERTEX
  5
17AC
  8
0
 10
337.3225724926492
 20
-306.9543051995875
 30
-16.0
 70
   192
  0
VERTEX
  5
17AD
  8
0
 10
390.3940523212175
 20
-299.4874538103817
 30
-16.0
 70
   192
  0
VERTEX
  5
17AE
  8
0
 10
432.0757945545699
 20
-265.7981646333304
 30
-16.0
 70
   192
  0
VERTEX
  5
17AF
  8
0
 10
450.5069807840784
 20
-215.4729501277188
 30
-16.0
 70
   192
  0
VERTEX
  5
17B0
  8
0
 10
449.3014925891259
 20
-215.1525795426433
 30
-16.0
 70
   192
  0
VERTEX
  5
17B1
  8
0
 10
449.2988340068368
 20
-215.1523694779774
 30
-16.0
 70
   192
  0
VERTEX
  5
17B2
  8
0
 10
431.2043560088774
 20
-264.9020700794862
 30
-16.0
 70
   192
  0
VERTEX
  5
17B3
  8
0
 10
390.1072956711035
 20
-298.2708350484175
 30
-16.0
 70
   192
  0
VERTEX
  5
17B4
  8
0
 10
337.7020962631799
 20
-305.7633592312638
 30
-16.0
 70
   192
  0
VERTEX
  5
17B5
  8
0
 10
94.64539425859368
 20
-260.8612731623032
 30
-16.0
 70
   192
  0
VERTEX
  5
17B6
  8
0
 10
0.0
 20
0.0
 30
0.0
 70
   128
 71
     6
 72
     5
 73
    -4
  0
VERTEX
  5
17B7
  8
0
 10
0.0
 20
0.0
 30
0.0
 70
   128
 71
     4
 72
    -3
 73
    -6
  0
VERTEX
  5
17B8
  8
0
 10
0.0
 20
0.0
 30
0.0
 70
   128
 71
     3
 72
    -2
 73
    -6
  0
VERTEX
  5
17B9
  8
0
 10
0.0
 20
0.0
 30
0.0
 70
   128
 71
     2
 72
     1
 73
    -6
  0
VERTEX
  5
17BA
  8
0
 10
0.0
 20
0.0
 30
0.0
 70
   128
 71
     9
 72
     8
 73
    -7
  0
VERTEX
  5
17BB
  8
0
 10
0.0
 20
0.0
 30
0.0
 70
   128
 71
     7
 72
     1
 73
    -9
  0
VERTEX
  5
17BC
  8
0
 10
0.0
 20
0.0
 30
0.0
 70
   128
 71
    12
 72
    11
 73
   -10
  0
VERTEX
  5
17BD
  8
0
 10
0.0
 20
0.0
 30
0.0
 70
   128
 71
     8
 72
   -12
 73
    10
  0
VERTEX
  5
17BE
  8
0
 10
0.0
 20
0.0
 30
0.0
 70
   128
 71
    15
 72
    14
 73
   -13
  0
VERTEX
  5
17BF
  8
0
 10
0.0
 20
0.0
 30
0.0
 70
   128
 71
    13
 72
    10
 73
   -15
  0
VERTEX
  5
17C0
  8
0
 10
0.0
 20
0.0
 30
0.0
 70
   128
 71
    14
 72
    19
 73
   -18
  0
VERTEX
  5
17C1
  8
0
 10
0.0
 20
0.0
 30
0.0
 70
   128
 71
    18
 72
   -17
 73
   -14
  0
VERTEX
  5
17C2
  8
0
 10
0.0
 20
0.0
 30
0.0
 70
   128
 71
    17
 72
    16
 73
   -14
  0
VERTEX
  5
17C3
  8
0
 10
0.0
 20
0.0
 30
0.0
 70
   128
 71
    22
 72
    21
 73
   -20
  0
VERTEX
  5
17C4
  8
0
 10
0.0
 20
0.0
 30
0.0
 70
   128
 71
    20
 72
    16
 73
   -22
  0
VERTEX
  5
17C5
  8
0
 10
0.0
 20
0.0
 30
0.0
 70
   128
 71
    21
 72
    24
 73
    23
  0
VERTEX
  5
17C6
  8
0
 10
0.0
 20
0.0
 30
0.0
 70
   128
 71
    23
 72
    26
 73
    25
  0
VERTEX
  5
17C7
  8
0
 10
0.0
 20
0.0
 30
0.0
 70
   128
 71
    25
 72
    28
 73
    27
  0
VERTEX
  5
17C8
  8
0
 10
0.0
 20
0.0
 30
0.0
 70
   128
 71
    40
 72
    39
 73
   -38
  0
VERTEX
  5
17C9
  8
0
 10
0.0
 20
0.0
 30
0.0
 70
   128
 71
    32
 72
   -31
 73
   -49
  0
VERTEX
  5
17CA
  8
0
 10
0.0
 20
0.0
 30
0.0
 70
   128
 71
    48
 72
   -47
 73
   -32
  0
VERTEX
  5
17CB
  8
0
 10
0.0
 20
0.0
 30
0.0
 70
   128
 71
    49
 72
   -48
 73
   -32
  0
VERTEX
  5
17CC
  8
0
 10
0.0
 20
0.0
 30
0.0
 70
   128
 71
   -46
 72
    33
 73
   -32
  0
VERTEX
  5
17CD
  8
0
 10
0.0
 20
0.0
 30
0.0
 70
   128
 71
    47
 72
   -46
 73
   -32
  0
VERTEX
  5
17CE
  8
0
 10
0.0
 20
0.0
 30
0.0
 70
   128
 71
   -44
 72
    34
 73
   -33
  0
VERTEX
  5
17CF
  8
0
 10
0.0
 20
0.0
 30
0.0
 70
   128
 71
    45
 72
   -44
 73
   -33
  0
VERTEX
  5
17D0
  8
0
 10
0.0
 20
0.0
 30
0.0
 70
   128
 71
    46
 72
   -45
 73
   -33
  0
VERTEX
  5
17D1
  8
0
 10
0.0
 20
0.0
 30
0.0
 70
   128
 71
   -43
 72
    35
 73
   -34
  0
VERTEX
  5
17D2
  8
0
 10
0.0
 20
0.0
 30
0.0
 70
   128
 71
    44
 72
   -43
 73
   -34
  0
VERTEX
  5
17D3
  8
0
 10
0.0
 20
0.0
 30
0.0
 70
   128
 71
   -42
 72
    36
 73
   -35
  0
VERTEX
  5
17D4
  8
0
 10
0.0
 20
0.0
 30
0.0
 70
   128
 71
    43
 72
   -42
 73
   -35
  0
VERTEX
  5
17D5
  8
0
 10
0.0
 20
0.0
 30
0.0
 70
   128
 71
   -41
 72
    37
 73
   -36
  0
VERTEX
  5
17D6
  8
0
 10
0.0
 20
0.0
 30
0.0
 70
   128
 71
    42
 72
   -41
 73
   -36
  0
VERTEX
  5
17D7
  8
0
 10
0.0
 20
0.0
 30
0.0
 70
   128
 71
    38
 72
   -37
 73
   -41
  0
VERTEX
  5
17D8
  8
0
 10
0.0
 20
0.0
 30
0.0
 70
   128
 71
    41
 72
   -40
 73
   -38
  0
VERTEX
  5
17D9
  8
0
 10
0.0
 20
0.0
 30
0.0
 70
   128
 71
   -30
 72
    50
 73
   -49
  0
VERTEX
  5
17DA
  8
0
 10
0.0
 20
0.0
 30
0.0
 70
   128
 71
    31
 72
   -30
 73
   -49
  0
VERTEX
  5
17DB
  8
0
 10
0.0
 20
0.0
 30
0.0
 70
   128
 71
   -29
 72
    51
 73
   -50
  0
VERTEX
  5
17DC
  8
0
 10
0.0
 20
0.0
 30
0.0
 70
   128
 71
    30
 72
   -29
 73
   -50
  0
VERTEX
  5
17DD
  8
0
 10
0.0
 20
0.0
 30
0.0
 70
   128
 71
    53
 72
     6
 73
   -52
  0
VERTEX
  5
17DE
  8
0
 10
0.0
 20
0.0
 30
0.0
 70
   128
 71
   -51
 72
    29
 73
   -53
  0
VERTEX
  5
17DF
  8
0
 10
0.0
 20
0.0
 30
0.0
 70
   128
 71
    52
 72
   -51
 73
   -53
  0
VERTEX
  5
17E0
  8
0
 10
0.0
 20
0.0
 30
0.0
 70
   128
 71
    27
 72
    55
 73
    54
  0
VERTEX
  5
17E1
  8
0
 10
0.0
 20
0.0
 30
0.0
 70
   128
 71
    39
 72
    57
 73
    56
  0
VERTEX
  5
17E2
  8
0
 10
0.0
 20
0.0
 30
0.0
 70
   128
 71
    54
 72
    61
 73
   -60
  0
VERTEX
  5
17E3
  8
0
 10
0.0
 20
0.0
 30
0.0
 70
   128
 71
    60
 72
   -59
 73
   -54
  0
VERTEX
  5
17E4
  8
0
 10
0.0
 20
0.0
 30
0.0
 70
   128
 71
    59
 72
    58
 73
   -54
  0
VERTEX
  5
17E5
  8
0
 10
0.0
 20
0.0
 30
0.0
 70
   128
 71
    66
 72
   -65
 73
   -74
  0
VERTEX
  5
17E6
  8
0
 10
0.0
 20
0.0
 30
0.0
 70
   128
 71
   -73
 72
    67
 73
   -66
  0
VERTEX
  5
17E7
  8
0
 10
0.0
 20
0.0
 30
0.0
 70
   128
 71
    74
 72
   -73
 73
   -66
  0
VERTEX
  5
17E8
  8
0
 10
0.0
 20
0.0
 30
0.0
 70
   128
 71
   -72
 72
    68
 73
   -67
  0
VERTEX
  5
17E9
  8
0
 10
0.0
 20
0.0
 30
0.0
 70
   128
 71
    73
 72
   -72
 73
   -67
  0
VERTEX
  5
17EA
  8
0
 10
0.0
 20
0.0
 30
0.0
 70
   128
 71
   -70
 72
    69
 73
   -68
  0
VERTEX
  5
17EB
  8
0
 10
0.0
 20
0.0
 30
0.0
 70
   128
 71
    71
 72
   -70
 73
   -68
  0
VERTEX
  5
17EC
  8
0
 10
0.0
 20
0.0
 30
0.0
 70
   128
 71
    72
 72
   -71
 73
   -68
  0
VERTEX
  5
17ED
  8
0
 10
0.0
 20
0.0
 30
0.0
 70
   128
 71
    70
 72
    58
 73
   -69
  0
VERTEX
  5
17EE
  8
0
 10
0.0
 20
0.0
 30
0.0
 70
   128
 71
    65
 72
   -64
 73
   -74
  0
VERTEX
  5
17EF
  8
0
 10
0.0
 20
0.0
 30
0.0
 70
   128
 71
    64
 72
   -63
 73
   -74
  0
VERTEX
  5
17F0
  8
0
 10
0.0
 20
0.0
 30
0.0
 70
   128
 71
   -63
 72
    75
 73
   -74
  0
VERTEX
  5
17F1
  8
0
 10
0.0
 20
0.0
 30
0.0
 70
   128
 71
    63
 72
   -62
 73
   -75
  0
VERTEX
  5
17F2
  8
0
 10
0.0
 20
0.0
 30
0.0
 70
   128
 71
    62
 72
    57
 73
   -75
  0
SEQEND
  5
1A20
  8
0
  0
POLYLINE
  5
17F3
  8
0
 66
     1
 10
0.0
 20
0.0
 30
0.0
 70
    64
 71
    20
 72
    18
  0
VERTEX
  5
17F4
  8
0
 10
-131.3465511598822
 20
264.3925405566893
 30
-5.999999999999999
 70
   192
  0
VERTEX
  5
17F5
  8
0
 10
-131.3465511598821
 20
264.3925405566893
 30
-16.0
 70
   192
  0
VERTEX
  5
17F6
  8
0
 10
-258.1539503496606
 20
217.6107568526747
 30
-16.0
 70
   192
  0
VERTEX
  5
17F7
  8
0
 10
-258.1539503496606
 20
217.6107568526747
 30
-5.999999999999999
 70
   192
  0
VERTEX
  5
17F8
  8
0
 10
-0.0000000000000853
 20
296.2788271735017
 30
-5.999999999999999
 70
   192
  0
VERTEX
  5
17F9
  8
0
 10
-0.0000000000000052
 20
296.2788271735015
 30
-16.0
 70
   192
  0
VERTEX
  5
17FA
  8
0
 10
-370.3142817201981
 20
-94.10578490561466
 30
-5.999999999999999
 70
   192
  0
VERTEX
  5
17FB
  8
0
 10
-370.3142817201978
 20
-94.10578490561417
 30
-16.0
 70
   192
  0
VERTEX
  5
17FC
  8
0
 10
-213.9334631784041
 20
-163.6478056453609
 30
-16.0
 70
   192
  0
VERTEX
  5
17FD
  8
0
 10
-213.9334631777064
 20
-163.6478056456397
 30
-5.999999999999999
 70
   192
  0
VERTEX
  5
17FE
  8
0
 10
112.3378650404728
 20
-266.3293934460698
 30
-16.0
 70
   192
  0
VERTEX
  5
17FF
  8
0
 10
112.3378663797878
 20
-266.3293877154378
 30
-5.999999999999998
 70
   192
  0
VERTEX
  5
1800
  8
0
 10
-52.74172263049991
 20
-221.1654189131239
 30
-5.999999999999999
 70
   192
  0
VERTEX
  5
1801
  8
0
 10
-52.74172263193316
 20
-221.1654189126727
 30
-16.0
 70
   192
  0
VERTEX
  5
1802
  8
0
 10
-442.185119267301
 20
79.05672551291971
 30
-5.999999999999999
 70
   192
  0
VERTEX
  5
1803
  8
0
 10
-442.185119267301
 20
79.05672551291971
 30
-16.0
 70
   192
  0
VERTEX
  5
1804
  8
0
 10
-438.8207197604439
 20
-21.0430818864385
 30
-16.0
 70
   192
  0
VERTEX
  5
1805
  8
0
 10
-438.8207197604439
 20
-21.04308188643844
 30
-5.999999999999999
 70
   192
  0
VERTEX
  5
1806
  8
0
 10
-378.7390835216994
 20
156.5544104692987
 30
-5.999999999999999
 70
   192
  0
VERTEX
  5
1807
  8
0
 10
-378.7390835216991
 20
156.5544104692984
 30
-16.0
 70
   192
  0
VERTEX
  5
1808
  8
0
 10
0.0
 20
0.0
 30
0.0
 70
   128
 71
     1
 72
     2
 73
    -3
  0
VERTEX
  5
1809
  8
0
 10
0.0
 20
0.0
 30
0.0
 70
   128
 71
     4
 72
    -1
 73
     3
  0
VERTEX
  5
180A
  8
0
 10
0.0
 20
0.0
 30
0.0
 70
   128
 71
     5
 72
     6
 73
    -2
  0
VERTEX
  5
180B
  8
0
 10
0.0
 20
0.0
 30
0.0
 70
   128
 71
     1
 72
    -5
 73
     2
  0
VERTEX
  5
180C
  8
0
 10
0.0
 20
0.0
 30
0.0
 70
   128
 71
     7
 72
     8
 73
    -9
  0
VERTEX
  5
180D
  8
0
 10
0.0
 20
0.0
 30
0.0
 70
   128
 71
    10
 72
    -7
 73
     9
  0
VERTEX
  5
180E
  8
0
 10
0.0
 20
0.0
 30
0.0
 70
   128
 71
    11
 72
    12
 73
    13
  0
VERTEX
  5
180F
  8
0
 10
0.0
 20
0.0
 30
0.0
 70
   128
 71
    14
 72
    11
 73
    13
  0
VERTEX
  5
1810
  8
0
 10
0.0
 20
0.0
 30
0.0
 70
   128
 71
    15
 72
    16
 73
   -17
  0
VERTEX
  5
1811
  8
0
 10
0.0
 20
0.0
 30
0.0
 70
   128
 71
    18
 72
   -15
 73
    17
  0
VERTEX
  5
1812
  8
0
 10
0.0
 20
0.0
 30
0.0
 70
   128
 71
     7
 72
    18
 73
   -17
  0
VERTEX
  5
1813
  8
0
 10
0.0
 20
0.0
 30
0.0
 70
   128
 71
     8
 72
    -7
 73
    17
  0
VERTEX
  5
1814
  8
0
 10
0.0
 20
0.0
 30
0.0
 70
   128
 71
    19
 72
     4
 73
    -3
  0
VERTEX
  5
1815
  8
0
 10
0.0
 20
0.0
 30
0.0
 70
   128
 71
    20
 72
   -19
 73
     3
  0
VERTEX
  5
1816
  8
0
 10
0.0
 20
0.0
 30
0.0
 70
   128
 71
    13
 72
    10
 73
    -9
  0
VERTEX
  5
1817
  8
0
 10
0.0
 20
0.0
 30
0.0
 70
   128
 71
    14
 72
   -13
 73
     9
  0
VERTEX
  5
1818
  8
0
 10
0.0
 20
0.0
 30
0.0
 70
   128
 71
    15
 72
    19
 73
   -20
  0
VERTEX
  5
1819
  8
0
 10
0.0
 20
0.0
 30
0.0
 70
   128
 71
    16
 72
   -15
 73
    20
  0
SEQEND
  5
1A21
  8
0
  0
POLYLINE
  5
181A
  8
0
 66
     1
 10
0.0
 20
0.0
 30
0.0
 70
    64
 71
    75
 72
    61
  0
VERTEX
  5
181B
  8
0
 10
179.5532657677915
 20
313.4505977827483
 30
-5.999999999999998
 70
   192
  0
VERTEX
  5
181C
  8
0
 10
183.6206874490393
 20
313.4556730920891
 30
-5.999999999999998
 70
   192
  0
VERTEX
  5
181D
  8
0
 10
196.382587805346
 20
312.6352526512842
 30
-5.999999999999998
 70
   192
  0
VERTEX
  5
181E
  8
0
 10
209.063511999577
 20
310.9819674417212
 30
-5.999999999999998
 70
   192
  0
VERTEX
  5
181F
  8
0
 10
228.8569352997754
 20
306.3885930950328
 30
-5.999999999999998
 70
   192
  0
VERTEX
  5
1820
  8
0
 10
170.8324531778417
 20
313.4397159944642
 30
-5.999999999999998
 70
   192
  0
VERTEX
  5
1821
  8
0
 10
113.6106032015014
 20
310.0925573516674
 30
-5.999999999999998
 70
   192
  0
VERTEX
  5
1822
  8
0
 10
56.62085071838573
 20
303.951572283454
 30
-5.999999999999998
 70
   192
  0
VERTEX
  5
1823
  8
0
 10
-0.0004793182298215
 20
295.0314506150291
 30
-5.999999999999998
 70
   192
  0
VERTEX
  5
1824
  8
0
 10
-0.0000000000001137
 20
295.0288271735021
 30
-5.999999999999998
 70
   192
  0
VERTEX
  5
1825
  8
0
 10
-131.2027020033316
 20
263.1508598660423
 30
-5.999999999999998
 70
   192
  0
VERTEX
  5
1826
  8
0
 10
-257.8681667946266
 20
216.3938941621425
 30
-5.999999999999998
 70
   192
  0
VERTEX
  5
1827
  8
0
 10
-378.3151662399083
 20
155.3785343151435
 30
-5.999999999999998
 70
   192
  0
VERTEX
  5
1828
  8
0
 10
-378.316506438841
 20
155.380839972805
 30
-5.999999999999998
 70
   192
  0
VERTEX
  5
1829
  8
0
 10
-441.0938139721394
 20
78.45266272317866
 30
-5.999999999999998
 70
   192
  0
VERTEX
  5
182A
  8
0
 10
-437.6018616307069
 20
-20.77808384725389
 30
-5.999999999999998
 70
   192
  0
VERTEX
  5
182B
  8
0
 10
-369.5722992432039
 20
-93.10313785653267
 30
-5.999999999999998
 70
   192
  0
VERTEX
  5
182C
  8
0
 10
-369.5711244281893
 20
-93.10074369690756
 30
-5.999999999999998
 70
   192
  0
VERTEX
  5
182D
  8
0
 10
-147.879391474137
 20
-187.2177015850406
 30
-5.999999999999998
 70
   192
  0
VERTEX
  5
182E
  8
0
 10
-213.9334631777064
 20
-163.6478056456397
 30
-5.999999999999999
 70
   192
  0
VERTEX
  5
182F
  8
0
 10
-370.3142817201978
 20
-94.10578490561412
 30
-5.999999999999999
 70
   192
  0
VERTEX
  5
1830
  8
0
 10
-438.8207197604439
 20
-21.04308188643844
 30
-5.999999999999999
 70
   192
  0
VERTEX
  5
1831
  8
0
 10
-442.185119267301
 20
79.05672551291971
 30
-5.999999999999999
 70
   192
  0
VERTEX
  5
1832
  8
0
 10
-378.7390835216991
 20
156.5544104692984
 30
-5.999999999999999
 70
   192
  0
VERTEX
  5
1833
  8
0
 10
-258.1539503496606
 20
217.6107568526747
 30
-5.999999999999999
 70
   192
  0
VERTEX
  5
1834
  8
0
 10
-131.3465511598822
 20
264.3925405566893
 30
-5.999999999999999
 70
   192
  0
VERTEX
  5
1835
  8
0
 10
-0.0000000000000284
 20
296.2788271735014
 30
-5.999999999999999
 70
   192
  0
VERTEX
  5
1836
  8
0
 10
56.68215804863266
 20
305.1974121477567
 30
-5.999999999999999
 70
   192
  0
VERTEX
  5
1837
  8
0
 10
113.7325898043309
 20
311.3338961151107
 30
-5.999999999999999
 70
   192
  0
VERTEX
  5
1838
  8
0
 10
171.0148259363342
 20
314.6736001005861
 30
-5.999999999999999
 70
   192
  0
VERTEX
  5
1839
  8
0
 10
238.8418634900841
 20
304.9584032053996
 30
-5.999999999999999
 70
   192
  0
VERTEX
  5
183A
  8
0
 10
248.6345846387764
 20
299.7040523101599
 30
-5.999999999999998
 70
   192
  0
VERTEX
  5
183B
  8
0
 10
234.046522921255
 20
305.1842678861561
 30
-5.999999999999998
 70
   192
  0
VERTEX
  5
183C
  8
0
 10
258.0552276018596
 20
296.165052043923
 30
-5.999999999999998
 70
   192
  0
VERTEX
  5
183D
  8
0
 10
280.6761690966475
 20
284.079640973601
 30
-5.999999999999998
 70
   192
  0
VERTEX
  5
183E
  8
0
 10
291.8834310276973
 20
276.4985906931857
 30
-5.999999999999998
 70
   192
  0
VERTEX
  5
183F
  8
0
 10
299.219051962648
 20
272.5626135688045
 30
-5.999999999999999
 70
   192
  0
VERTEX
  5
1840
  8
0
 10
304.5715562157593
 20
266.5591339890613
 30
-5.999999999999998
 70
   192
  0
VERTEX
  5
1841
  8
0
 10
293.1055125558996
 20
275.6719247716549
 30
-5.999999999999998
 70
   192
  0
VERTEX
  5
1842
  8
0
 10
304.8531330445268
 20
266.3353470573257
 30
-5.999999999999998
 70
   192
  0
VERTEX
  5
1843
  8
0
 10
315.8497729133629
 20
256.1249512689321
 30
-5.999999999999998
 70
   192
  0
VERTEX
  5
1844
  8
0
 10
326.0083777107534
 20
245.1269280977208
 30
-5.999999999999998
 70
   192
  0
VERTEX
  5
1845
  8
0
 10
335.295266170179
 20
233.3835270636824
 30
-5.999999999999998
 70
   192
  0
VERTEX
  5
1846
  8
0
 10
338.8258501613016
 20
228.1388087551209
 30
-5.999999999999998
 70
   192
  0
VERTEX
  5
1847
  8
0
 10
344.8172483041387
 20
221.4187325620518
 30
-5.999999999999999
 70
   192
  0
VERTEX
  5
1848
  8
0
 10
384.8545043206068
 20
138.1876576630627
 30
-5.999999999999998
 70
   192
  0
VERTEX
  5
1849
  8
0
 10
343.6559368956566
 20
220.9636659483475
 30
-5.999999999999998
 70
   192
  0
VERTEX
  5
184A
  8
0
 10
402.903019739369
 20
101.9246476794734
 30
-5.999999999999998
 70
   192
  0
VERTEX
  5
184B
  8
0
 10
403.7775798595421
 20
98.84959920939343
 30
-5.999999999999998
 70
   192
  0
VERTEX
  5
184C
  8
0
 10
410.7425232360878
 20
84.3705918667809
 30
-5.999999999999999
 70
   192
  0
VERTEX
  5
184D
  8
0
 10
426.9509431046515
 20
17.36953448911026
 30
-5.999999999999998
 70
   192
  0
VERTEX
  5
184E
  8
0
 10
439.2773504004468
 20
-25.97145376566701
 30
-5.999999999999998
 70
   192
  0
VERTEX
  5
184F
  8
0
 10
440.4200333585962
 20
-38.30790330233481
 30
-5.999999999999998
 70
   192
  0
VERTEX
  5
1850
  8
0
 10
446.5011877219595
 20
-63.4456882145102
 30
-5.999999999999999
 70
   192
  0
VERTEX
  5
1851
  8
0
 10
447.993118545527
 20
-120.0672247126803
 30
-5.999999999999998
 70
   192
  0
VERTEX
  5
1852
  8
0
 10
-135.0325529046527
 20
-191.801804281872
 30
-5.999999999999998
 70
   192
  0
VERTEX
  5
1853
  8
0
 10
-142.0557232671756
 20
-189.6900803611254
 30
-5.999999999999998
 70
   192
  0
VERTEX
  5
1854
  8
0
 10
451.5412273853108
 20
-158.3727453651344
 30
-5.999999999999998
 70
   192
  0
VERTEX
  5
1855
  8
0
 10
451.292253317201
 20
-177.3168022789886
 30
-5.999999999999998
 70
   192
  0
VERTEX
  5
1856
  8
0
 10
450.5455031021401
 20
-196.2477727918344
 30
-5.999999999999998
 70
   192
  0
VERTEX
  5
1857
  8
0
 10
450.1562698090507
 20
-202.1628194171293
 30
-5.999999999999998
 70
   192
  0
VERTEX
  5
1858
  8
0
 10
94.64539425859368
 20
-260.8612731623032
 30
-5.999999999999998
 70
   192
  0
VERTEX
  5
1859
  8
0
 10
337.7020962599659
 20
-305.7633592317159
 30
-5.999999999999998
 70
   192
  0
VERTEX
  5
185A
  8
0
 10
390.1072956711035
 20
-298.2708350484175
 30
-5.999999999999998
 70
   192
  0
VERTEX
  5
185B
  8
0
 10
431.2043560088774
 20
-264.9020700794862
 30
-5.999999999999998
 70
   192
  0
VERTEX
  5
185C
  8
0
 10
449.2988340068368
 20
-215.1523694779774
 30
-5.999999999999998
 70
   192
  0
VERTEX
  5
185D
  8
0
 10
449.3014925891259
 20
-215.1525795426436
 30
-5.999999999999998
 70
   192
  0
VERTEX
  5
185E
  8
0
 10
450.5069807840784
 20
-215.472950127719
 30
-5.999999999999999
 70
   192
  0
VERTEX
  5
185F
  8
0
 10
432.0757945545699
 20
-265.7981646333304
 30
-5.999999999999999
 70
   192
  0
VERTEX
  5
1860
  8
0
 10
390.3940523212175
 20
-299.4874538103817
 30
-5.999999999999999
 70
   192
  0
VERTEX
  5
1861
  8
0
 10
337.3225724926497
 20
-306.9543051995877
 30
-5.999999999999999
 70
   192
  0
VERTEX
  5
1862
  8
0
 10
261.8853143350046
 20
-295.9437286344366
 30
-5.999999999999999
 70
   192
  0
VERTEX
  5
1863
  8
0
 10
186.8620075331154
 20
-282.396915313592
 30
-5.999999999999999
 70
   192
  0
VERTEX
  5
1864
  8
0
 10
112.3378967146953
 20
-266.3292576945121
 30
-5.999999999999999
 70
   192
  0
VERTEX
  5
1865
  8
0
 10
-52.74172263049991
 20
-221.1654189131239
 30
-5.999999999999999
 70
   192
  0
VERTEX
  5
1866
  8
0
 10
0.0
 20
0.0
 30
0.0
 70
   128
 71
     5
 72
     4
 73
    -3
  0
VERTEX
  5
1867
  8
0
 10
0.0
 20
0.0
 30
0.0
 70
   128
 71
     3
 72
    -2
 73
    -5
  0
VERTEX
  5
1868
  8
0
 10
0.0
 20
0.0
 30
0.0
 70
   128
 71
    18
 72
   -17
 73
   -20
  0
VERTEX
  5
1869
  8
0
 10
0.0
 20
0.0
 30
0.0
 70
   128
 71
    20
 72
    19
 73
   -18
  0
VERTEX
  5
186A
  8
0
 10
0.0
 20
0.0
 30
0.0
 70
   128
 71
   -17
 72
    21
 73
   -20
  0
VERTEX
  5
186B
  8
0
 10
0.0
 20
0.0
 30
0.0
 70
   128
 71
   -16
 72
    22
 73
   -21
  0
VERTEX
  5
186C
  8
0
 10
0.0
 20
0.0
 30
0.0
 70
   128
 71
    17
 72
   -16
 73
   -21
  0
VERTEX
  5
186D
  8
0
 10
0.0
 20
0.0
 30
0.0
 70
   128
 71
   -15
 72
    23
 73
   -22
  0
VERTEX
  5
186E
  8
0
 10
0.0
 20
0.0
 30
0.0
 70
   128
 71
    16
 72
   -15
 73
   -22
  0
VERTEX
  5
186F
  8
0
 10
0.0
 20
0.0
 30
0.0
 70
   128
 71
   -14
 72
    24
 73
   -23
  0
VERTEX
  5
1870
  8
0
 10
0.0
 20
0.0
 30
0.0
 70
   128
 71
    15
 72
   -14
 73
   -23
  0
VERTEX
  5
1871
  8
0
 10
0.0
 20
0.0
 30
0.0
 70
   128
 71
   -12
 72
    25
 73
   -24
  0
VERTEX
  5
1872
  8
0
 10
0.0
 20
0.0
 30
0.0
 70
   128
 71
    13
 72
   -12
 73
   -24
  0
VERTEX
  5
1873
  8
0
 10
0.0
 20
0.0
 30
0.0
 70
   128
 71
    14
 72
   -13
 73
   -24
  0
VERTEX
  5
1874
  8
0
 10
0.0
 20
0.0
 30
0.0
 70
   128
 71
   -11
 72
    26
 73
   -25
  0
VERTEX
  5
1875
  8
0
 10
0.0
 20
0.0
 30
0.0
 70
   128
 71
    12
 72
   -11
 73
   -25
  0
VERTEX
  5
1876
  8
0
 10
0.0
 20
0.0
 30
0.0
 70
   128
 71
    10
 72
    -9
 73
   -26
  0
VERTEX
  5
1877
  8
0
 10
0.0
 20
0.0
 30
0.0
 70
   128
 71
    11
 72
   -10
 73
   -26
  0
VERTEX
  5
1878
  8
0
 10
0.0
 20
0.0
 30
0.0
 70
   128
 71
    -9
 72
    27
 73
   -26
  0
VERTEX
  5
1879
  8
0
 10
0.0
 20
0.0
 30
0.0
 70
   128
 71
    -8
 72
    28
 73
   -27
  0
VERTEX
  5
187A
  8
0
 10
0.0
 20
0.0
 30
0.0
 70
   128
 71
     9
 72
    -8
 73
   -27
  0
VERTEX
  5
187B
  8
0
 10
0.0
 20
0.0
 30
0.0
 70
   128
 71
    -7
 72
    29
 73
   -28
  0
VERTEX
  5
187C
  8
0
 10
0.0
 20
0.0
 30
0.0
 70
   128
 71
     8
 72
    -7
 73
   -28
  0
VERTEX
  5
187D
  8
0
 10
0.0
 20
0.0
 30
0.0
 70
   128
 71
    -6
 72
    30
 73
   -29
  0
VERTEX
  5
187E
  8
0
 10
0.0
 20
0.0
 30
0.0
 70
   128
 71
     7
 72
    -6
 73
   -29
  0
VERTEX
  5
187F
  8
0
 10
0.0
 20
0.0
 30
0.0
 70
   128
 71
     6
 72
     1
 73
   -30
  0
VERTEX
  5
1880
  8
0
 10
0.0
 20
0.0
 30
0.0
 70
   128
 71
    -5
 72
     2
 73
     1
  0
VERTEX
  5
1881
  8
0
 10
0.0
 20
0.0
 30
0.0
 70
   128
 71
    31
 72
     5
 73
   -33
  0
VERTEX
  5
1882
  8
0
 10
0.0
 20
0.0
 30
0.0
 70
   128
 71
    33
 72
    32
 73
   -31
  0
VERTEX
  5
1883
  8
0
 10
0.0
 20
0.0
 30
0.0
 70
   128
 71
    36
 72
    35
 73
   -34
  0
VERTEX
  5
1884
  8
0
 10
0.0
 20
0.0
 30
0.0
 70
   128
 71
    32
 72
   -36
 73
    34
  0
VERTEX
  5
1885
  8
0
 10
0.0
 20
0.0
 30
0.0
 70
   128
 71
    37
 72
    36
 73
   -39
  0
VERTEX
  5
1886
  8
0
 10
0.0
 20
0.0
 30
0.0
 70
   128
 71
    39
 72
    38
 73
   -37
  0
VERTEX
  5
1887
  8
0
 10
0.0
 20
0.0
 30
0.0
 70
   128
 71
    44
 72
    43
 73
   -42
  0
VERTEX
  5
1888
  8
0
 10
0.0
 20
0.0
 30
0.0
 70
   128
 71
    42
 72
   -41
 73
   -44
  0
VERTEX
  5
1889
  8
0
 10
0.0
 20
0.0
 30
0.0
 70
   128
 71
    41
 72
   -40
 73
   -44
  0
VERTEX
  5
188A
  8
0
 10
0.0
 20
0.0
 30
0.0
 70
   128
 71
    40
 72
    38
 73
   -44
  0
VERTEX
  5
188B
  8
0
 10
0.0
 20
0.0
 30
0.0
 70
   128
 71
    45
 72
    44
 73
   -47
  0
VERTEX
  5
188C
  8
0
 10
0.0
 20
0.0
 30
0.0
 70
   128
 71
    47
 72
    46
 73
   -45
  0
VERTEX
  5
188D
  8
0
 10
0.0
 20
0.0
 30
0.0
 70
   128
 71
    46
 72
    49
 73
    48
  0
VERTEX
  5
188E
  8
0
 10
0.0
 20
0.0
 30
0.0
 70
   128
 71
    49
 72
    51
 73
    50
  0
VERTEX
  5
188F
  8
0
 10
0.0
 20
0.0
 30
0.0
 70
   128
 71
    51
 72
    53
 73
    52
  0
VERTEX
  5
1890
  8
0
 10
0.0
 20
0.0
 30
0.0
 70
   128
 71
    53
 72
    55
 73
    54
  0
VERTEX
  5
1891
  8
0
 10
0.0
 20
0.0
 30
0.0
 70
   128
 71
    19
 72
    57
 73
    56
  0
VERTEX
  5
1892
  8
0
 10
0.0
 20
0.0
 30
0.0
 70
   128
 71
    61
 72
    60
 73
   -59
  0
VERTEX
  5
1893
  8
0
 10
0.0
 20
0.0
 30
0.0
 70
   128
 71
    55
 72
   -61
 73
   -59
  0
VERTEX
  5
1894
  8
0
 10
0.0
 20
0.0
 30
0.0
 70
   128
 71
    59
 72
    58
 73
   -55
  0
VERTEX
  5
1895
  8
0
 10
0.0
 20
0.0
 30
0.0
 70
   128
 71
    68
 72
    61
 73
   -67
  0
VERTEX
  5
1896
  8
0
 10
0.0
 20
0.0
 30
0.0
 70
   128
 71
   -65
 72
    69
 73
   -68
  0
VERTEX
  5
1897
  8
0
 10
0.0
 20
0.0
 30
0.0
 70
   128
 71
    66
 72
   -65
 73
   -68
  0
VERTEX
  5
1898
  8
0
 10
0.0
 20
0.0
 30
0.0
 70
   128
 71
    67
 72
   -66
 73
   -68
  0
VERTEX
  5
1899
  8
0
 10
0.0
 20
0.0
 30
0.0
 70
   128
 71
   -64
 72
    70
 73
   -69
  0
VERTEX
  5
189A
  8
0
 10
0.0
 20
0.0
 30
0.0
 70
   128
 71
    65
 72
   -64
 73
   -69
  0
VERTEX
  5
189B
  8
0
 10
0.0
 20
0.0
 30
0.0
 70
   128
 71
   -63
 72
    71
 73
   -70
  0
VERTEX
  5
189C
  8
0
 10
0.0
 20
0.0
 30
0.0
 70
   128
 71
    64
 72
   -63
 73
   -70
  0
VERTEX
  5
189D
  8
0
 10
0.0
 20
0.0
 30
0.0
 70
   128
 71
   -62
 72
    74
 73
   -73
  0
VERTEX
  5
189E
  8
0
 10
0.0
 20
0.0
 30
0.0
 70
   128
 71
    73
 72
   -72
 73
   -62
  0
VERTEX
  5
189F
  8
0
 10
0.0
 20
0.0
 30
0.0
 70
   128
 71
   -72
 72
    63
 73
   -62
  0
VERTEX
  5
18A0
  8
0
 10
0.0
 20
0.0
 30
0.0
 70
   128
 71
    72
 72
   -71
 73
   -63
  0
VERTEX
  5
18A1
  8
0
 10
0.0
 20
0.0
 30
0.0
 70
   128
 71
    62
 72
    56
 73
   -75
  0
VERTEX
  5
18A2
  8
0
 10
0.0
 20
0.0
 30
0.0
 70
   128
 71
    75
 72
   -74
 73
   -62
  0
SEQEND
  5
1A22
  8
0
  0
POLYLINE
  5
18A3
  8
0
 66
     1
 10
0.0
 20
0.0
 30
0.0
 70
    64
 71
    10
 72
     8
  0
VERTEX
  5
18A4
  8
0
 10
85.35000000000001
 20
35.20000000000012
 30
-6.75
 70
   192
  0
VERTEX
  5
18A5
  8
0
 10
81.34999999999994
 20
35.20000000000012
 30
-6.75
 70
   192
  0
VERTEX
  5
18A6
  8
0
 10
81.35
 20
45.20000000000002
 30
-6.75
 70
   192
  0
VERTEX
  5
18A7
  8
0
 10
85.35
 20
45.20000000000002
 30
-6.75
 70
   192
  0
VERTEX
  5
18A8
  8
0
 10
83.35
 20
45.20000000000002
 30
-8.750000000000002
 70
   192
  0
VERTEX
  5
18A9
  8
0
 10
83.34999999999994
 20
35.20000000000012
 30
-8.750000000000002
 70
   192
  0
VERTEX
  5
18AA
  8
0
 10
84.76421356237309
 20
45.20000000000002
 30
-8.164213562373096
 70
   192
  0
VERTEX
  5
18AB
  8
0
 10
84.76421356237303
 20
35.20000000000012
 30
-8.164213562373096
 70
   192
  0
VERTEX
  5
18AC
  8
0
 10
81.9357864376269
 20
45.20000000000002
 30
-8.164213562373096
 70
   192
  0
VERTEX
  5
18AD
  8
0
 10
81.93578643762685
 20
35.20000000000012
 30
-8.164213562373096
 70
   192
  0
VERTEX
  5
18AE
  8
0
 10
0.0
 20
0.0
 30
0.0
 70
   128
 71
     8
 72
     7
 73
    -4
  0
VERTEX
  5
18AF
  8
0
 10
0.0
 20
0.0
 30
0.0
 70
   128
 71
    -8
 72
     4
 73
     1
  0
VERTEX
  5
18B0
  8
0
 10
0.0
 20
0.0
 30
0.0
 70
   128
 71
     6
 72
     5
 73
    -7
  0
VERTEX
  5
18B1
  8
0
 10
0.0
 20
0.0
 30
0.0
 70
   128
 71
    -6
 72
     7
 73
     8
  0
VERTEX
  5
18B2
  8
0
 10
0.0
 20
0.0
 30
0.0
 70
   128
 71
    10
 72
     9
 73
    -5
  0
VERTEX
  5
18B3
  8
0
 10
0.0
 20
0.0
 30
0.0
 70
   128
 71
   -10
 72
     5
 73
     6
  0
VERTEX
  5
18B4
  8
0
 10
0.0
 20
0.0
 30
0.0
 70
   128
 71
     2
 72
     3
 73
    -9
  0
VERTEX
  5
18B5
  8
0
 10
0.0
 20
0.0
 30
0.0
 70
   128
 71
    -2
 72
     9
 73
    10
  0
SEQEND
  5
1A23
  8
0
  0
POLYLINE
  5
18B6
  8
0
 66
     1
 10
0.0
 20
0.0
 30
0.0
 70
    64
 71
    14
 72
    12
  0
VERTEX
  5
18B7
  8
0
 10
81.17139380484326
 20
34.81697777844052
 30
-6.75
 70
   192
  0
VERTEX
  5
18B8
  8
0
 10
81.35
 20
35.20000000000012
 30
-6.75
 70
   192
  0
VERTEX
  5
18B9
  8
0
 10
85.34999999999994
 20
35.20000000000012
 30
-6.75
 70
   192
  0
VERTEX
  5
18BA
  8
0
 10
83.74254424358942
 20
31.7528000059646
 30
-6.75
 70
   192
  0
VERTEX
  5
18BB
  8
0
 10
83.34999999999994
 20
35.20000000000012
 30
-8.750000000000002
 70
   192
  0
VERTEX
  5
18BC
  8
0
 10
82.45696902421633
 20
33.28488889220256
 30
-8.750000000000002
 70
   192
  0
VERTEX
  5
18BD
  8
0
 10
81.93578643762685
 20
35.20000000000012
 30
-8.164213562373096
 70
   192
  0
VERTEX
  5
18BE
  8
0
 10
81.54793006887225
 20
34.36823933304196
 30
-8.164213562373096
 70
   192
  0
VERTEX
  5
18BF
  8
0
 10
84.76421356237303
 20
35.20000000000012
 30
-8.164213562373096
 70
   192
  0
VERTEX
  5
18C0
  8
0
 10
83.36600797956042
 20
32.20153845136316
 30
-8.164213562373096
 70
   192
  0
VERTEX
  5
18C1
  8
0
 10
81.32899475615775
 20
35.05659838364453
 30
-6.75
 70
   192
  0
VERTEX
  5
18C2
  8
0
 10
81.26774390570648
 20
34.92524551096464
 30
-6.75
 70
   192
  0
VERTEX
  5
18C3
  8
0
 10
84.60969515135822
 20
32.72720959868141
 30
-6.75
 70
   192
  0
VERTEX
  5
18C4
  8
0
 10
85.16095280541973
 20
33.90938545280017
 30
-6.75
 70
   192
  0
VERTEX
  5
18C5
  8
0
 10
0.0
 20
0.0
 30
0.0
 70
   128
 71
    11
 72
     2
 73
     7
  0
VERTEX
  5
18C6
  8
0
 10
0.0
 20
0.0
 30
0.0
 70
   128
 71
    12
 72
    11
 73
    -7
  0
VERTEX
  5
18C7
  8
0
 10
0.0
 20
0.0
 30
0.0
 70
   128
 71
   -12
 72
     7
 73
     8
  0
VERTEX
  5
18C8
  8
0
 10
0.0
 20
0.0
 30
0.0
 70
   128
 71
     8
 72
     1
 73
    12
  0
VERTEX
  5
18C9
  8
0
 10
0.0
 20
0.0
 30
0.0
 70
   128
 71
     8
 72
     7
 73
    -5
  0
VERTEX
  5
18CA
  8
0
 10
0.0
 20
0.0
 30
0.0
 70
   128
 71
    -8
 72
     5
 73
     6
  0
VERTEX
  5
18CB
  8
0
 10
0.0
 20
0.0
 30
0.0
 70
   128
 71
     6
 72
     5
 73
    -9
  0
VERTEX
  5
18CC
  8
0
 10
0.0
 20
0.0
 30
0.0
 70
   128
 71
    -6
 72
     9
 73
    10
  0
VERTEX
  5
18CD
  8
0
 10
0.0
 20
0.0
 30
0.0
 70
   128
 71
    13
 72
     4
 73
    10
  0
VERTEX
  5
18CE
  8
0
 10
0.0
 20
0.0
 30
0.0
 70
   128
 71
    10
 72
     9
 73
   -14
  0
VERTEX
  5
18CF
  8
0
 10
0.0
 20
0.0
 30
0.0
 70
   128
 71
   -10
 72
    14
 73
    13
  0
VERTEX
  5
18D0
  8
0
 10
0.0
 20
0.0
 30
0.0
 70
   128
 71
     9
 72
     3
 73
    14
  0
SEQEND
  5
1A24
  8
0
  0
POLYLINE
  5
18D1
  8
0
 66
     1
 10
0.0
 20
0.0
 30
0.0
 70
    64
 71
    10
 72
     8
  0
VERTEX
  5
18D2
  8
0
 10
78.02505039833746
 20
26.9552530291553
 30
-6.75
 70
   192
  0
VERTEX
  5
18D3
  8
0
 10
75.4538999595913
 20
30.01943080163121
 30
-6.75
 70
   192
  0
VERTEX
  5
18D4
  8
0
 10
81.17139380484326
 20
34.81697777844052
 30
-6.75
 70
   192
  0
VERTEX
  5
18D5
  8
0
 10
83.7425442435894
 20
31.7528000059646
 30
-6.75
 70
   192
  0
VERTEX
  5
18D6
  8
0
 10
82.45696902421633
 20
33.28488889220256
 30
-8.750000000000002
 70
   192
  0
VERTEX
  5
18D7
  8
0
 10
76.73947517896438
 20
28.48734191539326
 30
-8.750000000000002
 70
   192
  0
VERTEX
  5
18D8
  8
0
 10
83.36600797956042
 20
32.20153845136316
 30
-8.164213562373096
 70
   192
  0
VERTEX
  5
18D9
  8
0
 10
77.64851413430847
 20
27.40399147455385
 30
-8.164213562373096
 70
   192
  0
VERTEX
  5
18DA
  8
0
 10
81.54793006887225
 20
34.36823933304196
 30
-8.164213562373096
 70
   192
  0
VERTEX
  5
18DB
  8
0
 10
75.8304362236203
 20
29.57069235623266
 30
-8.164213562373096
 70
   192
  0
VERTEX
  5
18DC
  8
0
 10
0.0
 20
0.0
 30
0.0
 70
   128
 71
     8
 72
     7
 73
    -4
  0
VERTEX
  5
18DD
  8
0
 10
0.0
 20
0.0
 30
0.0
 70
   128
 71
    -8
 72
     4
 73
     1
  0
VERTEX
  5
18DE
  8
0
 10
0.0
 20
0.0
 30
0.0
 70
   128
 71
     6
 72
     5
 73
    -7
  0
VERTEX
  5
18DF
  8
0
 10
0.0
 20
0.0
 30
0.0
 70
   128
 71
    -6
 72
     7
 73
     8
  0
VERTEX
  5
18E0
  8
0
 10
0.0
 20
0.0
 30
0.0
 70
   128
 71
    10
 72
     9
 73
    -5
  0
VERTEX
  5
18E1
  8
0
 10
0.0
 20
0.0
 30
0.0
 70
   128
 71
   -10
 72
     5
 73
     6
  0
VERTEX
  5
18E2
  8
0
 10
0.0
 20
0.0
 30
0.0
 70
   128
 71
     2
 72
     3
 73
    -9
  0
VERTEX
  5
18E3
  8
0
 10
0.0
 20
0.0
 30
0.0
 70
   128
 71
    -2
 72
     9
 73
    10
  0
SEQEND
  5
1A25
  8
0
  0
POLYLINE
  5
18E4
  8
0
 66
     1
 10
0.0
 20
0.0
 30
0.0
 70
    64
 71
    14
 72
    12
  0
VERTEX
  5
18E5
  8
0
 10
77.84644420318072
 20
26.57223080759582
 30
-6.75
 70
   192
  0
VERTEX
  5
18E6
  8
0
 10
78.02505039833746
 20
26.95525302915531
 30
-6.75
 70
   192
  0
VERTEX
  5
18E7
  8
0
 10
75.4538999595913
 20
30.01943080163121
 30
-6.75
 70
   192
  0
VERTEX
  5
18E8
  8
0
 10
73.84644420318072
 20
26.57223080759582
 30
-6.75
 70
   192
  0
VERTEX
  5
18E9
  8
0
 10
76.73947517896438
 20
28.48734191539326
 30
-4.749999999999998
 70
   192
  0
VERTEX
  5
18EA
  8
0
 10
75.84644420318072
 20
26.57223080759582
 30
-4.749999999999998
 70
   192
  0
VERTEX
  5
18EB
  8
0
 10
77.64851413430847
 20
27.40399147455385
 30
-5.335786437626904
 70
   192
  0
VERTEX
  5
18EC
  8
0
 10
77.26065776555382
 20
26.57223080759582
 30
-5.335786437626904
 70
   192
  0
VERTEX
  5
18ED
  8
0
 10
75.8304362236203
 20
29.57069235623266
 30
-5.335786437626904
 70
   192
  0
VERTEX
  5
18EE
  8
0
 10
74.43223064080763
 20
26.57223080759582
 30
-5.335786437626904
 70
   192
  0
VERTEX
  5
18EF
  8
0
 10
77.92870029747425
 20
26.84698529663122
 30
-6.75
 70
   192
  0
VERTEX
  5
18F0
  8
0
 10
77.86744944702298
 20
26.71563242395137
 30
-6.75
 70
   192
  0
VERTEX
  5
18F1
  8
0
 10
74.03549139776102
 20
27.86284535479573
 30
-6.75
 70
   192
  0
VERTEX
  5
18F2
  8
0
 10
74.58674905182251
 20
29.04502120891445
 30
-6.75
 70
   192
  0
VERTEX
  5
18F3
  8
0
 10
0.0
 20
0.0
 30
0.0
 70
   128
 71
    11
 72
     2
 73
     7
  0
VERTEX
  5
18F4
  8
0
 10
0.0
 20
0.0
 30
0.0
 70
   128
 71
    12
 72
    11
 73
    -7
  0
VERTEX
  5
18F5
  8
0
 10
0.0
 20
0.0
 30
0.0
 70
   128
 71
   -12
 72
     7
 73
     8
  0
VERTEX
  5
18F6
  8
0
 10
0.0
 20
0.0
 30
0.0
 70
   128
 71
     8
 72
     1
 73
    12
  0
VERTEX
  5
18F7
  8
0
 10
0.0
 20
0.0
 30
0.0
 70
   128
 71
     8
 72
     7
 73
    -5
  0
VERTEX
  5
18F8
  8
0
 10
0.0
 20
0.0
 30
0.0
 70
   128
 71
    -8
 72
     5
 73
     6
  0
VERTEX
  5
18F9
  8
0
 10
0.0
 20
0.0
 30
0.0
 70
   128
 71
     6
 72
     5
 73
    -9
  0
VERTEX
  5
18FA
  8
0
 10
0.0
 20
0.0
 30
0.0
 70
   128
 71
    -6
 72
     9
 73
    10
  0
VERTEX
  5
18FB
  8
0
 10
0.0
 20
0.0
 30
0.0
 70
   128
 71
    13
 72
     4
 73
    10
  0
VERTEX
  5
18FC
  8
0
 10
0.0
 20
0.0
 30
0.0
 70
   128
 71
    10
 72
     9
 73
   -14
  0
VERTEX
  5
18FD
  8
0
 10
0.0
 20
0.0
 30
0.0
 70
   128
 71
   -10
 72
    14
 73
    13
  0
VERTEX
  5
18FE
  8
0
 10
0.0
 20
0.0
 30
0.0
 70
   128
 71
     9
 72
     3
 73
    14
  0
SEQEND
  5
1A26
  8
0
  0
POLYLINE
  5
18FF
  8
0
 66
     1
 10
0.0
 20
0.0
 30
0.0
 70
    64
 71
    10
 72
     8
  0
VERTEX
  5
1900
  8
0
 10
90.86259505149397
 20
17.56337115440464
 30
-6.75
 70
   192
  0
VERTEX
  5
1901
  8
0
 10
88.63233793622757
 20
14.24283607707094
 30
-6.75
 70
   192
  0
VERTEX
  5
1902
  8
0
 10
75.83740494850606
 20
22.83662884559538
 30
-6.75
 70
   192
  0
VERTEX
  5
1903
  8
0
 10
78.06766206377245
 20
26.15716392292912
 30
-6.75
 70
   192
  0
VERTEX
  5
1904
  8
0
 10
76.95253350613926
 20
24.49689638426225
 30
-8.750000000000002
 70
   192
  0
VERTEX
  5
1905
  8
0
 10
89.74746649386077
 20
15.9031036157378
 30
-8.750000000000002
 70
   192
  0
VERTEX
  5
1906
  8
0
 10
77.74104847113647
 20
25.67088281943749
 30
-8.164213562373096
 70
   192
  0
VERTEX
  5
1907
  8
0
 10
90.53598145885798
 20
17.07709005091303
 30
-8.164213562373096
 70
   192
  0
VERTEX
  5
1908
  8
0
 10
76.16401854114206
 20
23.32290994908701
 30
-8.164213562373096
 70
   192
  0
VERTEX
  5
1909
  8
0
 10
88.95895152886357
 20
14.72911718056256
 30
-8.164213562373096
 70
   192
  0
VERTEX
  5
190A
  8
0
 10
0.0
 20
0.0
 30
0.0
 70
   128
 71
     8
 72
     7
 73
    -4
  0
VERTEX
  5
190B
  8
0
 10
0.0
 20
0.0
 30
0.0
 70
   128
 71
    -8
 72
     4
 73
     1
  0
VERTEX
  5
190C
  8
0
 10
0.0
 20
0.0
 30
0.0
 70
   128
 71
     6
 72
     5
 73
    -7
  0
VERTEX
  5
190D
  8
0
 10
0.0
 20
0.0
 30
0.0
 70
   128
 71
    -6
 72
     7
 73
     8
  0
VERTEX
  5
190E
  8
0
 10
0.0
 20
0.0
 30
0.0
 70
   128
 71
    10
 72
     9
 73
    -5
  0
VERTEX
  5
190F
  8
0
 10
0.0
 20
0.0
 30
0.0
 70
   128
 71
   -10
 72
     5
 73
     6
  0
VERTEX
  5
1910
  8
0
 10
0.0
 20
0.0
 30
0.0
 70
   128
 71
     2
 72
     3
 73
    -9
  0
VERTEX
  5
1911
  8
0
 10
0.0
 20
0.0
 30
0.0
 70
   128
 71
    -2
 72
     9
 73
    10
  0
SEQEND
  5
1A27
  8
0
  0
POLYLINE
  5
1912
  8
0
 66
     1
 10
0.0
 20
0.0
 30
0.0
 70
    64
 71
    14
 72
    12
  0
VERTEX
  5
1913
  8
0
 10
88.85355579681926
 20
13.8277691924042
 30
-6.75
 70
   192
  0
VERTEX
  5
1914
  8
0
 10
88.63233793622756
 20
14.24283607707092
 30
-6.75
 70
   192
  0
VERTEX
  5
1915
  8
0
 10
90.86259505149397
 20
17.56337115440466
 30
-6.75
 70
   192
  0
VERTEX
  5
1916
  8
0
 10
92.85355579681926
 20
13.8277691924042
 30
-6.75
 70
   192
  0
VERTEX
  5
1917
  8
0
 10
89.74746649386077
 20
15.9031036157378
 30
-8.750000000000002
 70
   192
  0
VERTEX
  5
1918
  8
0
 10
90.85355579681926
 20
13.8277691924042
 30
-8.750000000000002
 70
   192
  0
VERTEX
  5
1919
  8
0
 10
88.95895152886357
 20
14.72911718056256
 30
-8.164213562373096
 70
   192
  0
VERTEX
  5
191A
  8
0
 10
89.43934223444617
 20
13.8277691924042
 30
-8.164213562373096
 70
   192
  0
VERTEX
  5
191B
  8
0
 10
90.53598145885798
 20
17.07709005091303
 30
-8.164213562373096
 70
   192
  0
VERTEX
  5
191C
  8
0
 10
92.26776935919236
 20
13.8277691924042
 30
-8.164213562373096
 70
   192
  0
VERTEX
  5
191D
  8
0
 10
88.75071899759325
 20
14.1315147964069
 30
-6.75
 70
   192
  0
VERTEX
  5
191E
  8
0
 10
88.82714929360051
 20
13.98811007866377
 30
-6.75
 70
   192
  0
VERTEX
  5
191F
  8
0
 10
92.61589726785057
 20
15.27083716874029
 30
-6.75
 70
   192
  0
VERTEX
  5
1920
  8
0
 10
91.92802460378516
 20
16.56147962842844
 30
-6.75
 70
   192
  0
VERTEX
  5
1921
  8
0
 10
0.0
 20
0.0
 30
0.0
 70
   128
 71
    11
 72
     2
 73
     7
  0
VERTEX
  5
1922
  8
0
 10
0.0
 20
0.0
 30
0.0
 70
   128
 71
    12
 72
    11
 73
    -7
  0
VERTEX
  5
1923
  8
0
 10
0.0
 20
0.0
 30
0.0
 70
   128
 71
   -12
 72
     7
 73
     8
  0
VERTEX
  5
1924
  8
0
 10
0.0
 20
0.0
 30
0.0
 70
   128
 71
     8
 72
     1
 73
    12
  0
VERTEX
  5
1925
  8
0
 10
0.0
 20
0.0
 30
0.0
 70
   128
 71
     8
 72
     7
 73
    -5
  0
VERTEX
  5
1926
  8
0
 10
0.0
 20
0.0
 30
0.0
 70
   128
 71
    -8
 72
     5
 73
     6
  0
VERTEX
  5
1927
  8
0
 10
0.0
 20
0.0
 30
0.0
 70
   128
 71
     6
 72
     5
 73
    -9
  0
VERTEX
  5
1928
  8
0
 10
0.0
 20
0.0
 30
0.0
 70
   128
 71
    -6
 72
     9
 73
    10
  0
VERTEX
  5
1929
  8
0
 10
0.0
 20
0.0
 30
0.0
 70
   128
 71
    13
 72
     4
 73
    10
  0
VERTEX
  5
192A
  8
0
 10
0.0
 20
0.0
 30
0.0
 70
   128
 71
    10
 72
     9
 73
   -14
  0
VERTEX
  5
192B
  8
0
 10
0.0
 20
0.0
 30
0.0
 70
   128
 71
   -10
 72
    14
 73
    13
  0
VERTEX
  5
192C
  8
0
 10
0.0
 20
0.0
 30
0.0
 70
   128
 71
     9
 72
     3
 73
    14
  0
SEQEND
  5
1A28
  8
0
  0
POLYLINE
  5
192D
  8
0
 66
     1
 10
0.0
 20
0.0
 30
0.0
 70
    64
 71
    10
 72
     8
  0
VERTEX
  5
192E
  8
0
 10
85.52860619515671
 20
5.58302222155951
 30
-6.75
 70
   192
  0
VERTEX
  5
192F
  8
0
 10
82.95745575641057
 20
8.647199994035416
 30
-6.75
 70
   192
  0
VERTEX
  5
1930
  8
0
 10
88.67494960166255
 20
13.44474697084471
 30
-6.75
 70
   192
  0
VERTEX
  5
1931
  8
0
 10
91.24610004040869
 20
10.38056919836878
 30
-6.75
 70
   192
  0
VERTEX
  5
1932
  8
0
 10
89.96052482103562
 20
11.91265808460674
 30
-8.750000000000002
 70
   192
  0
VERTEX
  5
1933
  8
0
 10
84.24303097578364
 20
7.115111107797459
 30
-8.750000000000002
 70
   192
  0
VERTEX
  5
1934
  8
0
 10
90.8695637763797
 20
10.82930764376733
 30
-8.164213562373096
 70
   192
  0
VERTEX
  5
1935
  8
0
 10
85.15206993112773
 20
6.031760666958053
 30
-8.164213562373096
 70
   192
  0
VERTEX
  5
1936
  8
0
 10
89.05148586569153
 20
12.99600852544615
 30
-8.164213562373096
 70
   192
  0
VERTEX
  5
1937
  8
0
 10
83.33399202043955
 20
8.198461548636864
 30
-8.164213562373096
 70
   192
  0
VERTEX
  5
1938
  8
0
 10
0.0
 20
0.0
 30
0.0
 70
   128
 71
     8
 72
     7
 73
    -4
  0
VERTEX
  5
1939
  8
0
 10
0.0
 20
0.0
 30
0.0
 70
   128
 71
    -8
 72
     4
 73
     1
  0
VERTEX
  5
193A
  8
0
 10
0.0
 20
0.0
 30
0.0
 70
   128
 71
     6
 72
     5
 73
    -7
  0
VERTEX
  5
193B
  8
0
 10
0.0
 20
0.0
 30
0.0
 70
   128
 71
    -6
 72
     7
 73
     8
  0
VERTEX
  5
193C
  8
0
 10
0.0
 20
0.0
 30
0.0
 70
   128
 71
    10
 72
     9
 73
    -5
  0
VERTEX
  5
193D
  8
0
 10
0.0
 20
0.0
 30
0.0
 70
   128
 71
   -10
 72
     5
 73
     6
  0
VERTEX
  5
193E
  8
0
 10
0.0
 20
0.0
 30
0.0
 70
   128
 71
     2
 72
     3
 73
    -9
  0
VERTEX
  5
193F
  8
0
 10
0.0
 20
0.0
 30
0.0
 70
   128
 71
    -2
 72
     9
 73
    10
  0
SEQEND
  5
1A29
  8
0
  0
POLYLINE
  5
1940
  8
0
 66
     1
 10
0.0
 20
0.0
 30
0.0
 70
    64
 71
    14
 72
    12
  0
VERTEX
  5
1941
  8
0
 10
85.35
 20
5.20000000000001
 30
-6.75
 70
   192
  0
VERTEX
  5
1942
  8
0
 10
85.52860619515667
 20
5.583022221559553
 30
-6.75
 70
   192
  0
VERTEX
  5
1943
  8
0
 10
82.95745575641055
 20
8.647199994035416
 30
-6.75
 70
   192
  0
VERTEX
  5
1944
  8
0
 10
81.34999999999992
 20
5.200000000000009
 30
-6.75
 70
   192
  0
VERTEX
  5
1945
  8
0
 10
84.24303097578364
 20
7.115111107797459
 30
-4.749999999999998
 70
   192
  0
VERTEX
  5
1946
  8
0
 10
83.35
 20
5.20000000000001
 30
-4.749999999999998
 70
   192
  0
VERTEX
  5
1947
  8
0
 10
85.15206993112773
 20
6.031760666958053
 30
-5.335786437626904
 70
   192
  0
VERTEX
  5
1948
  8
0
 10
84.76421356237309
 20
5.20000000000001
 30
-5.335786437626904
 70
   192
  0
VERTEX
  5
1949
  8
0
 10
83.33399202043955
 20
8.198461548636864
 30
-5.335786437626904
 70
   192
  0
VERTEX
  5
194A
  8
0
 10
81.9357864376269
 20
5.20000000000001
 30
-5.335786437626904
 70
   192
  0
VERTEX
  5
194B
  8
0
 10
85.43225609429346
 20
5.474754489035451
 30
-6.75
 70
   192
  0
VERTEX
  5
194C
  8
0
 10
85.37100524384218
 20
5.343401616355575
 30
-6.75
 70
   192
  0
VERTEX
  5
194D
  8
0
 10
81.53904719458022
 20
6.490614547199937
 30
-6.75
 70
   192
  0
VERTEX
  5
194E
  8
0
 10
82.09030484864172
 20
7.672790401318677
 30
-6.75
 70
   192
  0
VERTEX
  5
194F
  8
0
 10
0.0
 20
0.0
 30
0.0
 70
   128
 71
    11
 72
     2
 73
     7
  0
VERTEX
  5
1950
  8
0
 10
0.0
 20
0.0
 30
0.0
 70
   128
 71
    12
 72
    11
 73
    -7
  0
VERTEX
  5
1951
  8
0
 10
0.0
 20
0.0
 30
0.0
 70
   128
 71
   -12
 72
     7
 73
     8
  0
VERTEX
  5
1952
  8
0
 10
0.0
 20
0.0
 30
0.0
 70
   128
 71
     8
 72
     1
 73
    12
  0
VERTEX
  5
1953
  8
0
 10
0.0
 20
0.0
 30
0.0
 70
   128
 71
     8
 72
     7
 73
    -5
  0
VERTEX
  5
1954
  8
0
 10
0.0
 20
0.0
 30
0.0
 70
   128
 71
    -8
 72
     5
 73
     6
  0
VERTEX
  5
1955
  8
0
 10
0.0
 20
0.0
 30
0.0
 70
   128
 71
     6
 72
     5
 73
    -9
  0
VERTEX
  5
1956
  8
0
 10
0.0
 20
0.0
 30
0.0
 70
   128
 71
    -6
 72
     9
 73
    10
  0
VERTEX
  5
1957
  8
0
 10
0.0
 20
0.0
 30
0.0
 70
   128
 71
    13
 72
     4
 73
    10
  0
VERTEX
  5
1958
  8
0
 10
0.0
 20
0.0
 30
0.0
 70
   128
 71
    10
 72
     9
 73
   -14
  0
VERTEX
  5
1959
  8
0
 10
0.0
 20
0.0
 30
0.0
 70
   128
 71
   -10
 72
    14
 73
    13
  0
VERTEX
  5
195A
  8
0
 10
0.0
 20
0.0
 30
0.0
 70
   128
 71
     9
 72
     3
 73
    14
  0
SEQEND
  5
1A2A
  8
0
  0
POLYLINE
  5
195B
  8
0
 66
     1
 10
0.0
 20
0.0
 30
0.0
 70
    64
 71
    10
 72
     8
  0
VERTEX
  5
195C
  8
0
 10
85.35000000000001
 20
-4.799999999999985
 30
-6.75
 70
   192
  0
VERTEX
  5
195D
  8
0
 10
81.35000000000001
 20
-4.799999999999985
 30
-6.75
 70
   192
  0
VERTEX
  5
195E
  8
0
 10
81.35
 20
5.200000000000009
 30
-6.75
 70
   192
  0
VERTEX
  5
195F
  8
0
 10
85.35
 20
5.20000000000001
 30
-6.75
 70
   192
  0
VERTEX
  5
1960
  8
0
 10
83.35
 20
5.20000000000001
 30
-8.750000000000002
 70
   192
  0
VERTEX
  5
1961
  8
0
 10
83.35000000000001
 20
-4.799999999999985
 30
-8.750000000000002
 70
   192
  0
VERTEX
  5
1962
  8
0
 10
84.76421356237309
 20
5.20000000000001
 30
-8.164213562373096
 70
   192
  0
VERTEX
  5
1963
  8
0
 10
84.7642135623731
 20
-4.799999999999985
 30
-8.164213562373096
 70
   192
  0
VERTEX
  5
1964
  8
0
 10
81.9357864376269
 20
5.20000000000001
 30
-8.164213562373096
 70
   192
  0
VERTEX
  5
1965
  8
0
 10
81.93578643762692
 20
-4.799999999999985
 30
-8.164213562373096
 70
   192
  0
VERTEX
  5
1966
  8
0
 10
0.0
 20
0.0
 30
0.0
 70
   128
 71
     8
 72
     7
 73
    -4
  0
VERTEX
  5
1967
  8
0
 10
0.0
 20
0.0
 30
0.0
 70
   128
 71
    -8
 72
     4
 73
     1
  0
VERTEX
  5
1968
  8
0
 10
0.0
 20
0.0
 30
0.0
 70
   128
 71
     6
 72
     5
 73
    -7
  0
VERTEX
  5
1969
  8
0
 10
0.0
 20
0.0
 30
0.0
 70
   128
 71
    -6
 72
     7
 73
     8
  0
VERTEX
  5
196A
  8
0
 10
0.0
 20
0.0
 30
0.0
 70
   128
 71
    10
 72
     9
 73
    -5
  0
VERTEX
  5
196B
  8
0
 10
0.0
 20
0.0
 30
0.0
 70
   128
 71
   -10
 72
     5
 73
     6
  0
VERTEX
  5
196C
  8
0
 10
0.0
 20
0.0
 30
0.0
 70
   128
 71
     2
 72
     3
 73
    -9
  0
VERTEX
  5
196D
  8
0
 10
0.0
 20
0.0
 30
0.0
 70
   128
 71
    -2
 72
     9
 73
    10
  0
SEQEND
  5
1A2B
  8
0
  0
POLYLINE
  5
196E
  8
0
 66
     1
 10
0.0
 20
0.0
 30
0.0
 70
    64
 71
     8
 72
     6
  0
VERTEX
  5
196F
  8
0
 10
85.35
 20
45.20000000000002
 30
-6.75
 70
   192
  0
VERTEX
  5
1970
  8
0
 10
84.76421356237309
 20
45.20000000000002
 30
-5.335786437626904
 70
   192
  0
VERTEX
  5
1971
  8
0
 10
83.35
 20
45.20000000000002
 30
-4.749999999999998
 70
   192
  0
VERTEX
  5
1972
  8
0
 10
81.9357864376269
 20
45.20000000000002
 30
-5.335786437626904
 70
   192
  0
VERTEX
  5
1973
  8
0
 10
81.35
 20
45.20000000000002
 30
-6.75
 70
   192
  0
VERTEX
  5
1974
  8
0
 10
81.9357864376269
 20
45.20000000000002
 30
-8.164213562373096
 70
   192
  0
VERTEX
  5
1975
  8
0
 10
83.35
 20
45.20000000000002
 30
-8.750000000000002
 70
   192
  0
VERTEX
  5
1976
  8
0
 10
84.76421356237309
 20
45.20000000000002
 30
-8.164213562373096
 70
   192
  0
VERTEX
  5
1977
  8
0
 10
0.0
 20
0.0
 30
0.0
 70
   128
 71
     1
 72
     8
 73
    -7
  0
VERTEX
  5
1978
  8
0
 10
0.0
 20
0.0
 30
0.0
 70
   128
 71
    -1
 72
     7
 73
    -6
  0
VERTEX
  5
1979
  8
0
 10
0.0
 20
0.0
 30
0.0
 70
   128
 71
    -1
 72
     6
 73
    -5
  0
VERTEX
  5
197A
  8
0
 10
0.0
 20
0.0
 30
0.0
 70
   128
 71
    -1
 72
     5
 73
    -4
  0
VERTEX
  5
197B
  8
0
 10
0.0
 20
0.0
 30
0.0
 70
   128
 71
    -1
 72
     4
 73
    -3
  0
VERTEX
  5
197C
  8
0
 10
0.0
 20
0.0
 30
0.0
 70
   128
 71
    -1
 72
     3
 73
     2
  0
SEQEND
  5
1A2C
  8
0
  0
ENDBLK
  5
19E9
  8
0
  0
ENDSEC
  0
SECTION
  2
ENTITIES
  0
INSERT
  5
BE
  8
0
  2
*X1
 10
0.0
 20
0.0
 30
0.0
  0
INSERT
  5
BF
  8
0
  2
*X2
 10
0.0
 20
0.0
 30
0.0
  0
INSERT
  5
C0
  8
0
  2
*X3
 10
0.0
 20
0.0
 30
0.0
  0
INSERT
  5
C1
  8
0
  2
*X4
 10
0.0
 20
0.0
 30
0.0
  0
INSERT
  5
C2
  8
0
  2
*X5
 10
0.0
 20
0.0
 30
0.0
  0
INSERT
  5
C3
  8
0
  2
*X6
 10
0.0
 20
0.0
 30
0.0
  0
ENDSEC
  0
EOF
