  0
SECTION
  2
HEADER
  9
$ACADVER
  1
AC1009
  9
$DWGCODEPAGE
  3
ansi_1250
  9
$INSBASE
 10
0.0
 20
0.0
 30
0.0
  9
$EXTMIN
 10
-202.5000000000109
 20
-400.000000000004
 30
-0.0000000000000095
  9
$EXTMAX
 10
247.4999999999976
 20
400.0000000000003
 30
630.0000000000036
  9
$LIMMIN
 10
0.0
 20
0.0
  9
$LIMMAX
 10
420.0
 20
297.0
  9
$ORTHOMODE
 70
     0
  9
$REGENMODE
 70
     1
  9
$FILLMODE
 70
     1
  9
$QTEXTMODE
 70
     0
  9
$MIRRTEXT
 70
     0
  9
$DRAGMODE
 70
     2
  9
$LTSCALE
 40
1.0
  9
$OSMODE
 70
   511
  9
$ATTMODE
 70
     1
  9
$TEXTSIZE
 40
2.5
  9
$TRACEWID
 40
1.0
  9
$TEXTSTYLE
  7
STANDARD
  9
$CLAYER
  8
0
  9
$CELTYPE
  6
BYLAYER
  9
$CECOLOR
 62
   256
  9
$DIMSCALE
 40
1.0
  9
$DIMASZ
 40
2.5
  9
$DIMEXO
 40
0.625
  9
$DIMDLI
 40
3.75
  9
$DIMRND
 40
0.0
  9
$DIMDLE
 40
0.0
  9
$DIMEXE
 40
1.25
  9
$DIMTP
 40
0.0
  9
$DIMTM
 40
0.0
  9
$DIMTXT
 40
2.5
  9
$DIMCEN
 40
-2.5
  9
$DIMTSZ
 40
0.0
  9
$DIMTOL
 70
     0
  9
$DIMLIM
 70
     0
  9
$DIMTIH
 70
     0
  9
$DIMTOH
 70
     0
  9
$DIMSE1
 70
     0
  9
$DIMSE2
 70
     0
  9
$DIMTAD
 70
     1
  9
$DIMZIN
 70
     8
  9
$DIMBLK
  1

  9
$DIMASO
 70
     1
  9
$DIMSHO
 70
     1
  9
$DIMPOST
  1

  9
$DIMAPOST
  1

  9
$DIMALT
 70
     0
  9
$DIMALTD
 70
     3
  9
$DIMALTF
 40
0.03937007874016
  9
$DIMLFAC
 40
1.0
  9
$DIMTOFL
 70
     1
  9
$DIMTVP
 40
0.0
  9
$DIMTIX
 70
     0
  9
$DIMSOXD
 70
     0
  9
$DIMSAH
 70
     0
  9
$DIMBLK1
  1

  9
$DIMBLK2
  1

  9
$DIMSTYLE
  2
ISO-25
  9
$DIMCLRD
 70
     0
  9
$DIMCLRE
 70
     0
  9
$DIMCLRT
 70
     0
  9
$DIMTFAC
 40
1.0
  9
$DIMGAP
 40
0.625
  9
$LUNITS
 70
     2
  9
$LUPREC
 70
     3
  9
$SKETCHINC
 40
1.0
  9
$FILLETRAD
 40
10.0
  9
$AUNITS
 70
     0
  9
$AUPREC
 70
     0
  9
$MENU
  1
.
  9
$ELEVATION
 40
0.0
  9
$PELEVATION
 40
0.0
  9
$THICKNESS
 40
0.0
  9
$LIMCHECK
 70
     0
  9
$CHAMFERA
 40
10.0
  9
$CHAMFERB
 40
10.0
  9
$SKPOLY
 70
     0
  9
$TDCREATE
 40
2455022.720692848
  9
$TDUPDATE
 40
2460481.695188774
  9
$TDINDWG
 40
0.0609753472
  9
$TDUSRTIMER
 40
0.0609753472
  9
$USRTIMER
 70
     1
  9
$ANGBASE
 50
0.0
  9
$ANGDIR
 70
     0
  9
$PDMODE
 70
     0
  9
$PDSIZE
 40
0.0
  9
$PLINEWID
 40
0.0
  9
$COORDS
 70
     1
  9
$SPLFRAME
 70
     0
  9
$SPLINETYPE
 70
     6
  9
$SPLINESEGS
 70
     8
  9
$ATTDIA
 70
     0
  9
$ATTREQ
 70
     1
  9
$HANDLING
 70
     1
  9
$HANDSEED
  5
156F
  9
$SURFTAB1
 70
     6
  9
$SURFTAB2
 70
     6
  9
$SURFTYPE
 70
     6
  9
$SURFU
 70
     6
  9
$SURFV
 70
     6
  9
$UCSNAME
  2

  9
$UCSORG
 10
0.0
 20
0.0
 30
0.0
  9
$UCSXDIR
 10
1.0
 20
0.0
 30
0.0
  9
$UCSYDIR
 10
0.0
 20
1.0
 30
0.0
  9
$PUCSNAME
  2

  9
$PUCSORG
 10
0.0
 20
0.0
 30
0.0
  9
$PUCSXDIR
 10
1.0
 20
0.0
 30
0.0
  9
$PUCSYDIR
 10
0.0
 20
1.0
 30
0.0
  9
$USERI1
 70
     0
  9
$USERI2
 70
     0
  9
$USERI3
 70
     0
  9
$USERI4
 70
     0
  9
$USERI5
 70
     0
  9
$USERR1
 40
0.0
  9
$USERR2
 40
0.0
  9
$USERR3
 40
0.0
  9
$USERR4
 40
0.0
  9
$USERR5
 40
0.0
  9
$WORLDVIEW
 70
     1
  9
$SHADEDGE
 70
     3
  9
$SHADEDIF
 70
    70
  9
$TILEMODE
 70
     1
  9
$MAXACTVP
 70
    64
  9
$PLIMCHECK
 70
     0
  9
$PEXTMIN
 10
1.000000000000000E+20
 20
1.000000000000000E+20
 30
1.000000000000000E+20
  9
$PEXTMAX
 10
-1.000000000000000E+20
 20
-1.000000000000000E+20
 30
-1.000000000000000E+20
  9
$PLIMMIN
 10
0.0
 20
0.0
  9
$PLIMMAX
 10
0.0
 20
0.0
  9
$UNITMODE
 70
     0
  9
$VISRETAIN
 70
     1
  9
$PLINEGEN
 70
     0
  9
$PSLTSCALE
 70
     1
  0
ENDSEC
  0
SECTION
  2
TABLES
  0
TABLE
  2
VPORT
 70
     1
  0
VPORT
  2
*ACTIVE
 70
     0
 10
0.0
 20
0.0
 11
1.0
 21
1.0
 12
-110.7943807475018
 22
193.2292574429686
 13
0.0
 23
0.0
 14
10.0
 24
10.0
 15
10.0
 25
10.0
 16
0.5773502691896226
 26
0.5773502691896226
 36
0.5773502691896226
 17
-134.1869158878504
 27
-0.0000000000000284
 37
-0.0000000000001137
 40
1045.19727324559
 41
1.88293897882939
 42
50.0
 43
0.0
 44
0.0
 50
0.0
 51
0.0
 71
    16
 72
  1000
 73
     1
 74
     3
 75
     0
 76
     0
 77
     0
 78
     0
  0
ENDTAB
  0
TABLE
  2
LTYPE
 70
     1
  0
LTYPE
  2
CONTINUOUS
 70
     0
  3
Solid line
 72
    65
 73
     0
 40
0.0
  0
ENDTAB
  0
TABLE
  2
LAYER
 70
     5
  0
LAYER
  2
0
 70
     0
 62
     7
  6
CONTINUOUS
  0
LAYER
  2
UMYVADLO
 70
     0
 62
     7
  6
CONTINUOUS
  0
LAYER
  2
SKOŘEPINA
 70
     0
 62
     7
  6
CONTINUOUS
  0
LAYER
  2
MADLA
 70
     0
 62
     7
  6
CONTINUOUS
  0
LAYER
  2
ŠUPLÍKY
 70
     0
 62
     7
  6
CONTINUOUS
  0
ENDTAB
  0
TABLE
  2
STYLE
 70
     2
  0
STYLE
  2
STANDARD
 70
     0
 40
0.0
 41
1.0
 50
0.0
 71
     0
 42
2.5
  3
arial.ttf
  4

  0
STYLE
  2
ANNOTATIVE
 70
     0
 40
0.0
 41
1.0
 50
0.0
 71
     0
 42
2.5
  3
arial.ttf
  4

  0
ENDTAB
  0
TABLE
  2
VIEW
 70
     0
  0
ENDTAB
  0
TABLE
  2
UCS
 70
     0
  0
ENDTAB
  0
TABLE
  2
APPID
 70
     3
  0
APPID
  2
ACAD
 70
     0
  0
APPID
  2
ACADANNOTATIVE
 70
     0
  0
APPID
  2
ACAECLAYERSTANDARD
 70
     0
  0
ENDTAB
  0
TABLE
  2
DIMSTYLE
 70
     2
  0
DIMSTYLE
  2
ISO-25
 70
     0
  3

  4

  5

  6

  7

 40
1.0
 41
2.5
 42
0.625
 43
3.75
 44
1.25
 45
0.0
 46
0.0
 47
0.0
 48
0.0
140
2.5
141
-2.5
142
0.0
143
0.03937007874016
144
1.0
145
0.0
146
1.0
147
0.625
 71
     0
 72
     0
 73
     0
 74
     0
 75
     0
 76
     0
 77
     1
 78
     8
170
     0
171
     3
172
     1
173
     0
174
     0
175
     0
176
     0
177
     0
178
     0
  0
DIMSTYLE
  2
ANNOTATIVE
 70
     0
  3

  4

  5

  6

  7

 40
0.0
 41
2.5
 42
0.625
 43
3.75
 44
1.25
 45
0.0
 46
0.0
 47
0.0
 48
0.0
140
2.5
141
-2.5
142
0.0
143
0.03937007874016
144
1.0
145
0.0
146
1.0
147
0.625
 71
     0
 72
     0
 73
     0
 74
     0
 75
     0
 76
     0
 77
     1
 78
     8
170
     0
171
     3
172
     1
173
     0
174
     0
175
     0
176
     0
177
     0
178
     0
  0
ENDTAB
  0
ENDSEC
  0
SECTION
  2
BLOCKS
  0
BLOCK
  8
0
  2
$MODEL_SPACE
 70
     0
 10
0.0
 20
0.0
 30
0.0
  3
$MODEL_SPACE
  1

  0
ENDBLK
  5
21
  8
0
  0
BLOCK
 67
     1
  8
0
  2
$PAPER_SPACE
 70
     0
 10
0.0
 20
0.0
 30
0.0
  3
$PAPER_SPACE
  1

  0
ENDBLK
  5
1D
 67
     1
  8
0
  0
BLOCK
  8
0
  2
*X1
 70
     1
 10
0.0
 20
0.0
 30
0.0
  3
*X1
  1

  0
POLYLINE
  5
B39
  8
SKOŘEPINA
 66
     1
 10
0.0
 20
0.0
 30
0.0
 70
    64
 71
     4
 72
     2
  0
VERTEX
  5
B3A
  8
SKOŘEPINA
 10
-202.5
 20
-368.5000000000001
 30
-0.0000000000000107
 70
   192
  0
VERTEX
  5
B3B
  8
SKOŘEPINA
 10
-202.5
 20
-368.5000000000001
 30
17.99999999999999
 70
   192
  0
VERTEX
  5
B3C
  8
SKOŘEPINA
 10
202.5
 20
-368.5000000000001
 30
18.00000000000001
 70
   192
  0
VERTEX
  5
B3D
  8
SKOŘEPINA
 10
202.5
 20
-368.5000000000001
 30
0.0000000000000095
 70
   192
  0
VERTEX
  5
B3E
  8
SKOŘEPINA
 10
0.0
 20
0.0
 30
0.0
 70
   128
 71
     1
 72
     4
 73
    -3
  0
VERTEX
  5
B3F
  8
SKOŘEPINA
 10
0.0
 20
0.0
 30
0.0
 70
   128
 71
    -1
 72
     3
 73
     2
  0
SEQEND
  5
14B9
  8
SKOŘEPINA
  0
POLYLINE
  5
B40
  8
SKOŘEPINA
 66
     1
 10
0.0
 20
0.0
 30
0.0
 70
    64
 71
     4
 72
     2
  0
VERTEX
  5
B41
  8
SKOŘEPINA
 10
202.5
 20
-368.5000000000001
 30
0.0000000000000107
 70
   192
  0
VERTEX
  5
B42
  8
SKOŘEPINA
 10
202.5000000000001
 20
-368.5000000000001
 30
18.00000000000001
 70
   192
  0
VERTEX
  5
B43
  8
SKOŘEPINA
 10
202.4999999999999
 20
368.4999999999999
 30
18.00000000000001
 70
   192
  0
VERTEX
  5
B44
  8
SKOŘEPINA
 10
202.4999999999999
 20
368.4999999999999
 30
0.0000000000000095
 70
   192
  0
VERTEX
  5
B45
  8
SKOŘEPINA
 10
0.0
 20
0.0
 30
0.0
 70
   128
 71
     1
 72
     4
 73
    -3
  0
VERTEX
  5
B46
  8
SKOŘEPINA
 10
0.0
 20
0.0
 30
0.0
 70
   128
 71
    -1
 72
     3
 73
     2
  0
SEQEND
  5
14BA
  8
SKOŘEPINA
  0
POLYLINE
  5
B47
  8
SKOŘEPINA
 66
     1
 10
0.0
 20
0.0
 30
0.0
 70
    64
 71
     4
 72
     2
  0
VERTEX
  5
B48
  8
SKOŘEPINA
 10
202.4999999999999
 20
368.4999999999999
 30
0.0000000000000107
 70
   192
  0
VERTEX
  5
B49
  8
SKOŘEPINA
 10
202.4999999999999
 20
368.4999999999999
 30
18.00000000000001
 70
   192
  0
VERTEX
  5
B4A
  8
SKOŘEPINA
 10
-202.5000000000001
 20
368.4999999999999
 30
17.99999999999999
 70
   192
  0
VERTEX
  5
B4B
  8
SKOŘEPINA
 10
-202.5000000000001
 20
368.4999999999999
 30
-0.0000000000000095
 70
   192
  0
VERTEX
  5
B4C
  8
SKOŘEPINA
 10
0.0
 20
0.0
 30
0.0
 70
   128
 71
     1
 72
     4
 73
    -3
  0
VERTEX
  5
B4D
  8
SKOŘEPINA
 10
0.0
 20
0.0
 30
0.0
 70
   128
 71
    -1
 72
     3
 73
     2
  0
SEQEND
  5
14BB
  8
SKOŘEPINA
  0
POLYLINE
  5
B4E
  8
SKOŘEPINA
 66
     1
 10
0.0
 20
0.0
 30
0.0
 70
    64
 71
     4
 72
     2
  0
VERTEX
  5
B4F
  8
SKOŘEPINA
 10
-202.5000000000001
 20
368.4999999999999
 30
-0.0000000000000107
 70
   192
  0
VERTEX
  5
B50
  8
SKOŘEPINA
 10
-202.5000000000001
 20
368.4999999999999
 30
17.99999999999999
 70
   192
  0
VERTEX
  5
B51
  8
SKOŘEPINA
 10
-202.5
 20
-368.5000000000001
 30
17.99999999999999
 70
   192
  0
VERTEX
  5
B52
  8
SKOŘEPINA
 10
-202.5
 20
-368.5000000000001
 30
-0.0000000000000095
 70
   192
  0
VERTEX
  5
B53
  8
SKOŘEPINA
 10
0.0
 20
0.0
 30
0.0
 70
   128
 71
     1
 72
     4
 73
    -3
  0
VERTEX
  5
B54
  8
SKOŘEPINA
 10
0.0
 20
0.0
 30
0.0
 70
   128
 71
    -1
 72
     3
 73
     2
  0
SEQEND
  5
14BC
  8
SKOŘEPINA
  0
POLYLINE
  5
B55
  8
SKOŘEPINA
 66
     1
 10
0.0
 20
0.0
 30
0.0
 70
    64
 71
     4
 72
     2
  0
VERTEX
  5
B56
  8
SKOŘEPINA
 10
-202.5
 20
-368.5000000000001
 30
17.99999999999999
 70
   192
  0
VERTEX
  5
B57
  8
SKOŘEPINA
 10
202.5
 20
-368.5000000000001
 30
18.00000000000001
 70
   192
  0
VERTEX
  5
B58
  8
SKOŘEPINA
 10
202.4999999999999
 20
368.4999999999999
 30
18.00000000000001
 70
   192
  0
VERTEX
  5
B59
  8
SKOŘEPINA
 10
-202.5000000000001
 20
368.4999999999999
 30
17.99999999999999
 70
   192
  0
VERTEX
  5
B5A
  8
SKOŘEPINA
 10
0.0
 20
0.0
 30
0.0
 70
   128
 71
     3
 72
     4
 73
    -1
  0
VERTEX
  5
B5B
  8
SKOŘEPINA
 10
0.0
 20
0.0
 30
0.0
 70
   128
 71
     2
 72
    -3
 73
     1
  0
SEQEND
  5
14BD
  8
SKOŘEPINA
  0
POLYLINE
  5
B5C
  8
SKOŘEPINA
 66
     1
 10
0.0
 20
0.0
 30
0.0
 70
    64
 71
     4
 72
     2
  0
VERTEX
  5
B5D
  8
SKOŘEPINA
 10
202.5000000000001
 20
-368.5000000000001
 30
0.0000000000000095
 70
   192
  0
VERTEX
  5
B5E
  8
SKOŘEPINA
 10
202.4999999999999
 20
368.4999999999999
 30
0.0000000000000095
 70
   192
  0
VERTEX
  5
B5F
  8
SKOŘEPINA
 10
-202.5000000000001
 20
368.4999999999999
 30
-0.0000000000000095
 70
   192
  0
VERTEX
  5
B60
  8
SKOŘEPINA
 10
-202.5
 20
-368.5000000000001
 30
-0.0000000000000095
 70
   192
  0
VERTEX
  5
B61
  8
SKOŘEPINA
 10
0.0
 20
0.0
 30
0.0
 70
   128
 71
     1
 72
     4
 73
    -3
  0
VERTEX
  5
B62
  8
SKOŘEPINA
 10
0.0
 20
0.0
 30
0.0
 70
   128
 71
    -1
 72
     3
 73
     2
  0
SEQEND
  5
14BE
  8
SKOŘEPINA
  0
ENDBLK
  5
14B8
  8
0
  0
BLOCK
  8
0
  2
*X2
 70
     1
 10
0.0
 20
0.0
 30
0.0
  3
*X2
  1

  0
POLYLINE
  5
B64
  8
SKOŘEPINA
 66
     1
 10
0.0
 20
0.0
 30
0.0
 70
    64
 71
     4
 72
     2
  0
VERTEX
  5
B65
  8
SKOŘEPINA
 10
-202.5
 20
-368.5000000000001
 30
17.99999999999999
 70
   192
  0
VERTEX
  5
B66
  8
SKOŘEPINA
 10
-202.5
 20
-368.5000000000001
 30
88.0
 70
   192
  0
VERTEX
  5
B67
  8
SKOŘEPINA
 10
-184.5
 20
-368.5000000000001
 30
88.0
 70
   192
  0
VERTEX
  5
B68
  8
SKOŘEPINA
 10
-184.5
 20
-368.5000000000001
 30
17.99999999999999
 70
   192
  0
VERTEX
  5
B69
  8
SKOŘEPINA
 10
0.0
 20
0.0
 30
0.0
 70
   128
 71
     1
 72
     4
 73
    -3
  0
VERTEX
  5
B6A
  8
SKOŘEPINA
 10
0.0
 20
0.0
 30
0.0
 70
   128
 71
    -1
 72
     3
 73
     2
  0
SEQEND
  5
14C1
  8
SKOŘEPINA
  0
POLYLINE
  5
B6B
  8
SKOŘEPINA
 66
     1
 10
0.0
 20
0.0
 30
0.0
 70
    64
 71
     4
 72
     2
  0
VERTEX
  5
B6C
  8
SKOŘEPINA
 10
-184.5
 20
-368.5000000000001
 30
18.0
 70
   192
  0
VERTEX
  5
B6D
  8
SKOŘEPINA
 10
-184.5
 20
-368.5000000000001
 30
88.0
 70
   192
  0
VERTEX
  5
B6E
  8
SKOŘEPINA
 10
-184.5
 20
368.4999999999999
 30
88.0
 70
   192
  0
VERTEX
  5
B6F
  8
SKOŘEPINA
 10
-184.5
 20
368.4999999999999
 30
17.99999999999999
 70
   192
  0
VERTEX
  5
B70
  8
SKOŘEPINA
 10
0.0
 20
0.0
 30
0.0
 70
   128
 71
     1
 72
     4
 73
    -3
  0
VERTEX
  5
B71
  8
SKOŘEPINA
 10
0.0
 20
0.0
 30
0.0
 70
   128
 71
    -1
 72
     3
 73
     2
  0
SEQEND
  5
14C2
  8
SKOŘEPINA
  0
POLYLINE
  5
B72
  8
SKOŘEPINA
 66
     1
 10
0.0
 20
0.0
 30
0.0
 70
    64
 71
     4
 72
     2
  0
VERTEX
  5
B73
  8
SKOŘEPINA
 10
-184.5
 20
368.4999999999999
 30
18.0
 70
   192
  0
VERTEX
  5
B74
  8
SKOŘEPINA
 10
-184.5
 20
368.4999999999999
 30
88.0
 70
   192
  0
VERTEX
  5
B75
  8
SKOŘEPINA
 10
-202.5
 20
368.4999999999999
 30
88.0
 70
   192
  0
VERTEX
  5
B76
  8
SKOŘEPINA
 10
-202.5
 20
368.4999999999999
 30
17.99999999999999
 70
   192
  0
VERTEX
  5
B77
  8
SKOŘEPINA
 10
0.0
 20
0.0
 30
0.0
 70
   128
 71
     1
 72
     4
 73
    -3
  0
VERTEX
  5
B78
  8
SKOŘEPINA
 10
0.0
 20
0.0
 30
0.0
 70
   128
 71
    -1
 72
     3
 73
     2
  0
SEQEND
  5
14C3
  8
SKOŘEPINA
  0
POLYLINE
  5
B79
  8
SKOŘEPINA
 66
     1
 10
0.0
 20
0.0
 30
0.0
 70
    64
 71
     4
 72
     2
  0
VERTEX
  5
B7A
  8
SKOŘEPINA
 10
-202.5
 20
368.4999999999999
 30
17.99999999999999
 70
   192
  0
VERTEX
  5
B7B
  8
SKOŘEPINA
 10
-202.5
 20
368.4999999999999
 30
88.0
 70
   192
  0
VERTEX
  5
B7C
  8
SKOŘEPINA
 10
-202.5
 20
-368.5000000000001
 30
88.0
 70
   192
  0
VERTEX
  5
B7D
  8
SKOŘEPINA
 10
-202.5
 20
-368.5000000000001
 30
17.99999999999999
 70
   192
  0
VERTEX
  5
B7E
  8
SKOŘEPINA
 10
0.0
 20
0.0
 30
0.0
 70
   128
 71
     1
 72
     4
 73
    -3
  0
VERTEX
  5
B7F
  8
SKOŘEPINA
 10
0.0
 20
0.0
 30
0.0
 70
   128
 71
    -1
 72
     3
 73
     2
  0
SEQEND
  5
14C4
  8
SKOŘEPINA
  0
POLYLINE
  5
B80
  8
SKOŘEPINA
 66
     1
 10
0.0
 20
0.0
 30
0.0
 70
    64
 71
     4
 72
     2
  0
VERTEX
  5
B81
  8
SKOŘEPINA
 10
-202.5
 20
-368.5000000000001
 30
88.0
 70
   192
  0
VERTEX
  5
B82
  8
SKOŘEPINA
 10
-184.5
 20
-368.5000000000001
 30
88.0
 70
   192
  0
VERTEX
  5
B83
  8
SKOŘEPINA
 10
-184.5
 20
368.4999999999999
 30
88.0
 70
   192
  0
VERTEX
  5
B84
  8
SKOŘEPINA
 10
-202.5
 20
368.4999999999999
 30
88.0
 70
   192
  0
VERTEX
  5
B85
  8
SKOŘEPINA
 10
0.0
 20
0.0
 30
0.0
 70
   128
 71
     3
 72
     4
 73
    -1
  0
VERTEX
  5
B86
  8
SKOŘEPINA
 10
0.0
 20
0.0
 30
0.0
 70
   128
 71
     2
 72
    -3
 73
     1
  0
SEQEND
  5
14C5
  8
SKOŘEPINA
  0
POLYLINE
  5
B87
  8
SKOŘEPINA
 66
     1
 10
0.0
 20
0.0
 30
0.0
 70
    64
 71
     4
 72
     2
  0
VERTEX
  5
B88
  8
SKOŘEPINA
 10
-184.5
 20
-368.5000000000001
 30
17.99999999999999
 70
   192
  0
VERTEX
  5
B89
  8
SKOŘEPINA
 10
-184.5
 20
368.4999999999999
 30
17.99999999999999
 70
   192
  0
VERTEX
  5
B8A
  8
SKOŘEPINA
 10
-202.5
 20
368.4999999999999
 30
17.99999999999999
 70
   192
  0
VERTEX
  5
B8B
  8
SKOŘEPINA
 10
-202.5
 20
-368.5000000000001
 30
17.99999999999999
 70
   192
  0
VERTEX
  5
B8C
  8
SKOŘEPINA
 10
0.0
 20
0.0
 30
0.0
 70
   128
 71
     1
 72
     4
 73
    -3
  0
VERTEX
  5
B8D
  8
SKOŘEPINA
 10
0.0
 20
0.0
 30
0.0
 70
   128
 71
    -1
 72
     3
 73
     2
  0
SEQEND
  5
14C6
  8
SKOŘEPINA
  0
ENDBLK
  5
14C0
  8
0
  0
BLOCK
  8
0
  2
*X3
 70
     1
 10
0.0
 20
0.0
 30
0.0
  3
*X3
  1

  0
POLYLINE
  5
B8F
  8
SKOŘEPINA
 66
     1
 10
0.0
 20
0.0
 30
0.0
 70
    64
 71
     8
 72
     8
  0
VERTEX
  5
B90
  8
SKOŘEPINA
 10
202.4999999999999
 20
368.4999999999999
 30
0.0000000000000095
 70
   192
  0
VERTEX
  5
B91
  8
SKOŘEPINA
 10
202.4999999999999
 20
368.4999999999999
 30
550.0
 70
   192
  0
VERTEX
  5
B92
  8
SKOŘEPINA
 10
-202.5000000000001
 20
368.4999999999999
 30
550.0
 70
   192
  0
VERTEX
  5
B93
  8
SKOŘEPINA
 10
-202.5000000000001
 20
368.4999999999999
 30
-0.0000000000000095
 70
   192
  0
VERTEX
  5
B94
  8
SKOŘEPINA
 10
-182.5
 20
368.5
 30
470.0000000000001
 70
   192
  0
VERTEX
  5
B95
  8
SKOŘEPINA
 10
-122.5
 20
368.5
 30
470.0000000000001
 70
   192
  0
VERTEX
  5
B96
  8
SKOŘEPINA
 10
-122.5
 20
368.5
 30
430.0000000000001
 70
   192
  0
VERTEX
  5
B97
  8
SKOŘEPINA
 10
-182.5
 20
368.5
 30
430.0000000000001
 70
   192
  0
VERTEX
  5
B98
  8
SKOŘEPINA
 10
0.0
 20
0.0
 30
0.0
 70
   128
 71
    -3
 72
     5
 73
    -6
  0
VERTEX
  5
B99
  8
SKOŘEPINA
 10
0.0
 20
0.0
 30
0.0
 70
   128
 71
     2
 72
    -3
 73
    -6
  0
VERTEX
  5
B9A
  8
SKOŘEPINA
 10
0.0
 20
0.0
 30
0.0
 70
   128
 71
     6
 72
    -7
 73
    -2
  0
VERTEX
  5
B9B
  8
SKOŘEPINA
 10
0.0
 20
0.0
 30
0.0
 70
   128
 71
     1
 72
    -2
 73
    -7
  0
VERTEX
  5
B9C
  8
SKOŘEPINA
 10
0.0
 20
0.0
 30
0.0
 70
   128
 71
     4
 72
    -1
 73
    -7
  0
VERTEX
  5
B9D
  8
SKOŘEPINA
 10
0.0
 20
0.0
 30
0.0
 70
   128
 71
     7
 72
    -8
 73
    -4
  0
VERTEX
  5
B9E
  8
SKOŘEPINA
 10
0.0
 20
0.0
 30
0.0
 70
   128
 71
    -8
 72
     3
 73
    -4
  0
VERTEX
  5
B9F
  8
SKOŘEPINA
 10
0.0
 20
0.0
 30
0.0
 70
   128
 71
     8
 72
    -5
 73
    -3
  0
SEQEND
  5
14C9
  8
SKOŘEPINA
  0
POLYLINE
  5
BA0
  8
SKOŘEPINA
 66
     1
 10
0.0
 20
0.0
 30
0.0
 70
    64
 71
     4
 72
     2
  0
VERTEX
  5
BA1
  8
SKOŘEPINA
 10
202.4999999999999
 20
368.4999999999999
 30
550.0
 70
   192
  0
VERTEX
  5
BA2
  8
SKOŘEPINA
 10
202.4999999999999
 20
386.4999999999999
 30
550.0
 70
   192
  0
VERTEX
  5
BA3
  8
SKOŘEPINA
 10
202.4999999999999
 20
386.4999999999999
 30
0.0000000000000095
 70
   192
  0
VERTEX
  5
BA4
  8
SKOŘEPINA
 10
202.4999999999999
 20
368.4999999999999
 30
0.0000000000000095
 70
   192
  0
VERTEX
  5
BA5
  8
SKOŘEPINA
 10
0.0
 20
0.0
 30
0.0
 70
   128
 71
     1
 72
     4
 73
    -3
  0
VERTEX
  5
BA6
  8
SKOŘEPINA
 10
0.0
 20
0.0
 30
0.0
 70
   128
 71
    -1
 72
     3
 73
     2
  0
SEQEND
  5
14CA
  8
SKOŘEPINA
  0
POLYLINE
  5
BA7
  8
SKOŘEPINA
 66
     1
 10
0.0
 20
0.0
 30
0.0
 70
    64
 71
     4
 72
     2
  0
VERTEX
  5
BA8
  8
SKOŘEPINA
 10
202.4999999999999
 20
368.4999999999999
 30
0.0000000000000095
 70
   192
  0
VERTEX
  5
BA9
  8
SKOŘEPINA
 10
202.4999999999999
 20
386.4999999999999
 30
0.0000000000000095
 70
   192
  0
VERTEX
  5
BAA
  8
SKOŘEPINA
 10
-202.5000000000001
 20
386.4999999999999
 30
-0.0000000000000095
 70
   192
  0
VERTEX
  5
BAB
  8
SKOŘEPINA
 10
-202.5000000000001
 20
368.4999999999999
 30
-0.0000000000000095
 70
   192
  0
VERTEX
  5
BAC
  8
SKOŘEPINA
 10
0.0
 20
0.0
 30
0.0
 70
   128
 71
     1
 72
     4
 73
    -3
  0
VERTEX
  5
BAD
  8
SKOŘEPINA
 10
0.0
 20
0.0
 30
0.0
 70
   128
 71
    -1
 72
     3
 73
     2
  0
SEQEND
  5
14CB
  8
SKOŘEPINA
  0
POLYLINE
  5
BAE
  8
SKOŘEPINA
 66
     1
 10
0.0
 20
0.0
 30
0.0
 70
    64
 71
     4
 72
     2
  0
VERTEX
  5
BAF
  8
SKOŘEPINA
 10
-202.5000000000001
 20
368.4999999999999
 30
-0.0000000000000095
 70
   192
  0
VERTEX
  5
BB0
  8
SKOŘEPINA
 10
-202.5000000000001
 20
386.4999999999999
 30
-0.0000000000000095
 70
   192
  0
VERTEX
  5
BB1
  8
SKOŘEPINA
 10
-202.5000000000001
 20
386.4999999999999
 30
550.0
 70
   192
  0
VERTEX
  5
BB2
  8
SKOŘEPINA
 10
-202.5000000000001
 20
368.4999999999999
 30
550.0
 70
   192
  0
VERTEX
  5
BB3
  8
SKOŘEPINA
 10
0.0
 20
0.0
 30
0.0
 70
   128
 71
     1
 72
     4
 73
    -3
  0
VERTEX
  5
BB4
  8
SKOŘEPINA
 10
0.0
 20
0.0
 30
0.0
 70
   128
 71
    -1
 72
     3
 73
     2
  0
SEQEND
  5
14CC
  8
SKOŘEPINA
  0
POLYLINE
  5
BB5
  8
SKOŘEPINA
 66
     1
 10
0.0
 20
0.0
 30
0.0
 70
    64
 71
     4
 72
     2
  0
VERTEX
  5
BB6
  8
SKOŘEPINA
 10
-202.5000000000001
 20
368.4999999999999
 30
550.0
 70
   192
  0
VERTEX
  5
BB7
  8
SKOŘEPINA
 10
-202.5000000000001
 20
386.4999999999999
 30
550.0
 70
   192
  0
VERTEX
  5
BB8
  8
SKOŘEPINA
 10
202.4999999999999
 20
386.4999999999999
 30
550.0
 70
   192
  0
VERTEX
  5
BB9
  8
SKOŘEPINA
 10
202.4999999999999
 20
368.4999999999999
 30
550.0
 70
   192
  0
VERTEX
  5
BBA
  8
SKOŘEPINA
 10
0.0
 20
0.0
 30
0.0
 70
   128
 71
     1
 72
     4
 73
    -3
  0
VERTEX
  5
BBB
  8
SKOŘEPINA
 10
0.0
 20
0.0
 30
0.0
 70
   128
 71
    -1
 72
     3
 73
     2
  0
SEQEND
  5
14CD
  8
SKOŘEPINA
  0
POLYLINE
  5
BBC
  8
SKOŘEPINA
 66
     1
 10
0.0
 20
0.0
 30
0.0
 70
    64
 71
     4
 72
     2
  0
VERTEX
  5
BBD
  8
SKOŘEPINA
 10
202.4999999999999
 20
386.4999999999999
 30
550.0
 70
   192
  0
VERTEX
  5
BBE
  8
SKOŘEPINA
 10
-202.5000000000001
 20
386.4999999999999
 30
550.0
 70
   192
  0
VERTEX
  5
BBF
  8
SKOŘEPINA
 10
-202.5000000000001
 20
386.4999999999999
 30
-0.0000000000000095
 70
   192
  0
VERTEX
  5
BC0
  8
SKOŘEPINA
 10
202.4999999999999
 20
386.4999999999999
 30
0.0000000000000095
 70
   192
  0
VERTEX
  5
BC1
  8
SKOŘEPINA
 10
0.0
 20
0.0
 30
0.0
 70
   128
 71
     1
 72
     4
 73
    -3
  0
VERTEX
  5
BC2
  8
SKOŘEPINA
 10
0.0
 20
0.0
 30
0.0
 70
   128
 71
    -1
 72
     3
 73
     2
  0
SEQEND
  5
14CE
  8
SKOŘEPINA
  0
POLYLINE
  5
BC3
  8
SKOŘEPINA
 66
     1
 10
0.0
 20
0.0
 30
0.0
 70
    64
 71
     4
 72
     2
  0
VERTEX
  5
BC4
  8
SKOŘEPINA
 10
-182.5
 20
368.4999999999999
 30
470.0000000000001
 70
   192
  0
VERTEX
  5
BC5
  8
SKOŘEPINA
 10
-182.5
 20
358.5
 30
470.0000000000001
 70
   192
  0
VERTEX
  5
BC6
  8
SKOŘEPINA
 10
-122.5
 20
358.5
 30
470.0000000000001
 70
   192
  0
VERTEX
  5
BC7
  8
SKOŘEPINA
 10
-122.5
 20
368.4999999999999
 30
470.0000000000001
 70
   192
  0
VERTEX
  5
BC8
  8
SKOŘEPINA
 10
0.0
 20
0.0
 30
0.0
 70
   128
 71
     3
 72
     4
 73
    -1
  0
VERTEX
  5
BC9
  8
SKOŘEPINA
 10
0.0
 20
0.0
 30
0.0
 70
   128
 71
     2
 72
    -3
 73
     1
  0
SEQEND
  5
14CF
  8
SKOŘEPINA
  0
POLYLINE
  5
BCA
  8
SKOŘEPINA
 66
     1
 10
0.0
 20
0.0
 30
0.0
 70
    64
 71
     4
 72
     2
  0
VERTEX
  5
BCB
  8
SKOŘEPINA
 10
-182.5
 20
358.5
 30
470.0000000000001
 70
   192
  0
VERTEX
  5
BCC
  8
SKOŘEPINA
 10
-182.5
 20
358.4999999999999
 30
430.0000000000001
 70
   192
  0
VERTEX
  5
BCD
  8
SKOŘEPINA
 10
-122.5
 20
358.4999999999999
 30
430.0000000000001
 70
   192
  0
VERTEX
  5
BCE
  8
SKOŘEPINA
 10
-122.5
 20
358.5
 30
470.0000000000001
 70
   192
  0
VERTEX
  5
BCF
  8
SKOŘEPINA
 10
0.0
 20
0.0
 30
0.0
 70
   128
 71
     3
 72
     4
 73
    -1
  0
VERTEX
  5
BD0
  8
SKOŘEPINA
 10
0.0
 20
0.0
 30
0.0
 70
   128
 71
     2
 72
    -3
 73
     1
  0
SEQEND
  5
14D0
  8
SKOŘEPINA
  0
POLYLINE
  5
BD1
  8
SKOŘEPINA
 66
     1
 10
0.0
 20
0.0
 30
0.0
 70
    64
 71
     4
 72
     2
  0
VERTEX
  5
BD2
  8
SKOŘEPINA
 10
-182.5
 20
358.4999999999999
 30
430.0000000000001
 70
   192
  0
VERTEX
  5
BD3
  8
SKOŘEPINA
 10
-182.5
 20
368.5
 30
430.0000000000001
 70
   192
  0
VERTEX
  5
BD4
  8
SKOŘEPINA
 10
-122.5
 20
368.5
 30
430.0000000000001
 70
   192
  0
VERTEX
  5
BD5
  8
SKOŘEPINA
 10
-122.5
 20
358.4999999999999
 30
430.0000000000001
 70
   192
  0
VERTEX
  5
BD6
  8
SKOŘEPINA
 10
0.0
 20
0.0
 30
0.0
 70
   128
 71
     3
 72
     4
 73
    -1
  0
VERTEX
  5
BD7
  8
SKOŘEPINA
 10
0.0
 20
0.0
 30
0.0
 70
   128
 71
     2
 72
    -3
 73
     1
  0
SEQEND
  5
14D1
  8
SKOŘEPINA
  0
POLYLINE
  5
BD8
  8
SKOŘEPINA
 66
     1
 10
0.0
 20
0.0
 30
0.0
 70
    64
 71
     4
 72
     2
  0
VERTEX
  5
BD9
  8
SKOŘEPINA
 10
-122.5
 20
368.4999999999999
 30
430.0000000000001
 70
   192
  0
VERTEX
  5
BDA
  8
SKOŘEPINA
 10
-122.5
 20
358.4999999999999
 30
430.0000000000001
 70
   192
  0
VERTEX
  5
BDB
  8
SKOŘEPINA
 10
-122.5
 20
358.5
 30
470.0000000000001
 70
   192
  0
VERTEX
  5
BDC
  8
SKOŘEPINA
 10
-122.5
 20
368.5
 30
470.0000000000001
 70
   192
  0
VERTEX
  5
BDD
  8
SKOŘEPINA
 10
0.0
 20
0.0
 30
0.0
 70
   128
 71
     1
 72
     4
 73
    -3
  0
VERTEX
  5
BDE
  8
SKOŘEPINA
 10
0.0
 20
0.0
 30
0.0
 70
   128
 71
    -1
 72
     3
 73
     2
  0
SEQEND
  5
14D2
  8
SKOŘEPINA
  0
POLYLINE
  5
BDF
  8
SKOŘEPINA
 66
     1
 10
0.0
 20
0.0
 30
0.0
 70
    64
 71
     4
 72
     2
  0
VERTEX
  5
BE0
  8
SKOŘEPINA
 10
-182.5
 20
368.5
 30
470.0000000000001
 70
   192
  0
VERTEX
  5
BE1
  8
SKOŘEPINA
 10
-182.5
 20
368.5
 30
430.0000000000001
 70
   192
  0
VERTEX
  5
BE2
  8
SKOŘEPINA
 10
-182.5
 20
358.4999999999999
 30
430.0000000000001
 70
   192
  0
VERTEX
  5
BE3
  8
SKOŘEPINA
 10
-182.5
 20
358.5
 30
470.0000000000001
 70
   192
  0
VERTEX
  5
BE4
  8
SKOŘEPINA
 10
0.0
 20
0.0
 30
0.0
 70
   128
 71
     3
 72
     4
 73
    -1
  0
VERTEX
  5
BE5
  8
SKOŘEPINA
 10
0.0
 20
0.0
 30
0.0
 70
   128
 71
     2
 72
    -3
 73
     1
  0
SEQEND
  5
14D3
  8
SKOŘEPINA
  0
ENDBLK
  5
14C8
  8
0
  0
BLOCK
  8
0
  2
*X4
 70
     1
 10
0.0
 20
0.0
 30
0.0
  3
*X4
  1

  0
POLYLINE
  5
BE7
  8
SKOŘEPINA
 66
     1
 10
0.0
 20
0.0
 30
0.0
 70
    64
 71
     8
 72
     8
  0
VERTEX
  5
BE8
  8
SKOŘEPINA
 10
202.4999999999999
 20
-368.5000000000001
 30
550.0
 70
   192
  0
VERTEX
  5
BE9
  8
SKOŘEPINA
 10
202.4999999999999
 20
-368.5000000000001
 30
0.0000000000000107
 70
   192
  0
VERTEX
  5
BEA
  8
SKOŘEPINA
 10
-202.5000000000001
 20
-368.5000000000001
 30
-0.0000000000000095
 70
   192
  0
VERTEX
  5
BEB
  8
SKOŘEPINA
 10
-202.5000000000001
 20
-368.5000000000001
 30
550.0
 70
   192
  0
VERTEX
  5
BEC
  8
SKOŘEPINA
 10
-182.5
 20
-368.5
 30
430.0000000000001
 70
   192
  0
VERTEX
  5
BED
  8
SKOŘEPINA
 10
-122.5
 20
-368.5
 30
430.0000000000001
 70
   192
  0
VERTEX
  5
BEE
  8
SKOŘEPINA
 10
-122.5
 20
-368.5
 30
470.0000000000001
 70
   192
  0
VERTEX
  5
BEF
  8
SKOŘEPINA
 10
-182.5
 20
-368.5
 30
470.0000000000001
 70
   192
  0
VERTEX
  5
BF0
  8
SKOŘEPINA
 10
0.0
 20
0.0
 30
0.0
 70
   128
 71
     3
 72
    -4
 73
    -5
  0
VERTEX
  5
BF1
  8
SKOŘEPINA
 10
0.0
 20
0.0
 30
0.0
 70
   128
 71
     5
 72
    -6
 73
    -3
  0
VERTEX
  5
BF2
  8
SKOŘEPINA
 10
0.0
 20
0.0
 30
0.0
 70
   128
 71
     1
 72
     2
 73
    -3
  0
VERTEX
  5
BF3
  8
SKOŘEPINA
 10
0.0
 20
0.0
 30
0.0
 70
   128
 71
    -6
 72
    -1
 73
    -3
  0
VERTEX
  5
BF4
  8
SKOŘEPINA
 10
0.0
 20
0.0
 30
0.0
 70
   128
 71
     6
 72
    -7
 73
    -1
  0
VERTEX
  5
BF5
  8
SKOŘEPINA
 10
0.0
 20
0.0
 30
0.0
 70
   128
 71
    -7
 72
     4
 73
    -1
  0
VERTEX
  5
BF6
  8
SKOŘEPINA
 10
0.0
 20
0.0
 30
0.0
 70
   128
 71
     7
 72
    -8
 73
    -4
  0
VERTEX
  5
BF7
  8
SKOŘEPINA
 10
0.0
 20
0.0
 30
0.0
 70
   128
 71
     8
 72
    -5
 73
    -4
  0
SEQEND
  5
14D6
  8
SKOŘEPINA
  0
POLYLINE
  5
BF8
  8
SKOŘEPINA
 66
     1
 10
0.0
 20
0.0
 30
0.0
 70
    64
 71
     4
 72
     2
  0
VERTEX
  5
BF9
  8
SKOŘEPINA
 10
202.4999999999999
 20
-368.5000000000001
 30
0.0000000000000107
 70
   192
  0
VERTEX
  5
BFA
  8
SKOŘEPINA
 10
202.4999999999999
 20
-368.5000000000001
 30
550.0
 70
   192
  0
VERTEX
  5
BFB
  8
SKOŘEPINA
 10
202.4999999999999
 20
-386.5000000000001
 30
550.0
 70
   192
  0
VERTEX
  5
BFC
  8
SKOŘEPINA
 10
202.4999999999999
 20
-386.5000000000001
 30
0.0000000000000107
 70
   192
  0
VERTEX
  5
BFD
  8
SKOŘEPINA
 10
0.0
 20
0.0
 30
0.0
 70
   128
 71
     3
 72
     4
 73
    -1
  0
VERTEX
  5
BFE
  8
SKOŘEPINA
 10
0.0
 20
0.0
 30
0.0
 70
   128
 71
     2
 72
    -3
 73
     1
  0
SEQEND
  5
14D7
  8
SKOŘEPINA
  0
POLYLINE
  5
BFF
  8
SKOŘEPINA
 66
     1
 10
0.0
 20
0.0
 30
0.0
 70
    64
 71
     4
 72
     2
  0
VERTEX
  5
C00
  8
SKOŘEPINA
 10
202.4999999999999
 20
-368.5000000000001
 30
550.0
 70
   192
  0
VERTEX
  5
C01
  8
SKOŘEPINA
 10
-202.5000000000001
 20
-368.5000000000001
 30
550.0
 70
   192
  0
VERTEX
  5
C02
  8
SKOŘEPINA
 10
-202.5000000000001
 20
-386.5000000000001
 30
550.0
 70
   192
  0
VERTEX
  5
C03
  8
SKOŘEPINA
 10
202.4999999999999
 20
-386.5000000000001
 30
550.0
 70
   192
  0
VERTEX
  5
C04
  8
SKOŘEPINA
 10
0.0
 20
0.0
 30
0.0
 70
   128
 71
     3
 72
     4
 73
    -1
  0
VERTEX
  5
C05
  8
SKOŘEPINA
 10
0.0
 20
0.0
 30
0.0
 70
   128
 71
     2
 72
    -3
 73
     1
  0
SEQEND
  5
14D8
  8
SKOŘEPINA
  0
POLYLINE
  5
C06
  8
SKOŘEPINA
 66
     1
 10
0.0
 20
0.0
 30
0.0
 70
    64
 71
     4
 72
     2
  0
VERTEX
  5
C07
  8
SKOŘEPINA
 10
-202.5000000000001
 20
-368.5000000000001
 30
550.0
 70
   192
  0
VERTEX
  5
C08
  8
SKOŘEPINA
 10
-202.5000000000001
 20
-368.5000000000001
 30
-0.0000000000000107
 70
   192
  0
VERTEX
  5
C09
  8
SKOŘEPINA
 10
-202.5000000000001
 20
-386.5000000000001
 30
-0.0000000000000095
 70
   192
  0
VERTEX
  5
C0A
  8
SKOŘEPINA
 10
-202.5000000000001
 20
-386.5000000000001
 30
550.0
 70
   192
  0
VERTEX
  5
C0B
  8
SKOŘEPINA
 10
0.0
 20
0.0
 30
0.0
 70
   128
 71
     3
 72
     4
 73
    -1
  0
VERTEX
  5
C0C
  8
SKOŘEPINA
 10
0.0
 20
0.0
 30
0.0
 70
   128
 71
     2
 72
    -3
 73
     1
  0
SEQEND
  5
14D9
  8
SKOŘEPINA
  0
POLYLINE
  5
C0D
  8
SKOŘEPINA
 66
     1
 10
0.0
 20
0.0
 30
0.0
 70
    64
 71
     4
 72
     2
  0
VERTEX
  5
C0E
  8
SKOŘEPINA
 10
-202.5000000000001
 20
-368.5000000000001
 30
-0.0000000000000095
 70
   192
  0
VERTEX
  5
C0F
  8
SKOŘEPINA
 10
202.4999999999999
 20
-368.5000000000001
 30
0.0000000000000095
 70
   192
  0
VERTEX
  5
C10
  8
SKOŘEPINA
 10
202.4999999999999
 20
-386.5000000000001
 30
0.0000000000000095
 70
   192
  0
VERTEX
  5
C11
  8
SKOŘEPINA
 10
-202.5000000000001
 20
-386.5000000000001
 30
-0.0000000000000095
 70
   192
  0
VERTEX
  5
C12
  8
SKOŘEPINA
 10
0.0
 20
0.0
 30
0.0
 70
   128
 71
     3
 72
     4
 73
    -1
  0
VERTEX
  5
C13
  8
SKOŘEPINA
 10
0.0
 20
0.0
 30
0.0
 70
   128
 71
     2
 72
    -3
 73
     1
  0
SEQEND
  5
14DA
  8
SKOŘEPINA
  0
POLYLINE
  5
C14
  8
SKOŘEPINA
 66
     1
 10
0.0
 20
0.0
 30
0.0
 70
    64
 71
     4
 72
     2
  0
VERTEX
  5
C15
  8
SKOŘEPINA
 10
202.4999999999999
 20
-386.5000000000001
 30
0.0000000000000095
 70
   192
  0
VERTEX
  5
C16
  8
SKOŘEPINA
 10
-202.5000000000001
 20
-386.5000000000001
 30
-0.0000000000000107
 70
   192
  0
VERTEX
  5
C17
  8
SKOŘEPINA
 10
-202.5000000000001
 20
-386.5000000000001
 30
550.0
 70
   192
  0
VERTEX
  5
C18
  8
SKOŘEPINA
 10
202.4999999999999
 20
-386.5000000000001
 30
550.0
 70
   192
  0
VERTEX
  5
C19
  8
SKOŘEPINA
 10
0.0
 20
0.0
 30
0.0
 70
   128
 71
     1
 72
     4
 73
    -3
  0
VERTEX
  5
C1A
  8
SKOŘEPINA
 10
0.0
 20
0.0
 30
0.0
 70
   128
 71
    -1
 72
     3
 73
     2
  0
SEQEND
  5
14DB
  8
SKOŘEPINA
  0
POLYLINE
  5
C1B
  8
SKOŘEPINA
 66
     1
 10
0.0
 20
0.0
 30
0.0
 70
    64
 71
     4
 72
     2
  0
VERTEX
  5
C1C
  8
SKOŘEPINA
 10
-182.5
 20
-358.5
 30
470.0000000000001
 70
   192
  0
VERTEX
  5
C1D
  8
SKOŘEPINA
 10
-182.5
 20
-368.5
 30
470.0000000000001
 70
   192
  0
VERTEX
  5
C1E
  8
SKOŘEPINA
 10
-122.5
 20
-368.5
 30
470.0000000000001
 70
   192
  0
VERTEX
  5
C1F
  8
SKOŘEPINA
 10
-122.5
 20
-358.5
 30
470.0000000000001
 70
   192
  0
VERTEX
  5
C20
  8
SKOŘEPINA
 10
0.0
 20
0.0
 30
0.0
 70
   128
 71
     3
 72
     4
 73
    -1
  0
VERTEX
  5
C21
  8
SKOŘEPINA
 10
0.0
 20
0.0
 30
0.0
 70
   128
 71
     2
 72
    -3
 73
     1
  0
SEQEND
  5
14DC
  8
SKOŘEPINA
  0
POLYLINE
  5
C22
  8
SKOŘEPINA
 66
     1
 10
0.0
 20
0.0
 30
0.0
 70
    64
 71
     4
 72
     2
  0
VERTEX
  5
C23
  8
SKOŘEPINA
 10
-182.5
 20
-368.5000000000001
 30
430.0000000000001
 70
   192
  0
VERTEX
  5
C24
  8
SKOŘEPINA
 10
-182.5
 20
-358.4999999999999
 30
430.0000000000001
 70
   192
  0
VERTEX
  5
C25
  8
SKOŘEPINA
 10
-122.5
 20
-358.4999999999999
 30
430.0000000000001
 70
   192
  0
VERTEX
  5
C26
  8
SKOŘEPINA
 10
-122.5
 20
-368.5000000000001
 30
430.0000000000001
 70
   192
  0
VERTEX
  5
C27
  8
SKOŘEPINA
 10
0.0
 20
0.0
 30
0.0
 70
   128
 71
     3
 72
     4
 73
    -1
  0
VERTEX
  5
C28
  8
SKOŘEPINA
 10
0.0
 20
0.0
 30
0.0
 70
   128
 71
     2
 72
    -3
 73
     1
  0
SEQEND
  5
14DD
  8
SKOŘEPINA
  0
POLYLINE
  5
C29
  8
SKOŘEPINA
 66
     1
 10
0.0
 20
0.0
 30
0.0
 70
    64
 71
     4
 72
     2
  0
VERTEX
  5
C2A
  8
SKOŘEPINA
 10
-182.5
 20
-358.4999999999999
 30
430.0000000000001
 70
   192
  0
VERTEX
  5
C2B
  8
SKOŘEPINA
 10
-182.5
 20
-358.5
 30
470.0000000000001
 70
   192
  0
VERTEX
  5
C2C
  8
SKOŘEPINA
 10
-122.5
 20
-358.5
 30
470.0000000000001
 70
   192
  0
VERTEX
  5
C2D
  8
SKOŘEPINA
 10
-122.5
 20
-358.4999999999999
 30
430.0000000000001
 70
   192
  0
VERTEX
  5
C2E
  8
SKOŘEPINA
 10
0.0
 20
0.0
 30
0.0
 70
   128
 71
     3
 72
     4
 73
    -1
  0
VERTEX
  5
C2F
  8
SKOŘEPINA
 10
0.0
 20
0.0
 30
0.0
 70
   128
 71
     2
 72
    -3
 73
     1
  0
SEQEND
  5
14DE
  8
SKOŘEPINA
  0
POLYLINE
  5
C30
  8
SKOŘEPINA
 66
     1
 10
0.0
 20
0.0
 30
0.0
 70
    64
 71
     4
 72
     2
  0
VERTEX
  5
C31
  8
SKOŘEPINA
 10
-122.5
 20
-358.5
 30
470.0000000000001
 70
   192
  0
VERTEX
  5
C32
  8
SKOŘEPINA
 10
-122.5
 20
-358.4999999999999
 30
430.0000000000001
 70
   192
  0
VERTEX
  5
C33
  8
SKOŘEPINA
 10
-122.5
 20
-368.5
 30
430.0000000000001
 70
   192
  0
VERTEX
  5
C34
  8
SKOŘEPINA
 10
-122.5
 20
-368.5000000000001
 30
470.0000000000001
 70
   192
  0
VERTEX
  5
C35
  8
SKOŘEPINA
 10
0.0
 20
0.0
 30
0.0
 70
   128
 71
     1
 72
     4
 73
    -3
  0
VERTEX
  5
C36
  8
SKOŘEPINA
 10
0.0
 20
0.0
 30
0.0
 70
   128
 71
    -1
 72
     3
 73
     2
  0
SEQEND
  5
14DF
  8
SKOŘEPINA
  0
POLYLINE
  5
C37
  8
SKOŘEPINA
 66
     1
 10
0.0
 20
0.0
 30
0.0
 70
    64
 71
     4
 72
     2
  0
VERTEX
  5
C38
  8
SKOŘEPINA
 10
-182.5
 20
-368.5
 30
470.0000000000001
 70
   192
  0
VERTEX
  5
C39
  8
SKOŘEPINA
 10
-182.5
 20
-358.5
 30
470.0000000000001
 70
   192
  0
VERTEX
  5
C3A
  8
SKOŘEPINA
 10
-182.5
 20
-358.4999999999999
 30
430.0000000000001
 70
   192
  0
VERTEX
  5
C3B
  8
SKOŘEPINA
 10
-182.5
 20
-368.5000000000001
 30
430.0000000000001
 70
   192
  0
VERTEX
  5
C3C
  8
SKOŘEPINA
 10
0.0
 20
0.0
 30
0.0
 70
   128
 71
     3
 72
     4
 73
    -1
  0
VERTEX
  5
C3D
  8
SKOŘEPINA
 10
0.0
 20
0.0
 30
0.0
 70
   128
 71
     2
 72
    -3
 73
     1
  0
SEQEND
  5
14E0
  8
SKOŘEPINA
  0
ENDBLK
  5
14D5
  8
0
  0
BLOCK
  8
0
  2
*X5
 70
     1
 10
0.0
 20
0.0
 30
0.0
  3
*X5
  1

  0
POLYLINE
  5
C3F
  8
ŠUPLÍKY
 66
     1
 10
0.0
 20
0.0
 30
0.0
 70
    64
 71
     8
 72
     6
  0
VERTEX
  5
C40
  8
ŠUPLÍKY
 10
203.5
 20
-386.5000000000005
 30
0.0000000000000284
 70
   192
  0
VERTEX
  5
C41
  8
ŠUPLÍKY
 10
203.4999999999999
 20
386.4999999999995
 30
0.0000000000000284
 70
   192
  0
VERTEX
  5
C42
  8
ŠUPLÍKY
 10
212.4999999999999
 20
384.0884572681194
 30
0.0000000000000299
 70
   192
  0
VERTEX
  5
C43
  8
ŠUPLÍKY
 10
219.0884572681198
 20
377.4999999999995
 30
0.0000000000000311
 70
   192
  0
VERTEX
  5
C44
  8
ŠUPLÍKY
 10
221.4999999999999
 20
368.4999999999995
 30
0.0000000000000315
 70
   192
  0
VERTEX
  5
C45
  8
ŠUPLÍKY
 10
221.5
 20
-368.5000000000005
 30
0.0000000000000284
 70
   192
  0
VERTEX
  5
C46
  8
ŠUPLÍKY
 10
219.0884572681199
 20
-377.5000000000005
 30
0.0000000000000311
 70
   192
  0
VERTEX
  5
C47
  8
ŠUPLÍKY
 10
212.5
 20
-384.0884572681204
 30
0.0000000000000299
 70
   192
  0
VERTEX
  5
C48
  8
ŠUPLÍKY
 10
0.0
 20
0.0
 30
0.0
 70
   128
 71
     7
 72
     8
 73
    -1
  0
VERTEX
  5
C49
  8
ŠUPLÍKY
 10
0.0
 20
0.0
 30
0.0
 70
   128
 71
     6
 72
    -7
 73
    -1
  0
VERTEX
  5
C4A
  8
ŠUPLÍKY
 10
0.0
 20
0.0
 30
0.0
 70
   128
 71
     5
 72
    -6
 73
    -1
  0
VERTEX
  5
C4B
  8
ŠUPLÍKY
 10
0.0
 20
0.0
 30
0.0
 70
   128
 71
     4
 72
    -5
 73
    -1
  0
VERTEX
  5
C4C
  8
ŠUPLÍKY
 10
0.0
 20
0.0
 30
0.0
 70
   128
 71
     3
 72
    -4
 73
    -1
  0
VERTEX
  5
C4D
  8
ŠUPLÍKY
 10
0.0
 20
0.0
 30
0.0
 70
   128
 71
     2
 72
    -3
 73
     1
  0
SEQEND
  5
14E3
  8
ŠUPLÍKY
  0
POLYLINE
  5
C4E
  8
ŠUPLÍKY
 66
     1
 10
0.0
 20
0.0
 30
0.0
 70
    64
 71
     8
 72
     6
  0
VERTEX
  5
C4F
  8
ŠUPLÍKY
 10
221.4999999999999
 20
-368.5000000000005
 30
300.0
 70
   192
  0
VERTEX
  5
C50
  8
ŠUPLÍKY
 10
221.4999999999998
 20
368.4999999999995
 30
300.0
 70
   192
  0
VERTEX
  5
C51
  8
ŠUPLÍKY
 10
219.0884572681198
 20
377.4999999999995
 30
300.0
 70
   192
  0
VERTEX
  5
C52
  8
ŠUPLÍKY
 10
212.4999999999998
 20
384.0884572681194
 30
300.0
 70
   192
  0
VERTEX
  5
C53
  8
ŠUPLÍKY
 10
203.4999999999998
 20
386.4999999999995
 30
300.0
 70
   192
  0
VERTEX
  5
C54
  8
ŠUPLÍKY
 10
203.4999999999999
 20
-386.5000000000005
 30
300.0
 70
   192
  0
VERTEX
  5
C55
  8
ŠUPLÍKY
 10
212.4999999999999
 20
-384.0884572681204
 30
300.0
 70
   192
  0
VERTEX
  5
C56
  8
ŠUPLÍKY
 10
219.0884572681198
 20
-377.5000000000005
 30
300.0
 70
   192
  0
VERTEX
  5
C57
  8
ŠUPLÍKY
 10
0.0
 20
0.0
 30
0.0
 70
   128
 71
     7
 72
     8
 73
    -1
  0
VERTEX
  5
C58
  8
ŠUPLÍKY
 10
0.0
 20
0.0
 30
0.0
 70
   128
 71
     6
 72
    -7
 73
    -1
  0
VERTEX
  5
C59
  8
ŠUPLÍKY
 10
0.0
 20
0.0
 30
0.0
 70
   128
 71
     5
 72
    -6
 73
    -1
  0
VERTEX
  5
C5A
  8
ŠUPLÍKY
 10
0.0
 20
0.0
 30
0.0
 70
   128
 71
     4
 72
    -5
 73
    -1
  0
VERTEX
  5
C5B
  8
ŠUPLÍKY
 10
0.0
 20
0.0
 30
0.0
 70
   128
 71
     3
 72
    -4
 73
    -1
  0
VERTEX
  5
C5C
  8
ŠUPLÍKY
 10
0.0
 20
0.0
 30
0.0
 70
   128
 71
     2
 72
    -3
 73
     1
  0
SEQEND
  5
14E4
  8
ŠUPLÍKY
  0
POLYLINE
  5
C5D
  8
ŠUPLÍKY
 66
     1
 10
0.0
 20
0.0
 30
0.0
 70
    64
 71
     4
 72
     2
  0
VERTEX
  5
C5E
  8
ŠUPLÍKY
 10
203.4999999999998
 20
386.4999999999995
 30
300.0
 70
   192
  0
VERTEX
  5
C5F
  8
ŠUPLÍKY
 10
203.4999999999999
 20
386.4999999999995
 30
0.0000000000000284
 70
   192
  0
VERTEX
  5
C60
  8
ŠUPLÍKY
 10
203.5
 20
-386.5000000000005
 30
0.0000000000000284
 70
   192
  0
VERTEX
  5
C61
  8
ŠUPLÍKY
 10
203.4999999999999
 20
-386.5000000000005
 30
300.0
 70
   192
  0
VERTEX
  5
C62
  8
ŠUPLÍKY
 10
0.0
 20
0.0
 30
0.0
 70
   128
 71
     3
 72
     4
 73
    -1
  0
VERTEX
  5
C63
  8
ŠUPLÍKY
 10
0.0
 20
0.0
 30
0.0
 70
   128
 71
     2
 72
    -3
 73
     1
  0
SEQEND
  5
14E5
  8
ŠUPLÍKY
  0
POLYLINE
  5
C64
  8
ŠUPLÍKY
 66
     1
 10
0.0
 20
0.0
 30
0.0
 70
    64
 71
     4
 72
     2
  0
VERTEX
  5
C65
  8
ŠUPLÍKY
 10
221.5
 20
-368.5000000000005
 30
0.0000000000000284
 70
   192
  0
VERTEX
  5
C66
  8
ŠUPLÍKY
 10
221.4999999999999
 20
-368.5000000000005
 30
300.0
 70
   192
  0
VERTEX
  5
C67
  8
ŠUPLÍKY
 10
221.4999999999998
 20
368.4999999999995
 30
300.0
 70
   192
  0
VERTEX
  5
C68
  8
ŠUPLÍKY
 10
221.4999999999999
 20
368.4999999999995
 30
0.0000000000000284
 70
   192
  0
VERTEX
  5
C69
  8
ŠUPLÍKY
 10
0.0
 20
0.0
 30
0.0
 70
   128
 71
     1
 72
     4
 73
    -3
  0
VERTEX
  5
C6A
  8
ŠUPLÍKY
 10
0.0
 20
0.0
 30
0.0
 70
   128
 71
    -1
 72
     3
 73
     2
  0
SEQEND
  5
14E6
  8
ŠUPLÍKY
  0
POLYLINE
  5
C6B
  8
ŠUPLÍKY
 66
     1
 10
0.0
 20
0.0
 30
0.0
 70
    64
 71
     8
 72
     6
  0
VERTEX
  5
C6C
  8
ŠUPLÍKY
 10
212.4999999999999
 20
384.0884572681194
 30
0.0000000000000299
 70
   192
  0
VERTEX
  5
C6D
  8
ŠUPLÍKY
 10
212.4999999999998
 20
384.0884572681194
 30
300.0
 70
   192
  0
VERTEX
  5
C6E
  8
ŠUPLÍKY
 10
219.0884572681198
 20
377.4999999999995
 30
300.0
 70
   192
  0
VERTEX
  5
C6F
  8
ŠUPLÍKY
 10
219.0884572681198
 20
377.4999999999995
 30
0.0000000000000311
 70
   192
  0
VERTEX
  5
C70
  8
ŠUPLÍKY
 10
203.4999999999999
 20
386.4999999999995
 30
0.0000000000000284
 70
   192
  0
VERTEX
  5
C71
  8
ŠUPLÍKY
 10
203.4999999999998
 20
386.4999999999995
 30
300.0
 70
   192
  0
VERTEX
  5
C72
  8
ŠUPLÍKY
 10
221.4999999999999
 20
368.4999999999995
 30
300.0
 70
   192
  0
VERTEX
  5
C73
  8
ŠUPLÍKY
 10
221.4999999999999
 20
368.4999999999995
 30
0.0
 70
   192
  0
VERTEX
  5
C74
  8
ŠUPLÍKY
 10
0.0
 20
0.0
 30
0.0
 70
   128
 71
     1
 72
     2
 73
    -3
  0
VERTEX
  5
C75
  8
ŠUPLÍKY
 10
0.0
 20
0.0
 30
0.0
 70
   128
 71
    -1
 72
     3
 73
     4
  0
VERTEX
  5
C76
  8
ŠUPLÍKY
 10
0.0
 20
0.0
 30
0.0
 70
   128
 71
     5
 72
     6
 73
    -2
  0
VERTEX
  5
C77
  8
ŠUPLÍKY
 10
0.0
 20
0.0
 30
0.0
 70
   128
 71
    -5
 72
     2
 73
     1
  0
VERTEX
  5
C78
  8
ŠUPLÍKY
 10
0.0
 20
0.0
 30
0.0
 70
   128
 71
     4
 72
     3
 73
    -7
  0
VERTEX
  5
C79
  8
ŠUPLÍKY
 10
0.0
 20
0.0
 30
0.0
 70
   128
 71
    -4
 72
     7
 73
     8
  0
SEQEND
  5
14E7
  8
ŠUPLÍKY
  0
POLYLINE
  5
C7A
  8
ŠUPLÍKY
 66
     1
 10
0.0
 20
0.0
 30
0.0
 70
    64
 71
     8
 72
     6
  0
VERTEX
  5
C7B
  8
ŠUPLÍKY
 10
212.4999999999999
 20
-384.0884572681204
 30
300.0
 70
   192
  0
VERTEX
  5
C7C
  8
ŠUPLÍKY
 10
212.5
 20
-384.0884572681204
 30
0.0000000000000299
 70
   192
  0
VERTEX
  5
C7D
  8
ŠUPLÍKY
 10
219.0884572681199
 20
-377.5000000000005
 30
0.0000000000000311
 70
   192
  0
VERTEX
  5
C7E
  8
ŠUPLÍKY
 10
219.0884572681198
 20
-377.5000000000005
 30
300.0
 70
   192
  0
VERTEX
  5
C7F
  8
ŠUPLÍKY
 10
203.4999999999999
 20
-386.5000000000005
 30
300.0
 70
   192
  0
VERTEX
  5
C80
  8
ŠUPLÍKY
 10
203.5
 20
-386.5000000000005
 30
0.0000000000000284
 70
   192
  0
VERTEX
  5
C81
  8
ŠUPLÍKY
 10
221.5
 20
-368.5000000000005
 30
0.0000000000000315
 70
   192
  0
VERTEX
  5
C82
  8
ŠUPLÍKY
 10
221.4999999999999
 20
-368.5000000000005
 30
300.0
 70
   192
  0
VERTEX
  5
C83
  8
ŠUPLÍKY
 10
0.0
 20
0.0
 30
0.0
 70
   128
 71
     1
 72
     2
 73
    -3
  0
VERTEX
  5
C84
  8
ŠUPLÍKY
 10
0.0
 20
0.0
 30
0.0
 70
   128
 71
    -1
 72
     3
 73
     4
  0
VERTEX
  5
C85
  8
ŠUPLÍKY
 10
0.0
 20
0.0
 30
0.0
 70
   128
 71
     5
 72
     6
 73
    -2
  0
VERTEX
  5
C86
  8
ŠUPLÍKY
 10
0.0
 20
0.0
 30
0.0
 70
   128
 71
    -5
 72
     2
 73
     1
  0
VERTEX
  5
C87
  8
ŠUPLÍKY
 10
0.0
 20
0.0
 30
0.0
 70
   128
 71
     4
 72
     3
 73
    -7
  0
VERTEX
  5
C88
  8
ŠUPLÍKY
 10
0.0
 20
0.0
 30
0.0
 70
   128
 71
    -4
 72
     7
 73
     8
  0
SEQEND
  5
14E8
  8
ŠUPLÍKY
  0
ENDBLK
  5
14E2
  8
0
  0
BLOCK
  8
0
  2
*X6
 70
     1
 10
0.0
 20
0.0
 30
0.0
  3
*X6
  1

  0
POLYLINE
  5
C8A
  8
ŠUPLÍKY
 66
     1
 10
0.0
 20
0.0
 30
0.0
 70
    64
 71
     8
 72
     8
  0
VERTEX
  5
C8B
  8
ŠUPLÍKY
 10
203.5
 20
-364.5000000000005
 30
197.0
 70
   192
  0
VERTEX
  5
C8C
  8
ŠUPLÍKY
 10
-146.5
 20
-364.5000000000006
 30
197.0
 70
   192
  0
VERTEX
  5
C8D
  8
ŠUPLÍKY
 10
-146.5000000000001
 20
364.4999999999994
 30
197.0
 70
   192
  0
VERTEX
  5
C8E
  8
ŠUPLÍKY
 10
203.4999999999998
 20
364.4999999999995
 30
197.0000000000001
 70
   192
  0
VERTEX
  5
C8F
  8
ŠUPLÍKY
 10
188.4999999999999
 20
349.4999999999995
 30
197.0
 70
   192
  0
VERTEX
  5
C90
  8
ŠUPLÍKY
 10
-131.5000000000001
 20
349.4999999999994
 30
197.0
 70
   192
  0
VERTEX
  5
C91
  8
ŠUPLÍKY
 10
-131.5
 20
-349.5000000000005
 30
197.0
 70
   192
  0
VERTEX
  5
C92
  8
ŠUPLÍKY
 10
188.5
 20
-349.5000000000005
 30
197.0
 70
   192
  0
VERTEX
  5
C93
  8
ŠUPLÍKY
 10
0.0
 20
0.0
 30
0.0
 70
   128
 71
     6
 72
    -5
 73
    -4
  0
VERTEX
  5
C94
  8
ŠUPLÍKY
 10
0.0
 20
0.0
 30
0.0
 70
   128
 71
    -6
 72
     4
 73
    -3
  0
VERTEX
  5
C95
  8
ŠUPLÍKY
 10
0.0
 20
0.0
 30
0.0
 70
   128
 71
     3
 72
    -2
 73
    -7
  0
VERTEX
  5
C96
  8
ŠUPLÍKY
 10
0.0
 20
0.0
 30
0.0
 70
   128
 71
    -3
 72
     7
 73
    -6
  0
VERTEX
  5
C97
  8
ŠUPLÍKY
 10
0.0
 20
0.0
 30
0.0
 70
   128
 71
     2
 72
    -1
 73
    -8
  0
VERTEX
  5
C98
  8
ŠUPLÍKY
 10
0.0
 20
0.0
 30
0.0
 70
   128
 71
    -2
 72
     8
 73
    -7
  0
VERTEX
  5
C99
  8
ŠUPLÍKY
 10
0.0
 20
0.0
 30
0.0
 70
   128
 71
     1
 72
    -4
 73
    -5
  0
VERTEX
  5
C9A
  8
ŠUPLÍKY
 10
0.0
 20
0.0
 30
0.0
 70
   128
 71
    -1
 72
     5
 73
    -8
  0
SEQEND
  5
14EB
  8
ŠUPLÍKY
  0
POLYLINE
  5
C9B
  8
ŠUPLÍKY
 66
     1
 10
0.0
 20
0.0
 30
0.0
 70
    64
 71
     4
 72
     2
  0
VERTEX
  5
C9C
  8
ŠUPLÍKY
 10
203.4999999999999
 20
364.4999999999995
 30
197.0
 70
   192
  0
VERTEX
  5
C9D
  8
ŠUPLÍKY
 10
-146.5000000000002
 20
364.4999999999994
 30
197.0
 70
   192
  0
VERTEX
  5
C9E
  8
ŠUPLÍKY
 10
-146.5000000000001
 20
364.4999999999994
 30
31.99999999999999
 70
   192
  0
VERTEX
  5
C9F
  8
ŠUPLÍKY
 10
203.4999999999999
 20
364.4999999999995
 30
32.00000000000003
 70
   192
  0
VERTEX
  5
CA0
  8
ŠUPLÍKY
 10
0.0
 20
0.0
 30
0.0
 70
   128
 71
     1
 72
     4
 73
    -3
  0
VERTEX
  5
CA1
  8
ŠUPLÍKY
 10
0.0
 20
0.0
 30
0.0
 70
   128
 71
    -1
 72
     3
 73
     2
  0
SEQEND
  5
14EC
  8
ŠUPLÍKY
  0
POLYLINE
  5
CA2
  8
ŠUPLÍKY
 66
     1
 10
0.0
 20
0.0
 30
0.0
 70
    64
 71
     4
 72
     2
  0
VERTEX
  5
CA3
  8
ŠUPLÍKY
 10
203.4999999999999
 20
364.4999999999995
 30
32.00000000000004
 70
   192
  0
VERTEX
  5
CA4
  8
ŠUPLÍKY
 10
-146.5000000000001
 20
364.4999999999994
 30
31.99999999999999
 70
   192
  0
VERTEX
  5
CA5
  8
ŠUPLÍKY
 10
-146.5
 20
-364.5000000000006
 30
31.99999999999999
 70
   192
  0
VERTEX
  5
CA6
  8
ŠUPLÍKY
 10
203.5
 20
-364.5000000000005
 30
32.00000000000003
 70
   192
  0
VERTEX
  5
CA7
  8
ŠUPLÍKY
 10
0.0
 20
0.0
 30
0.0
 70
   128
 71
     1
 72
     4
 73
    -3
  0
VERTEX
  5
CA8
  8
ŠUPLÍKY
 10
0.0
 20
0.0
 30
0.0
 70
   128
 71
    -1
 72
     3
 73
     2
  0
SEQEND
  5
14ED
  8
ŠUPLÍKY
  0
POLYLINE
  5
CA9
  8
ŠUPLÍKY
 66
     1
 10
0.0
 20
0.0
 30
0.0
 70
    64
 71
     4
 72
     2
  0
VERTEX
  5
CAA
  8
ŠUPLÍKY
 10
203.5
 20
-364.5000000000005
 30
32.00000000000004
 70
   192
  0
VERTEX
  5
CAB
  8
ŠUPLÍKY
 10
-146.5
 20
-364.5000000000006
 30
31.99999999999999
 70
   192
  0
VERTEX
  5
CAC
  8
ŠUPLÍKY
 10
-146.5
 20
-364.5000000000006
 30
197.0
 70
   192
  0
VERTEX
  5
CAD
  8
ŠUPLÍKY
 10
203.4999999999999
 20
-364.5000000000005
 30
197.0000000000001
 70
   192
  0
VERTEX
  5
CAE
  8
ŠUPLÍKY
 10
0.0
 20
0.0
 30
0.0
 70
   128
 71
     1
 72
     4
 73
    -3
  0
VERTEX
  5
CAF
  8
ŠUPLÍKY
 10
0.0
 20
0.0
 30
0.0
 70
   128
 71
    -1
 72
     3
 73
     2
  0
SEQEND
  5
14EE
  8
ŠUPLÍKY
  0
POLYLINE
  5
CB0
  8
ŠUPLÍKY
 66
     1
 10
0.0
 20
0.0
 30
0.0
 70
    64
 71
     4
 72
     2
  0
VERTEX
  5
CB1
  8
ŠUPLÍKY
 10
-146.5000000000001
 20
364.4999999999994
 30
197.0
 70
   192
  0
VERTEX
  5
CB2
  8
ŠUPLÍKY
 10
-146.5000000000001
 20
-364.5000000000006
 30
197.0
 70
   192
  0
VERTEX
  5
CB3
  8
ŠUPLÍKY
 10
-146.5
 20
-364.5000000000006
 30
31.99999999999999
 70
   192
  0
VERTEX
  5
CB4
  8
ŠUPLÍKY
 10
-146.5000000000001
 20
364.4999999999994
 30
31.99999999999999
 70
   192
  0
VERTEX
  5
CB5
  8
ŠUPLÍKY
 10
0.0
 20
0.0
 30
0.0
 70
   128
 71
     1
 72
     4
 73
    -3
  0
VERTEX
  5
CB6
  8
ŠUPLÍKY
 10
0.0
 20
0.0
 30
0.0
 70
   128
 71
    -1
 72
     3
 73
     2
  0
SEQEND
  5
14EF
  8
ŠUPLÍKY
  0
POLYLINE
  5
CB7
  8
ŠUPLÍKY
 66
     1
 10
0.0
 20
0.0
 30
0.0
 70
    64
 71
     4
 72
     2
  0
VERTEX
  5
CB8
  8
ŠUPLÍKY
 10
203.4999999999999
 20
364.4999999999995
 30
32.00000000000003
 70
   192
  0
VERTEX
  5
CB9
  8
ŠUPLÍKY
 10
203.4999999999998
 20
364.4999999999995
 30
197.0000000000001
 70
   192
  0
VERTEX
  5
CBA
  8
ŠUPLÍKY
 10
203.4999999999999
 20
-364.5000000000005
 30
197.0000000000001
 70
   192
  0
VERTEX
  5
CBB
  8
ŠUPLÍKY
 10
203.5
 20
-364.5000000000005
 30
32.00000000000003
 70
   192
  0
VERTEX
  5
CBC
  8
ŠUPLÍKY
 10
0.0
 20
0.0
 30
0.0
 70
   128
 71
     3
 72
     4
 73
    -1
  0
VERTEX
  5
CBD
  8
ŠUPLÍKY
 10
0.0
 20
0.0
 30
0.0
 70
   128
 71
     2
 72
    -3
 73
     1
  0
SEQEND
  5
14F0
  8
ŠUPLÍKY
  0
POLYLINE
  5
CBE
  8
ŠUPLÍKY
 66
     1
 10
0.0
 20
0.0
 30
0.0
 70
    64
 71
     4
 72
     2
  0
VERTEX
  5
CBF
  8
ŠUPLÍKY
 10
188.4999999999999
 20
349.4999999999995
 30
47.00000000000001
 70
   192
  0
VERTEX
  5
CC0
  8
ŠUPLÍKY
 10
188.4999999999999
 20
349.4999999999995
 30
197.0
 70
   192
  0
VERTEX
  5
CC1
  8
ŠUPLÍKY
 10
-131.5000000000001
 20
349.4999999999994
 30
197.0
 70
   192
  0
VERTEX
  5
CC2
  8
ŠUPLÍKY
 10
-131.5000000000001
 20
349.4999999999994
 30
46.99999999999997
 70
   192
  0
VERTEX
  5
CC3
  8
ŠUPLÍKY
 10
0.0
 20
0.0
 30
0.0
 70
   128
 71
     3
 72
     4
 73
    -1
  0
VERTEX
  5
CC4
  8
ŠUPLÍKY
 10
0.0
 20
0.0
 30
0.0
 70
   128
 71
     2
 72
    -3
 73
     1
  0
SEQEND
  5
14F1
  8
ŠUPLÍKY
  0
POLYLINE
  5
CC5
  8
ŠUPLÍKY
 66
     1
 10
0.0
 20
0.0
 30
0.0
 70
    64
 71
     4
 72
     2
  0
VERTEX
  5
CC6
  8
ŠUPLÍKY
 10
188.5
 20
-349.5000000000005
 30
47.00000000000001
 70
   192
  0
VERTEX
  5
CC7
  8
ŠUPLÍKY
 10
188.4999999999999
 20
349.4999999999995
 30
47.00000000000001
 70
   192
  0
VERTEX
  5
CC8
  8
ŠUPLÍKY
 10
-131.5000000000001
 20
349.4999999999994
 30
46.99999999999997
 70
   192
  0
VERTEX
  5
CC9
  8
ŠUPLÍKY
 10
-131.5
 20
-349.5000000000005
 30
46.99999999999997
 70
   192
  0
VERTEX
  5
CCA
  8
ŠUPLÍKY
 10
0.0
 20
0.0
 30
0.0
 70
   128
 71
     3
 72
     4
 73
    -1
  0
VERTEX
  5
CCB
  8
ŠUPLÍKY
 10
0.0
 20
0.0
 30
0.0
 70
   128
 71
     2
 72
    -3
 73
     1
  0
SEQEND
  5
14F2
  8
ŠUPLÍKY
  0
POLYLINE
  5
CCC
  8
ŠUPLÍKY
 66
     1
 10
0.0
 20
0.0
 30
0.0
 70
    64
 71
     4
 72
     2
  0
VERTEX
  5
CCD
  8
ŠUPLÍKY
 10
188.5
 20
-349.5000000000005
 30
197.0
 70
   192
  0
VERTEX
  5
CCE
  8
ŠUPLÍKY
 10
188.5
 20
-349.5000000000005
 30
47.00000000000001
 70
   192
  0
VERTEX
  5
CCF
  8
ŠUPLÍKY
 10
-131.5
 20
-349.5000000000005
 30
46.99999999999997
 70
   192
  0
VERTEX
  5
CD0
  8
ŠUPLÍKY
 10
-131.5
 20
-349.5000000000005
 30
197.0
 70
   192
  0
VERTEX
  5
CD1
  8
ŠUPLÍKY
 10
0.0
 20
0.0
 30
0.0
 70
   128
 71
     3
 72
     4
 73
    -1
  0
VERTEX
  5
CD2
  8
ŠUPLÍKY
 10
0.0
 20
0.0
 30
0.0
 70
   128
 71
     2
 72
    -3
 73
     1
  0
SEQEND
  5
14F3
  8
ŠUPLÍKY
  0
POLYLINE
  5
CD3
  8
ŠUPLÍKY
 66
     1
 10
0.0
 20
0.0
 30
0.0
 70
    64
 71
     4
 72
     2
  0
VERTEX
  5
CD4
  8
ŠUPLÍKY
 10
-131.5000000000001
 20
349.4999999999994
 30
46.99999999999997
 70
   192
  0
VERTEX
  5
CD5
  8
ŠUPLÍKY
 10
-131.5000000000001
 20
349.4999999999994
 30
197.0
 70
   192
  0
VERTEX
  5
CD6
  8
ŠUPLÍKY
 10
-131.5
 20
-349.5000000000005
 30
197.0
 70
   192
  0
VERTEX
  5
CD7
  8
ŠUPLÍKY
 10
-131.5
 20
-349.5000000000005
 30
46.99999999999997
 70
   192
  0
VERTEX
  5
CD8
  8
ŠUPLÍKY
 10
0.0
 20
0.0
 30
0.0
 70
   128
 71
     3
 72
     4
 73
    -1
  0
VERTEX
  5
CD9
  8
ŠUPLÍKY
 10
0.0
 20
0.0
 30
0.0
 70
   128
 71
     2
 72
    -3
 73
     1
  0
SEQEND
  5
14F4
  8
ŠUPLÍKY
  0
POLYLINE
  5
CDA
  8
ŠUPLÍKY
 66
     1
 10
0.0
 20
0.0
 30
0.0
 70
    64
 71
     4
 72
     2
  0
VERTEX
  5
CDB
  8
ŠUPLÍKY
 10
188.4999999999999
 20
349.4999999999995
 30
197.0
 70
   192
  0
VERTEX
  5
CDC
  8
ŠUPLÍKY
 10
188.5
 20
-349.5000000000005
 30
197.0
 70
   192
  0
VERTEX
  5
CDD
  8
ŠUPLÍKY
 10
188.5
 20
-349.5000000000005
 30
47.00000000000001
 70
   192
  0
VERTEX
  5
CDE
  8
ŠUPLÍKY
 10
188.4999999999999
 20
349.4999999999995
 30
47.00000000000001
 70
   192
  0
VERTEX
  5
CDF
  8
ŠUPLÍKY
 10
0.0
 20
0.0
 30
0.0
 70
   128
 71
     1
 72
     4
 73
    -3
  0
VERTEX
  5
CE0
  8
ŠUPLÍKY
 10
0.0
 20
0.0
 30
0.0
 70
   128
 71
    -1
 72
     3
 73
     2
  0
SEQEND
  5
14F5
  8
ŠUPLÍKY
  0
ENDBLK
  5
14EA
  8
0
  0
BLOCK
  8
0
  2
*X7
 70
     1
 10
0.0
 20
0.0
 30
0.0
  3
*X7
  1

  0
POLYLINE
  5
CE2
  8
ŠUPLÍKY
 66
     1
 10
0.0
 20
0.0
 30
0.0
 70
    64
 71
     8
 72
     6
  0
VERTEX
  5
CE3
  8
ŠUPLÍKY
 10
203.5
 20
-386.5000000000005
 30
301.9999999999999
 70
   192
  0
VERTEX
  5
CE4
  8
ŠUPLÍKY
 10
212.5
 20
-384.0884572681204
 30
301.9999999999999
 70
   192
  0
VERTEX
  5
CE5
  8
ŠUPLÍKY
 10
219.0884572681199
 20
-377.5000000000005
 30
301.9999999999999
 70
   192
  0
VERTEX
  5
CE6
  8
ŠUPLÍKY
 10
221.4999999999999
 20
-368.5000000000005
 30
302.0
 70
   192
  0
VERTEX
  5
CE7
  8
ŠUPLÍKY
 10
221.4999999999999
 20
368.4999999999995
 30
302.0000000000001
 70
   192
  0
VERTEX
  5
CE8
  8
ŠUPLÍKY
 10
219.0884572681198
 20
377.4999999999995
 30
302.0000000000001
 70
   192
  0
VERTEX
  5
CE9
  8
ŠUPLÍKY
 10
212.4999999999999
 20
384.0884572681194
 30
302.0000000000001
 70
   192
  0
VERTEX
  5
CEA
  8
ŠUPLÍKY
 10
203.4999999999999
 20
386.4999999999995
 30
302.0000000000001
 70
   192
  0
VERTEX
  5
CEB
  8
ŠUPLÍKY
 10
0.0
 20
0.0
 30
0.0
 70
   128
 71
     1
 72
     8
 73
    -7
  0
VERTEX
  5
CEC
  8
ŠUPLÍKY
 10
0.0
 20
0.0
 30
0.0
 70
   128
 71
    -1
 72
     7
 73
    -6
  0
VERTEX
  5
CED
  8
ŠUPLÍKY
 10
0.0
 20
0.0
 30
0.0
 70
   128
 71
    -1
 72
     6
 73
    -5
  0
VERTEX
  5
CEE
  8
ŠUPLÍKY
 10
0.0
 20
0.0
 30
0.0
 70
   128
 71
    -1
 72
     5
 73
    -4
  0
VERTEX
  5
CEF
  8
ŠUPLÍKY
 10
0.0
 20
0.0
 30
0.0
 70
   128
 71
    -1
 72
     4
 73
    -3
  0
VERTEX
  5
CF0
  8
ŠUPLÍKY
 10
0.0
 20
0.0
 30
0.0
 70
   128
 71
    -1
 72
     3
 73
     2
  0
SEQEND
  5
14F8
  8
ŠUPLÍKY
  0
POLYLINE
  5
CF1
  8
ŠUPLÍKY
 66
     1
 10
0.0
 20
0.0
 30
0.0
 70
    64
 71
     8
 72
     6
  0
VERTEX
  5
CF2
  8
ŠUPLÍKY
 10
221.4999999999997
 20
-368.5000000000005
 30
540.0000000000001
 70
   192
  0
VERTEX
  5
CF3
  8
ŠUPLÍKY
 10
219.0884572681196
 20
-377.5000000000005
 30
540.0000000000001
 70
   192
  0
VERTEX
  5
CF4
  8
ŠUPLÍKY
 10
212.4999999999997
 20
-384.0884572681204
 30
540.0000000000001
 70
   192
  0
VERTEX
  5
CF5
  8
ŠUPLÍKY
 10
203.4999999999997
 20
-386.5000000000005
 30
540.0
 70
   192
  0
VERTEX
  5
CF6
  8
ŠUPLÍKY
 10
203.4999999999995
 20
386.4999999999995
 30
540.0000000000001
 70
   192
  0
VERTEX
  5
CF7
  8
ŠUPLÍKY
 10
212.4999999999996
 20
384.0884572681194
 30
540.0000000000001
 70
   192
  0
VERTEX
  5
CF8
  8
ŠUPLÍKY
 10
219.0884572681195
 20
377.4999999999995
 30
540.0000000000001
 70
   192
  0
VERTEX
  5
CF9
  8
ŠUPLÍKY
 10
221.4999999999996
 20
368.4999999999995
 30
540.0000000000001
 70
   192
  0
VERTEX
  5
CFA
  8
ŠUPLÍKY
 10
0.0
 20
0.0
 30
0.0
 70
   128
 71
     1
 72
     8
 73
    -7
  0
VERTEX
  5
CFB
  8
ŠUPLÍKY
 10
0.0
 20
0.0
 30
0.0
 70
   128
 71
    -1
 72
     7
 73
    -6
  0
VERTEX
  5
CFC
  8
ŠUPLÍKY
 10
0.0
 20
0.0
 30
0.0
 70
   128
 71
    -1
 72
     6
 73
    -5
  0
VERTEX
  5
CFD
  8
ŠUPLÍKY
 10
0.0
 20
0.0
 30
0.0
 70
   128
 71
    -1
 72
     5
 73
    -4
  0
VERTEX
  5
CFE
  8
ŠUPLÍKY
 10
0.0
 20
0.0
 30
0.0
 70
   128
 71
    -1
 72
     4
 73
    -3
  0
VERTEX
  5
CFF
  8
ŠUPLÍKY
 10
0.0
 20
0.0
 30
0.0
 70
   128
 71
    -1
 72
     3
 73
     2
  0
SEQEND
  5
14F9
  8
ŠUPLÍKY
  0
POLYLINE
  5
D00
  8
ŠUPLÍKY
 66
     1
 10
0.0
 20
0.0
 30
0.0
 70
    64
 71
     4
 72
     2
  0
VERTEX
  5
D01
  8
ŠUPLÍKY
 10
221.4999999999999
 20
-368.5000000000005
 30
302.0
 70
   192
  0
VERTEX
  5
D02
  8
ŠUPLÍKY
 10
221.4999999999998
 20
368.4999999999995
 30
302.0000000000001
 70
   192
  0
VERTEX
  5
D03
  8
ŠUPLÍKY
 10
221.4999999999996
 20
368.4999999999995
 30
540.0000000000001
 70
   192
  0
VERTEX
  5
D04
  8
ŠUPLÍKY
 10
221.4999999999997
 20
-368.5000000000005
 30
540.0
 70
   192
  0
VERTEX
  5
D05
  8
ŠUPLÍKY
 10
0.0
 20
0.0
 30
0.0
 70
   128
 71
     3
 72
     4
 73
    -1
  0
VERTEX
  5
D06
  8
ŠUPLÍKY
 10
0.0
 20
0.0
 30
0.0
 70
   128
 71
     2
 72
    -3
 73
     1
  0
SEQEND
  5
14FA
  8
ŠUPLÍKY
  0
POLYLINE
  5
D07
  8
ŠUPLÍKY
 66
     1
 10
0.0
 20
0.0
 30
0.0
 70
    64
 71
     4
 72
     2
  0
VERTEX
  5
D08
  8
ŠUPLÍKY
 10
203.5
 20
-386.5000000000005
 30
302.0
 70
   192
  0
VERTEX
  5
D09
  8
ŠUPLÍKY
 10
203.4999999999999
 20
386.4999999999995
 30
302.0000000000001
 70
   192
  0
VERTEX
  5
D0A
  8
ŠUPLÍKY
 10
203.4999999999995
 20
386.4999999999995
 30
540.0000000000001
 70
   192
  0
VERTEX
  5
D0B
  8
ŠUPLÍKY
 10
203.4999999999999
 20
-386.5000000000005
 30
540.0000000000001
 70
   192
  0
VERTEX
  5
D0C
  8
ŠUPLÍKY
 10
0.0
 20
0.0
 30
0.0
 70
   128
 71
     1
 72
     4
 73
    -3
  0
VERTEX
  5
D0D
  8
ŠUPLÍKY
 10
0.0
 20
0.0
 30
0.0
 70
   128
 71
    -1
 72
     3
 73
     2
  0
SEQEND
  5
14FB
  8
ŠUPLÍKY
  0
POLYLINE
  5
D0E
  8
ŠUPLÍKY
 66
     1
 10
0.0
 20
0.0
 30
0.0
 70
    64
 71
     8
 72
     6
  0
VERTEX
  5
D0F
  8
ŠUPLÍKY
 10
212.4999999999999
 20
384.0884572681194
 30
302.0000000000001
 70
   192
  0
VERTEX
  5
D10
  8
ŠUPLÍKY
 10
212.4999999999996
 20
384.0884572681194
 30
540.0000000000001
 70
   192
  0
VERTEX
  5
D11
  8
ŠUPLÍKY
 10
219.0884572681195
 20
377.4999999999995
 30
540.0000000000001
 70
   192
  0
VERTEX
  5
D12
  8
ŠUPLÍKY
 10
219.0884572681198
 20
377.4999999999995
 30
302.0000000000001
 70
   192
  0
VERTEX
  5
D13
  8
ŠUPLÍKY
 10
203.4999999999999
 20
386.4999999999995
 30
302.0000000000001
 70
   192
  0
VERTEX
  5
D14
  8
ŠUPLÍKY
 10
203.4999999999998
 20
386.4999999999995
 30
540.0000000000001
 70
   192
  0
VERTEX
  5
D15
  8
ŠUPLÍKY
 10
221.4999999999996
 20
368.4999999999995
 30
540.0000000000001
 70
   192
  0
VERTEX
  5
D16
  8
ŠUPLÍKY
 10
221.4999999999996
 20
368.4999999999995
 30
302.0000000000001
 70
   192
  0
VERTEX
  5
D17
  8
ŠUPLÍKY
 10
0.0
 20
0.0
 30
0.0
 70
   128
 71
     1
 72
     2
 73
    -3
  0
VERTEX
  5
D18
  8
ŠUPLÍKY
 10
0.0
 20
0.0
 30
0.0
 70
   128
 71
    -1
 72
     3
 73
     4
  0
VERTEX
  5
D19
  8
ŠUPLÍKY
 10
0.0
 20
0.0
 30
0.0
 70
   128
 71
     5
 72
     6
 73
    -2
  0
VERTEX
  5
D1A
  8
ŠUPLÍKY
 10
0.0
 20
0.0
 30
0.0
 70
   128
 71
    -5
 72
     2
 73
     1
  0
VERTEX
  5
D1B
  8
ŠUPLÍKY
 10
0.0
 20
0.0
 30
0.0
 70
   128
 71
     4
 72
     3
 73
    -7
  0
VERTEX
  5
D1C
  8
ŠUPLÍKY
 10
0.0
 20
0.0
 30
0.0
 70
   128
 71
    -4
 72
     7
 73
     8
  0
SEQEND
  5
14FC
  8
ŠUPLÍKY
  0
POLYLINE
  5
D1D
  8
ŠUPLÍKY
 66
     1
 10
0.0
 20
0.0
 30
0.0
 70
    64
 71
     8
 72
     6
  0
VERTEX
  5
D1E
  8
ŠUPLÍKY
 10
212.4999999999997
 20
-384.0884572681204
 30
540.0000000000001
 70
   192
  0
VERTEX
  5
D1F
  8
ŠUPLÍKY
 10
212.5
 20
-384.0884572681204
 30
301.9999999999999
 70
   192
  0
VERTEX
  5
D20
  8
ŠUPLÍKY
 10
219.0884572681199
 20
-377.5000000000005
 30
301.9999999999999
 70
   192
  0
VERTEX
  5
D21
  8
ŠUPLÍKY
 10
219.0884572681196
 20
-377.5000000000005
 30
540.0000000000001
 70
   192
  0
VERTEX
  5
D22
  8
ŠUPLÍKY
 10
203.4999999999997
 20
-386.5000000000005
 30
540.0000000000001
 70
   192
  0
VERTEX
  5
D23
  8
ŠUPLÍKY
 10
203.5
 20
-386.5000000000005
 30
301.9999999999999
 70
   192
  0
VERTEX
  5
D24
  8
ŠUPLÍKY
 10
221.5
 20
-368.5000000000005
 30
301.9999999999999
 70
   192
  0
VERTEX
  5
D25
  8
ŠUPLÍKY
 10
221.4999999999999
 20
-368.5000000000005
 30
540.0000000000001
 70
   192
  0
VERTEX
  5
D26
  8
ŠUPLÍKY
 10
0.0
 20
0.0
 30
0.0
 70
   128
 71
     1
 72
     2
 73
    -3
  0
VERTEX
  5
D27
  8
ŠUPLÍKY
 10
0.0
 20
0.0
 30
0.0
 70
   128
 71
    -1
 72
     3
 73
     4
  0
VERTEX
  5
D28
  8
ŠUPLÍKY
 10
0.0
 20
0.0
 30
0.0
 70
   128
 71
     5
 72
     6
 73
    -2
  0
VERTEX
  5
D29
  8
ŠUPLÍKY
 10
0.0
 20
0.0
 30
0.0
 70
   128
 71
    -5
 72
     2
 73
     1
  0
VERTEX
  5
D2A
  8
ŠUPLÍKY
 10
0.0
 20
0.0
 30
0.0
 70
   128
 71
     4
 72
     3
 73
    -7
  0
VERTEX
  5
D2B
  8
ŠUPLÍKY
 10
0.0
 20
0.0
 30
0.0
 70
   128
 71
    -4
 72
     7
 73
     8
  0
SEQEND
  5
14FD
  8
ŠUPLÍKY
  0
ENDBLK
  5
14F7
  8
0
  0
BLOCK
  8
0
  2
*X8
 70
     1
 10
0.0
 20
0.0
 30
0.0
  3
*X8
  1

  0
POLYLINE
  5
D2D
  8
ŠUPLÍKY
 66
     1
 10
0.0
 20
0.0
 30
0.0
 70
    64
 71
     8
 72
     6
  0
VERTEX
  5
D2E
  8
ŠUPLÍKY
 10
93.49999999999979
 20
-60.62177826491076
 30
411.3921496190262
 70
   192
  0
VERTEX
  5
D2F
  8
ŠUPLÍKY
 10
93.49999999999994
 20
-60.62177826491066
 30
335.3921496190256
 70
   192
  0
VERTEX
  5
D30
  8
ŠUPLÍKY
 10
119.1217782649106
 20
-34.99999999999996
 30
335.3921496190256
 70
   192
  0
VERTEX
  5
D31
  8
ŠUPLÍKY
 10
119.1217782649106
 20
-35.00000000000005
 30
411.3921496190262
 70
   192
  0
VERTEX
  5
D32
  8
ŠUPLÍKY
 10
58.49999999999969
 20
-69.99999999999997
 30
411.3921496190262
 70
   192
  0
VERTEX
  5
D33
  8
ŠUPLÍKY
 10
58.49999999999994
 20
-70.0000000000001
 30
335.3921496190256
 70
   192
  0
VERTEX
  5
D34
  8
ŠUPLÍKY
 10
128.4999999999999
 20
0.0000000000000331
 30
335.3921496190256
 70
   192
  0
VERTEX
  5
D35
  8
ŠUPLÍKY
 10
128.4999999999999
 20
0.0000000000000331
 30
411.3921496190262
 70
   192
  0
VERTEX
  5
D36
  8
ŠUPLÍKY
 10
0.0
 20
0.0
 30
0.0
 70
   128
 71
     1
 72
     2
 73
    -3
  0
VERTEX
  5
D37
  8
ŠUPLÍKY
 10
0.0
 20
0.0
 30
0.0
 70
   128
 71
    -1
 72
     3
 73
     4
  0
VERTEX
  5
D38
  8
ŠUPLÍKY
 10
0.0
 20
0.0
 30
0.0
 70
   128
 71
     5
 72
     6
 73
    -2
  0
VERTEX
  5
D39
  8
ŠUPLÍKY
 10
0.0
 20
0.0
 30
0.0
 70
   128
 71
    -5
 72
     2
 73
     1
  0
VERTEX
  5
D3A
  8
ŠUPLÍKY
 10
0.0
 20
0.0
 30
0.0
 70
   128
 71
     4
 72
     3
 73
    -7
  0
VERTEX
  5
D3B
  8
ŠUPLÍKY
 10
0.0
 20
0.0
 30
0.0
 70
   128
 71
    -4
 72
     7
 73
     8
  0
SEQEND
  5
1500
  8
ŠUPLÍKY
  0
POLYLINE
  5
D3C
  8
ŠUPLÍKY
 66
     1
 10
0.0
 20
0.0
 30
0.0
 70
    64
 71
     8
 72
     6
  0
VERTEX
  5
D3D
  8
ŠUPLÍKY
 10
85.9999999999998
 20
47.63139720814423
 30
320.3921496190256
 70
   192
  0
VERTEX
  5
D3E
  8
ŠUPLÍKY
 10
106.131397208144
 20
27.50000000000009
 30
320.3921496190256
 70
   192
  0
VERTEX
  5
D3F
  8
ŠUPLÍKY
 10
106.131397208144
 20
27.50000000000002
 30
411.3921496190261
 70
   192
  0
VERTEX
  5
D40
  8
ŠUPLÍKY
 10
85.99999999999991
 20
47.63139720814414
 30
411.3921496190261
 70
   192
  0
VERTEX
  5
D41
  8
ŠUPLÍKY
 10
113.4999999999999
 20
0.0000000000000186
 30
320.3921496190256
 70
   192
  0
VERTEX
  5
D42
  8
ŠUPLÍKY
 10
113.4999999999999
 20
0.0000000000000308
 30
411.3921496190261
 70
   192
  0
VERTEX
  5
D43
  8
ŠUPLÍKY
 10
58.49999999999969
 20
55.00000000000001
 30
320.3921496190256
 70
   192
  0
VERTEX
  5
D44
  8
ŠUPLÍKY
 10
58.49999999999991
 20
55.00000000000001
 30
411.3921496190261
 70
   192
  0
VERTEX
  5
D45
  8
ŠUPLÍKY
 10
0.0
 20
0.0
 30
0.0
 70
   128
 71
     1
 72
     2
 73
    -3
  0
VERTEX
  5
D46
  8
ŠUPLÍKY
 10
0.0
 20
0.0
 30
0.0
 70
   128
 71
     4
 72
    -1
 73
     3
  0
VERTEX
  5
D47
  8
ŠUPLÍKY
 10
0.0
 20
0.0
 30
0.0
 70
   128
 71
     2
 72
     5
 73
    -6
  0
VERTEX
  5
D48
  8
ŠUPLÍKY
 10
0.0
 20
0.0
 30
0.0
 70
   128
 71
     3
 72
    -2
 73
     6
  0
VERTEX
  5
D49
  8
ŠUPLÍKY
 10
0.0
 20
0.0
 30
0.0
 70
   128
 71
     7
 72
     1
 73
    -4
  0
VERTEX
  5
D4A
  8
ŠUPLÍKY
 10
0.0
 20
0.0
 30
0.0
 70
   128
 71
     8
 72
    -7
 73
     4
  0
SEQEND
  5
1501
  8
ŠUPLÍKY
  0
POLYLINE
  5
D4B
  8
ŠUPLÍKY
 66
     1
 10
0.0
 20
0.0
 30
0.0
 70
    64
 71
     4
 72
     2
  0
VERTEX
  5
D4C
  8
ŠUPLÍKY
 10
-146.5000000000002
 20
364.4999999999994
 30
320.3921496190256
 70
   192
  0
VERTEX
  5
D4D
  8
ŠUPLÍKY
 10
-146.5000000000002
 20
364.4999999999994
 30
411.3921496190255
 70
   192
  0
VERTEX
  5
D4E
  8
ŠUPLÍKY
 10
-146.5000000000001
 20
54.99999999999997
 30
411.3921496190255
 70
   192
  0
VERTEX
  5
D4F
  8
ŠUPLÍKY
 10
-146.5000000000001
 20
55.0
 30
320.3921496190256
 70
   192
  0
VERTEX
  5
D50
  8
ŠUPLÍKY
 10
0.0
 20
0.0
 30
0.0
 70
   128
 71
     1
 72
     4
 73
    -3
  0
VERTEX
  5
D51
  8
ŠUPLÍKY
 10
0.0
 20
0.0
 30
0.0
 70
   128
 71
    -1
 72
     3
 73
     2
  0
SEQEND
  5
1502
  8
ŠUPLÍKY
  0
POLYLINE
  5
D52
  8
ŠUPLÍKY
 66
     1
 10
0.0
 20
0.0
 30
0.0
 70
    64
 71
     4
 72
     2
  0
VERTEX
  5
D53
  8
ŠUPLÍKY
 10
203.4999999999998
 20
364.4999999999995
 30
411.3921496190256
 70
   192
  0
VERTEX
  5
D54
  8
ŠUPLÍKY
 10
-146.5000000000002
 20
364.4999999999994
 30
411.3921496190255
 70
   192
  0
VERTEX
  5
D55
  8
ŠUPLÍKY
 10
-146.5000000000002
 20
364.4999999999994
 30
320.3921496190256
 70
   192
  0
VERTEX
  5
D56
  8
ŠUPLÍKY
 10
203.4999999999999
 20
364.4999999999995
 30
320.3921496190256
 70
   192
  0
VERTEX
  5
D57
  8
ŠUPLÍKY
 10
0.0
 20
0.0
 30
0.0
 70
   128
 71
     1
 72
     4
 73
    -3
  0
VERTEX
  5
D58
  8
ŠUPLÍKY
 10
0.0
 20
0.0
 30
0.0
 70
   128
 71
    -1
 72
     3
 73
     2
  0
SEQEND
  5
1503
  8
ŠUPLÍKY
  0
POLYLINE
  5
D59
  8
ŠUPLÍKY
 66
     1
 10
0.0
 20
0.0
 30
0.0
 70
    64
 71
    13
 72
    11
  0
VERTEX
  5
D5A
  8
ŠUPLÍKY
 10
113.4999999999999
 20
0.0000000000000308
 30
320.3921496190256
 70
   192
  0
VERTEX
  5
D5B
  8
ŠUPLÍKY
 10
106.1313972081441
 20
-27.49999999999996
 30
320.3921496190256
 70
   192
  0
VERTEX
  5
D5C
  8
ŠUPLÍKY
 10
85.99999999999996
 20
-47.63139720814409
 30
320.3921496190256
 70
   192
  0
VERTEX
  5
D5D
  8
ŠUPLÍKY
 10
58.49999999999994
 20
-54.99999999999997
 30
320.3921496190256
 70
   192
  0
VERTEX
  5
D5E
  8
ŠUPLÍKY
 10
-146.5000000000001
 20
-55.0
 30
320.3921496190256
 70
   192
  0
VERTEX
  5
D5F
  8
ŠUPLÍKY
 10
-146.5000000000001
 20
-364.5000000000006
 30
320.3921496190256
 70
   192
  0
VERTEX
  5
D60
  8
ŠUPLÍKY
 10
203.5
 20
-364.5000000000005
 30
320.3921496190256
 70
   192
  0
VERTEX
  5
D61
  8
ŠUPLÍKY
 10
203.4999999999998
 20
364.4999999999995
 30
320.3921496190256
 70
   192
  0
VERTEX
  5
D62
  8
ŠUPLÍKY
 10
-146.5000000000002
 20
364.4999999999994
 30
320.3921496190256
 70
   192
  0
VERTEX
  5
D63
  8
ŠUPLÍKY
 10
-146.5000000000001
 20
54.99999999999997
 30
320.3921496190256
 70
   192
  0
VERTEX
  5
D64
  8
ŠUPLÍKY
 10
58.49999999999969
 20
55.00000000000001
 30
320.3921496190256
 70
   192
  0
VERTEX
  5
D65
  8
ŠUPLÍKY
 10
85.9999999999998
 20
47.63139720814423
 30
320.3921496190256
 70
   192
  0
VERTEX
  5
D66
  8
ŠUPLÍKY
 10
106.131397208144
 20
27.50000000000009
 30
320.3921496190256
 70
   192
  0
VERTEX
  5
D67
  8
ŠUPLÍKY
 10
0.0
 20
0.0
 30
0.0
 70
   128
 71
    11
 72
    10
 73
    -9
  0
VERTEX
  5
D68
  8
ŠUPLÍKY
 10
0.0
 20
0.0
 30
0.0
 70
   128
 71
   -11
 72
     9
 73
    -8
  0
VERTEX
  5
D69
  8
ŠUPLÍKY
 10
0.0
 20
0.0
 30
0.0
 70
   128
 71
    -8
 72
    12
 73
   -11
  0
VERTEX
  5
D6A
  8
ŠUPLÍKY
 10
0.0
 20
0.0
 30
0.0
 70
   128
 71
    -8
 72
    13
 73
   -12
  0
VERTEX
  5
D6B
  8
ŠUPLÍKY
 10
0.0
 20
0.0
 30
0.0
 70
   128
 71
    -8
 72
     1
 73
   -13
  0
VERTEX
  5
D6C
  8
ŠUPLÍKY
 10
0.0
 20
0.0
 30
0.0
 70
   128
 71
    -1
 72
     8
 73
    -7
  0
VERTEX
  5
D6D
  8
ŠUPLÍKY
 10
0.0
 20
0.0
 30
0.0
 70
   128
 71
    -7
 72
     2
 73
    -1
  0
VERTEX
  5
D6E
  8
ŠUPLÍKY
 10
0.0
 20
0.0
 30
0.0
 70
   128
 71
    -7
 72
     3
 73
    -2
  0
VERTEX
  5
D6F
  8
ŠUPLÍKY
 10
0.0
 20
0.0
 30
0.0
 70
   128
 71
    -7
 72
     4
 73
    -3
  0
VERTEX
  5
D70
  8
ŠUPLÍKY
 10
0.0
 20
0.0
 30
0.0
 70
   128
 71
     7
 72
     6
 73
    -5
  0
VERTEX
  5
D71
  8
ŠUPLÍKY
 10
0.0
 20
0.0
 30
0.0
 70
   128
 71
    -7
 72
     5
 73
    -4
  0
SEQEND
  5
1504
  8
ŠUPLÍKY
  0
POLYLINE
  5
D72
  8
ŠUPLÍKY
 66
     1
 10
0.0
 20
0.0
 30
0.0
 70
    64
 71
     4
 72
     2
  0
VERTEX
  5
D73
  8
ŠUPLÍKY
 10
203.4999999999999
 20
-364.5000000000005
 30
320.3921496190256
 70
   192
  0
VERTEX
  5
D74
  8
ŠUPLÍKY
 10
-146.5000000000001
 20
-364.5000000000006
 30
320.3921496190256
 70
   192
  0
VERTEX
  5
D75
  8
ŠUPLÍKY
 10
-146.5000000000001
 20
-364.5000000000006
 30
411.3921496190255
 70
   192
  0
VERTEX
  5
D76
  8
ŠUPLÍKY
 10
203.4999999999999
 20
-364.5000000000005
 30
411.3921496190256
 70
   192
  0
VERTEX
  5
D77
  8
ŠUPLÍKY
 10
0.0
 20
0.0
 30
0.0
 70
   128
 71
     1
 72
     4
 73
    -3
  0
VERTEX
  5
D78
  8
ŠUPLÍKY
 10
0.0
 20
0.0
 30
0.0
 70
   128
 71
    -1
 72
     3
 73
     2
  0
SEQEND
  5
1505
  8
ŠUPLÍKY
  0
POLYLINE
  5
D79
  8
ŠUPLÍKY
 66
     1
 10
0.0
 20
0.0
 30
0.0
 70
    64
 71
    26
 72
    26
  0
VERTEX
  5
D7A
  8
ŠUPLÍKY
 10
-146.5000000000002
 20
364.4999999999994
 30
411.3921496190255
 70
   192
  0
VERTEX
  5
D7B
  8
ŠUPLÍKY
 10
203.4999999999998
 20
364.4999999999995
 30
411.3921496190256
 70
   192
  0
VERTEX
  5
D7C
  8
ŠUPLÍKY
 10
203.4999999999999
 20
-364.5000000000005
 30
411.3921496190256
 70
   192
  0
VERTEX
  5
D7D
  8
ŠUPLÍKY
 10
-146.5000000000001
 20
-364.5000000000006
 30
411.3921496190255
 70
   192
  0
VERTEX
  5
D7E
  8
ŠUPLÍKY
 10
-146.5000000000001
 20
-55.00000000000004
 30
411.3921496190255
 70
   192
  0
VERTEX
  5
D7F
  8
ŠUPLÍKY
 10
58.49999999999967
 20
-54.99999999999997
 30
411.3921496190261
 70
   192
  0
VERTEX
  5
D80
  8
ŠUPLÍKY
 10
85.99999999999979
 20
-47.63139720814418
 30
411.3921496190261
 70
   192
  0
VERTEX
  5
D81
  8
ŠUPLÍKY
 10
106.131397208144
 20
-27.50000000000005
 30
411.3921496190261
 70
   192
  0
VERTEX
  5
D82
  8
ŠUPLÍKY
 10
113.4999999999999
 20
0.0000000000000308
 30
411.3921496190261
 70
   192
  0
VERTEX
  5
D83
  8
ŠUPLÍKY
 10
106.131397208144
 20
27.50000000000002
 30
411.3921496190261
 70
   192
  0
VERTEX
  5
D84
  8
ŠUPLÍKY
 10
85.99999999999991
 20
47.63139720814414
 30
411.3921496190261
 70
   192
  0
VERTEX
  5
D85
  8
ŠUPLÍKY
 10
58.49999999999991
 20
55.00000000000001
 30
411.3921496190256
 70
   192
  0
VERTEX
  5
D86
  8
ŠUPLÍKY
 10
-146.5000000000001
 20
55.0
 30
411.3921496190255
 70
   192
  0
VERTEX
  5
D87
  8
ŠUPLÍKY
 10
58.49999999999991
 20
70.00000000000003
 30
411.3921496190262
 70
   192
  0
VERTEX
  5
D88
  8
ŠUPLÍKY
 10
93.49999999999994
 20
60.62177826491072
 30
411.3921496190262
 70
   192
  0
VERTEX
  5
D89
  8
ŠUPLÍKY
 10
119.1217782649106
 20
35.00000000000001
 30
411.3921496190262
 70
   192
  0
VERTEX
  5
D8A
  8
ŠUPLÍKY
 10
128.4999999999999
 20
0.0000000000000059
 30
411.3921496190262
 70
   192
  0
VERTEX
  5
D8B
  8
ŠUPLÍKY
 10
119.1217782649106
 20
-35.00000000000005
 30
411.3921496190262
 70
   192
  0
VERTEX
  5
D8C
  8
ŠUPLÍKY
 10
93.49999999999979
 20
-60.62177826491076
 30
411.3921496190262
 70
   192
  0
VERTEX
  5
D8D
  8
ŠUPLÍKY
 10
58.49999999999969
 20
-69.99999999999997
 30
411.3921496190256
 70
   192
  0
VERTEX
  5
D8E
  8
ŠUPLÍKY
 10
-131.5000000000001
 20
-70.00000000000017
 30
411.3921496190255
 70
   192
  0
VERTEX
  5
D8F
  8
ŠUPLÍKY
 10
-131.5
 20
-349.5000000000005
 30
411.3921496190255
 70
   192
  0
VERTEX
  5
D90
  8
ŠUPLÍKY
 10
188.5
 20
-349.5000000000005
 30
411.3921496190256
 70
   192
  0
VERTEX
  5
D91
  8
ŠUPLÍKY
 10
188.4999999999998
 20
349.4999999999995
 30
411.3921496190256
 70
   192
  0
VERTEX
  5
D92
  8
ŠUPLÍKY
 10
-131.5000000000001
 20
349.4999999999994
 30
411.3921496190255
 70
   192
  0
VERTEX
  5
D93
  8
ŠUPLÍKY
 10
-131.5000000000001
 20
69.99999999999997
 30
411.3921496190256
 70
   192
  0
VERTEX
  5
D94
  8
ŠUPLÍKY
 10
0.0
 20
0.0
 30
0.0
 70
   128
 71
    21
 72
    20
 73
   -19
  0
VERTEX
  5
D95
  8
ŠUPLÍKY
 10
0.0
 20
0.0
 30
0.0
 70
   128
 71
   -21
 72
   -19
 73
    -6
  0
VERTEX
  5
D96
  8
ŠUPLÍKY
 10
0.0
 20
0.0
 30
0.0
 70
   128
 71
   -21
 72
     6
 73
    -5
  0
VERTEX
  5
D97
  8
ŠUPLÍKY
 10
0.0
 20
0.0
 30
0.0
 70
   128
 71
     5
 72
    -4
 73
   -22
  0
VERTEX
  5
D98
  8
ŠUPLÍKY
 10
0.0
 20
0.0
 30
0.0
 70
   128
 71
    -5
 72
    22
 73
   -21
  0
VERTEX
  5
D99
  8
ŠUPLÍKY
 10
0.0
 20
0.0
 30
0.0
 70
   128
 71
     4
 72
    -3
 73
   -23
  0
VERTEX
  5
D9A
  8
ŠUPLÍKY
 10
0.0
 20
0.0
 30
0.0
 70
   128
 71
    -4
 72
    23
 73
   -22
  0
VERTEX
  5
D9B
  8
ŠUPLÍKY
 10
0.0
 20
0.0
 30
0.0
 70
   128
 71
     3
 72
    -2
 73
   -24
  0
VERTEX
  5
D9C
  8
ŠUPLÍKY
 10
0.0
 20
0.0
 30
0.0
 70
   128
 71
    -3
 72
    24
 73
   -23
  0
VERTEX
  5
D9D
  8
ŠUPLÍKY
 10
0.0
 20
0.0
 30
0.0
 70
   128
 71
     2
 72
    -1
 73
   -25
  0
VERTEX
  5
D9E
  8
ŠUPLÍKY
 10
0.0
 20
0.0
 30
0.0
 70
   128
 71
    -2
 72
    25
 73
   -24
  0
VERTEX
  5
D9F
  8
ŠUPLÍKY
 10
0.0
 20
0.0
 30
0.0
 70
   128
 71
     1
 72
   -13
 73
   -26
  0
VERTEX
  5
DA0
  8
ŠUPLÍKY
 10
0.0
 20
0.0
 30
0.0
 70
   128
 71
    -1
 72
    26
 73
   -25
  0
VERTEX
  5
DA1
  8
ŠUPLÍKY
 10
0.0
 20
0.0
 30
0.0
 70
   128
 71
   -19
 72
     7
 73
    -6
  0
VERTEX
  5
DA2
  8
ŠUPLÍKY
 10
0.0
 20
0.0
 30
0.0
 70
   128
 71
    19
 72
   -18
 73
    -8
  0
VERTEX
  5
DA3
  8
ŠUPLÍKY
 10
0.0
 20
0.0
 30
0.0
 70
   128
 71
   -19
 72
     8
 73
    -7
  0
VERTEX
  5
DA4
  8
ŠUPLÍKY
 10
0.0
 20
0.0
 30
0.0
 70
   128
 71
    18
 72
   -17
 73
    -9
  0
VERTEX
  5
DA5
  8
ŠUPLÍKY
 10
0.0
 20
0.0
 30
0.0
 70
   128
 71
   -18
 72
     9
 73
    -8
  0
VERTEX
  5
DA6
  8
ŠUPLÍKY
 10
0.0
 20
0.0
 30
0.0
 70
   128
 71
    17
 72
   -16
 73
   -10
  0
VERTEX
  5
DA7
  8
ŠUPLÍKY
 10
0.0
 20
0.0
 30
0.0
 70
   128
 71
   -17
 72
    10
 73
    -9
  0
VERTEX
  5
DA8
  8
ŠUPLÍKY
 10
0.0
 20
0.0
 30
0.0
 70
   128
 71
    16
 72
   -15
 73
   -11
  0
VERTEX
  5
DA9
  8
ŠUPLÍKY
 10
0.0
 20
0.0
 30
0.0
 70
   128
 71
   -16
 72
    11
 73
   -10
  0
VERTEX
  5
DAA
  8
ŠUPLÍKY
 10
0.0
 20
0.0
 30
0.0
 70
   128
 71
   -15
 72
    12
 73
   -11
  0
VERTEX
  5
DAB
  8
ŠUPLÍKY
 10
0.0
 20
0.0
 30
0.0
 70
   128
 71
    15
 72
    14
 73
   -26
  0
VERTEX
  5
DAC
  8
ŠUPLÍKY
 10
0.0
 20
0.0
 30
0.0
 70
   128
 71
   -15
 72
   -26
 73
   -13
  0
VERTEX
  5
DAD
  8
ŠUPLÍKY
 10
0.0
 20
0.0
 30
0.0
 70
   128
 71
   -15
 72
    13
 73
   -12
  0
SEQEND
  5
1506
  8
ŠUPLÍKY
  0
POLYLINE
  5
DAE
  8
ŠUPLÍKY
 66
     1
 10
0.0
 20
0.0
 30
0.0
 70
    64
 71
     4
 72
     2
  0
VERTEX
  5
DAF
  8
ŠUPLÍKY
 10
-146.5000000000001
 20
-364.5000000000006
 30
411.3921496190255
 70
   192
  0
VERTEX
  5
DB0
  8
ŠUPLÍKY
 10
-146.5000000000001
 20
-364.5000000000006
 30
320.3921496190256
 70
   192
  0
VERTEX
  5
DB1
  8
ŠUPLÍKY
 10
-146.5000000000001
 20
-55.00000000000004
 30
320.3921496190256
 70
   192
  0
VERTEX
  5
DB2
  8
ŠUPLÍKY
 10
-146.5000000000001
 20
-55.00000000000006
 30
411.3921496190255
 70
   192
  0
VERTEX
  5
DB3
  8
ŠUPLÍKY
 10
0.0
 20
0.0
 30
0.0
 70
   128
 71
     1
 72
     4
 73
    -3
  0
VERTEX
  5
DB4
  8
ŠUPLÍKY
 10
0.0
 20
0.0
 30
0.0
 70
   128
 71
    -1
 72
     3
 73
     2
  0
SEQEND
  5
1507
  8
ŠUPLÍKY
  0
POLYLINE
  5
DB5
  8
ŠUPLÍKY
 66
     1
 10
0.0
 20
0.0
 30
0.0
 70
    64
 71
     4
 72
     2
  0
VERTEX
  5
DB6
  8
ŠUPLÍKY
 10
203.4999999999999
 20
364.4999999999995
 30
320.3921496190256
 70
   192
  0
VERTEX
  5
DB7
  8
ŠUPLÍKY
 10
203.4999999999998
 20
364.4999999999995
 30
411.3921496190256
 70
   192
  0
VERTEX
  5
DB8
  8
ŠUPLÍKY
 10
203.4999999999999
 20
-364.5000000000005
 30
411.3921496190256
 70
   192
  0
VERTEX
  5
DB9
  8
ŠUPLÍKY
 10
203.5
 20
-364.5000000000005
 30
320.3921496190256
 70
   192
  0
VERTEX
  5
DBA
  8
ŠUPLÍKY
 10
0.0
 20
0.0
 30
0.0
 70
   128
 71
     3
 72
     4
 73
    -1
  0
VERTEX
  5
DBB
  8
ŠUPLÍKY
 10
0.0
 20
0.0
 30
0.0
 70
   128
 71
     2
 72
    -3
 73
     1
  0
SEQEND
  5
1508
  8
ŠUPLÍKY
  0
POLYLINE
  5
DBC
  8
ŠUPLÍKY
 66
     1
 10
0.0
 20
0.0
 30
0.0
 70
    64
 71
     4
 72
     2
  0
VERTEX
  5
DBD
  8
ŠUPLÍKY
 10
-146.5000000000001
 20
54.99999999999997
 30
320.3921496190256
 70
   192
  0
VERTEX
  5
DBE
  8
ŠUPLÍKY
 10
-146.5000000000001
 20
54.99999999999997
 30
411.3921496190255
 70
   192
  0
VERTEX
  5
DBF
  8
ŠUPLÍKY
 10
58.49999999999964
 20
55.00000000000009
 30
411.3921496190261
 70
   192
  0
VERTEX
  5
DC0
  8
ŠUPLÍKY
 10
58.49999999999969
 20
55.00000000000001
 30
320.3921496190256
 70
   192
  0
VERTEX
  5
DC1
  8
ŠUPLÍKY
 10
0.0
 20
0.0
 30
0.0
 70
   128
 71
     1
 72
     4
 73
    -3
  0
VERTEX
  5
DC2
  8
ŠUPLÍKY
 10
0.0
 20
0.0
 30
0.0
 70
   128
 71
    -1
 72
     3
 73
     2
  0
SEQEND
  5
1509
  8
ŠUPLÍKY
  0
POLYLINE
  5
DC3
  8
ŠUPLÍKY
 66
     1
 10
0.0
 20
0.0
 30
0.0
 70
    64
 71
     8
 72
     6
  0
VERTEX
  5
DC4
  8
ŠUPLÍKY
 10
106.1313972081441
 20
-27.49999999999996
 30
320.3921496190256
 70
   192
  0
VERTEX
  5
DC5
  8
ŠUPLÍKY
 10
85.99999999999996
 20
-47.63139720814409
 30
320.3921496190256
 70
   192
  0
VERTEX
  5
DC6
  8
ŠUPLÍKY
 10
85.99999999999979
 20
-47.63139720814418
 30
411.3921496190261
 70
   192
  0
VERTEX
  5
DC7
  8
ŠUPLÍKY
 10
106.131397208144
 20
-27.50000000000005
 30
411.3921496190261
 70
   192
  0
VERTEX
  5
DC8
  8
ŠUPLÍKY
 10
58.49999999999996
 20
-54.99999999999997
 30
320.3921496190256
 70
   192
  0
VERTEX
  5
DC9
  8
ŠUPLÍKY
 10
58.49999999999993
 20
-54.9999999999999
 30
411.3921496190261
 70
   192
  0
VERTEX
  5
DCA
  8
ŠUPLÍKY
 10
113.4999999999999
 20
0.0000000000000308
 30
320.3921496190256
 70
   192
  0
VERTEX
  5
DCB
  8
ŠUPLÍKY
 10
113.4999999999999
 20
0.0000000000000308
 30
411.3921496190261
 70
   192
  0
VERTEX
  5
DCC
  8
ŠUPLÍKY
 10
0.0
 20
0.0
 30
0.0
 70
   128
 71
     1
 72
     2
 73
    -3
  0
VERTEX
  5
DCD
  8
ŠUPLÍKY
 10
0.0
 20
0.0
 30
0.0
 70
   128
 71
     4
 72
    -1
 73
     3
  0
VERTEX
  5
DCE
  8
ŠUPLÍKY
 10
0.0
 20
0.0
 30
0.0
 70
   128
 71
     2
 72
     5
 73
    -6
  0
VERTEX
  5
DCF
  8
ŠUPLÍKY
 10
0.0
 20
0.0
 30
0.0
 70
   128
 71
     3
 72
    -2
 73
     6
  0
VERTEX
  5
DD0
  8
ŠUPLÍKY
 10
0.0
 20
0.0
 30
0.0
 70
   128
 71
     7
 72
     1
 73
    -4
  0
VERTEX
  5
DD1
  8
ŠUPLÍKY
 10
0.0
 20
0.0
 30
0.0
 70
   128
 71
     8
 72
    -7
 73
     4
  0
SEQEND
  5
150A
  8
ŠUPLÍKY
  0
POLYLINE
  5
DD2
  8
ŠUPLÍKY
 66
     1
 10
0.0
 20
0.0
 30
0.0
 70
    64
 71
     4
 72
     2
  0
VERTEX
  5
DD3
  8
ŠUPLÍKY
 10
58.49999999999994
 20
-54.9999999999999
 30
320.3921496190256
 70
   192
  0
VERTEX
  5
DD4
  8
ŠUPLÍKY
 10
58.49999999999969
 20
-54.99999999999997
 30
411.3921496190256
 70
   192
  0
VERTEX
  5
DD5
  8
ŠUPLÍKY
 10
-146.5000000000001
 20
-55.00000000000004
 30
411.3921496190255
 70
   192
  0
VERTEX
  5
DD6
  8
ŠUPLÍKY
 10
-146.5000000000001
 20
-55.00000000000004
 30
320.3921496190256
 70
   192
  0
VERTEX
  5
DD7
  8
ŠUPLÍKY
 10
0.0
 20
0.0
 30
0.0
 70
   128
 71
     1
 72
     4
 73
    -3
  0
VERTEX
  5
DD8
  8
ŠUPLÍKY
 10
0.0
 20
0.0
 30
0.0
 70
   128
 71
    -1
 72
     3
 73
     2
  0
SEQEND
  5
150B
  8
ŠUPLÍKY
  0
POLYLINE
  5
DD9
  8
ŠUPLÍKY
 66
     1
 10
0.0
 20
0.0
 30
0.0
 70
    64
 71
     4
 72
     2
  0
VERTEX
  5
DDA
  8
ŠUPLÍKY
 10
-131.5000000000001
 20
69.99999999999984
 30
335.3921496190256
 70
   192
  0
VERTEX
  5
DDB
  8
ŠUPLÍKY
 10
-131.5000000000001
 20
349.4999999999994
 30
335.3921496190256
 70
   192
  0
VERTEX
  5
DDC
  8
ŠUPLÍKY
 10
-131.5000000000001
 20
349.4999999999994
 30
411.3921496190255
 70
   192
  0
VERTEX
  5
DDD
  8
ŠUPLÍKY
 10
-131.5000000000001
 20
69.99999999999984
 30
411.3921496190255
 70
   192
  0
VERTEX
  5
DDE
  8
ŠUPLÍKY
 10
0.0
 20
0.0
 30
0.0
 70
   128
 71
     3
 72
     4
 73
    -1
  0
VERTEX
  5
DDF
  8
ŠUPLÍKY
 10
0.0
 20
0.0
 30
0.0
 70
   128
 71
     2
 72
    -3
 73
     1
  0
SEQEND
  5
150C
  8
ŠUPLÍKY
  0
POLYLINE
  5
DE0
  8
ŠUPLÍKY
 66
     1
 10
0.0
 20
0.0
 30
0.0
 70
    64
 71
     4
 72
     2
  0
VERTEX
  5
DE1
  8
ŠUPLÍKY
 10
188.4999999999999
 20
349.4999999999995
 30
335.3921496190256
 70
   192
  0
VERTEX
  5
DE2
  8
ŠUPLÍKY
 10
188.4999999999999
 20
349.4999999999995
 30
411.3921496190256
 70
   192
  0
VERTEX
  5
DE3
  8
ŠUPLÍKY
 10
-131.5000000000001
 20
349.4999999999994
 30
411.3921496190255
 70
   192
  0
VERTEX
  5
DE4
  8
ŠUPLÍKY
 10
-131.5000000000001
 20
349.4999999999994
 30
335.3921496190256
 70
   192
  0
VERTEX
  5
DE5
  8
ŠUPLÍKY
 10
0.0
 20
0.0
 30
0.0
 70
   128
 71
     3
 72
     4
 73
    -1
  0
VERTEX
  5
DE6
  8
ŠUPLÍKY
 10
0.0
 20
0.0
 30
0.0
 70
   128
 71
     2
 72
    -3
 73
     1
  0
SEQEND
  5
150D
  8
ŠUPLÍKY
  0
POLYLINE
  5
DE7
  8
ŠUPLÍKY
 66
     1
 10
0.0
 20
0.0
 30
0.0
 70
    64
 71
    13
 72
    11
  0
VERTEX
  5
DE8
  8
ŠUPLÍKY
 10
58.49999999999992
 20
70.00000000000001
 30
335.3921496190256
 70
   192
  0
VERTEX
  5
DE9
  8
ŠUPLÍKY
 10
93.49999999999994
 20
60.62177826491072
 30
335.3921496190256
 70
   192
  0
VERTEX
  5
DEA
  8
ŠUPLÍKY
 10
119.1217782649106
 20
35.00000000000005
 30
335.3921496190256
 70
   192
  0
VERTEX
  5
DEB
  8
ŠUPLÍKY
 10
128.4999999999999
 20
0.0000000000000502
 30
335.3921496190256
 70
   192
  0
VERTEX
  5
DEC
  8
ŠUPLÍKY
 10
119.1217782649106
 20
-34.99999999999996
 30
335.3921496190256
 70
   192
  0
VERTEX
  5
DED
  8
ŠUPLÍKY
 10
93.49999999999994
 20
-60.62177826491066
 30
335.3921496190256
 70
   192
  0
VERTEX
  5
DEE
  8
ŠUPLÍKY
 10
58.49999999999996
 20
-69.99999999999996
 30
335.3921496190256
 70
   192
  0
VERTEX
  5
DEF
  8
ŠUPLÍKY
 10
-131.5000000000001
 20
-70.00000000000004
 30
335.3921496190256
 70
   192
  0
VERTEX
  5
DF0
  8
ŠUPLÍKY
 10
-131.5
 20
-349.5000000000005
 30
335.3921496190256
 70
   192
  0
VERTEX
  5
DF1
  8
ŠUPLÍKY
 10
188.4999999999997
 20
-349.5000000000005
 30
335.3921496190256
 70
   192
  0
VERTEX
  5
DF2
  8
ŠUPLÍKY
 10
188.4999999999998
 20
349.4999999999995
 30
335.3921496190256
 70
   192
  0
VERTEX
  5
DF3
  8
ŠUPLÍKY
 10
-131.5000000000001
 20
349.4999999999994
 30
335.3921496190256
 70
   192
  0
VERTEX
  5
DF4
  8
ŠUPLÍKY
 10
-131.5000000000001
 20
69.99999999999984
 30
335.3921496190256
 70
   192
  0
VERTEX
  5
DF5
  8
ŠUPLÍKY
 10
0.0
 20
0.0
 30
0.0
 70
   128
 71
    12
 72
    13
 73
    -1
  0
VERTEX
  5
DF6
  8
ŠUPLÍKY
 10
0.0
 20
0.0
 30
0.0
 70
   128
 71
    11
 72
   -12
 73
    -1
  0
VERTEX
  5
DF7
  8
ŠUPLÍKY
 10
0.0
 20
0.0
 30
0.0
 70
   128
 71
   -11
 72
     1
 73
    -2
  0
VERTEX
  5
DF8
  8
ŠUPLÍKY
 10
0.0
 20
0.0
 30
0.0
 70
   128
 71
     2
 72
    -3
 73
   -11
  0
VERTEX
  5
DF9
  8
ŠUPLÍKY
 10
0.0
 20
0.0
 30
0.0
 70
   128
 71
     3
 72
    -4
 73
   -11
  0
VERTEX
  5
DFA
  8
ŠUPLÍKY
 10
0.0
 20
0.0
 30
0.0
 70
   128
 71
    10
 72
   -11
 73
    -4
  0
VERTEX
  5
DFB
  8
ŠUPLÍKY
 10
0.0
 20
0.0
 30
0.0
 70
   128
 71
     4
 72
    -5
 73
   -10
  0
VERTEX
  5
DFC
  8
ŠUPLÍKY
 10
0.0
 20
0.0
 30
0.0
 70
   128
 71
     5
 72
    -6
 73
   -10
  0
VERTEX
  5
DFD
  8
ŠUPLÍKY
 10
0.0
 20
0.0
 30
0.0
 70
   128
 71
     6
 72
    -7
 73
   -10
  0
VERTEX
  5
DFE
  8
ŠUPLÍKY
 10
0.0
 20
0.0
 30
0.0
 70
   128
 71
     8
 72
     9
 73
   -10
  0
VERTEX
  5
DFF
  8
ŠUPLÍKY
 10
0.0
 20
0.0
 30
0.0
 70
   128
 71
     7
 72
    -8
 73
   -10
  0
SEQEND
  5
150E
  8
ŠUPLÍKY
  0
POLYLINE
  5
E00
  8
ŠUPLÍKY
 66
     1
 10
0.0
 20
0.0
 30
0.0
 70
    64
 71
     4
 72
     2
  0
VERTEX
  5
E01
  8
ŠUPLÍKY
 10
188.4999999999999
 20
-349.5000000000005
 30
411.3921496190256
 70
   192
  0
VERTEX
  5
E02
  8
ŠUPLÍKY
 10
188.4999999999999
 20
-349.5000000000005
 30
335.3921496190256
 70
   192
  0
VERTEX
  5
E03
  8
ŠUPLÍKY
 10
-131.5
 20
-349.5000000000005
 30
335.3921496190256
 70
   192
  0
VERTEX
  5
E04
  8
ŠUPLÍKY
 10
-131.5
 20
-349.5000000000005
 30
411.3921496190255
 70
   192
  0
VERTEX
  5
E05
  8
ŠUPLÍKY
 10
0.0
 20
0.0
 30
0.0
 70
   128
 71
     3
 72
     4
 73
    -1
  0
VERTEX
  5
E06
  8
ŠUPLÍKY
 10
0.0
 20
0.0
 30
0.0
 70
   128
 71
     2
 72
    -3
 73
     1
  0
SEQEND
  5
150F
  8
ŠUPLÍKY
  0
POLYLINE
  5
E07
  8
ŠUPLÍKY
 66
     1
 10
0.0
 20
0.0
 30
0.0
 70
    64
 71
     4
 72
     2
  0
VERTEX
  5
E08
  8
ŠUPLÍKY
 10
-131.5000000000001
 20
-70.00000000000017
 30
411.3921496190255
 70
   192
  0
VERTEX
  5
E09
  8
ŠUPLÍKY
 10
-131.5
 20
-349.5000000000005
 30
411.3921496190255
 70
   192
  0
VERTEX
  5
E0A
  8
ŠUPLÍKY
 10
-131.5
 20
-349.5000000000005
 30
335.3921496190256
 70
   192
  0
VERTEX
  5
E0B
  8
ŠUPLÍKY
 10
-131.5000000000001
 20
-70.00000000000017
 30
335.3921496190256
 70
   192
  0
VERTEX
  5
E0C
  8
ŠUPLÍKY
 10
0.0
 20
0.0
 30
0.0
 70
   128
 71
     3
 72
     4
 73
    -1
  0
VERTEX
  5
E0D
  8
ŠUPLÍKY
 10
0.0
 20
0.0
 30
0.0
 70
   128
 71
     2
 72
    -3
 73
     1
  0
SEQEND
  5
1510
  8
ŠUPLÍKY
  0
POLYLINE
  5
E0E
  8
ŠUPLÍKY
 66
     1
 10
0.0
 20
0.0
 30
0.0
 70
    64
 71
     4
 72
     2
  0
VERTEX
  5
E0F
  8
ŠUPLÍKY
 10
188.4999999999999
 20
349.4999999999995
 30
411.3921496190256
 70
   192
  0
VERTEX
  5
E10
  8
ŠUPLÍKY
 10
188.4999999999999
 20
-349.5000000000005
 30
411.3921496190256
 70
   192
  0
VERTEX
  5
E11
  8
ŠUPLÍKY
 10
188.4999999999999
 20
-349.5000000000005
 30
335.3921496190256
 70
   192
  0
VERTEX
  5
E12
  8
ŠUPLÍKY
 10
188.4999999999999
 20
349.4999999999995
 30
335.3921496190256
 70
   192
  0
VERTEX
  5
E13
  8
ŠUPLÍKY
 10
0.0
 20
0.0
 30
0.0
 70
   128
 71
     1
 72
     4
 73
    -3
  0
VERTEX
  5
E14
  8
ŠUPLÍKY
 10
0.0
 20
0.0
 30
0.0
 70
   128
 71
    -1
 72
     3
 73
     2
  0
SEQEND
  5
1511
  8
ŠUPLÍKY
  0
POLYLINE
  5
E15
  8
ŠUPLÍKY
 66
     1
 10
0.0
 20
0.0
 30
0.0
 70
    64
 71
     4
 72
     2
  0
VERTEX
  5
E16
  8
ŠUPLÍKY
 10
58.49999999999991
 20
70.00000000000001
 30
335.3921496190256
 70
   192
  0
VERTEX
  5
E17
  8
ŠUPLÍKY
 10
-131.5000000000001
 20
69.99999999999997
 30
335.3921496190256
 70
   192
  0
VERTEX
  5
E18
  8
ŠUPLÍKY
 10
-131.5000000000001
 20
69.99999999999984
 30
411.3921496190255
 70
   192
  0
VERTEX
  5
E19
  8
ŠUPLÍKY
 10
58.49999999999991
 20
70.00000000000001
 30
411.3921496190256
 70
   192
  0
VERTEX
  5
E1A
  8
ŠUPLÍKY
 10
0.0
 20
0.0
 30
0.0
 70
   128
 71
     3
 72
     4
 73
    -1
  0
VERTEX
  5
E1B
  8
ŠUPLÍKY
 10
0.0
 20
0.0
 30
0.0
 70
   128
 71
     2
 72
    -3
 73
     1
  0
SEQEND
  5
1512
  8
ŠUPLÍKY
  0
POLYLINE
  5
E1C
  8
ŠUPLÍKY
 66
     1
 10
0.0
 20
0.0
 30
0.0
 70
    64
 71
     8
 72
     6
  0
VERTEX
  5
E1D
  8
ŠUPLÍKY
 10
119.1217782649106
 20
35.00000000000001
 30
411.3921496190262
 70
   192
  0
VERTEX
  5
E1E
  8
ŠUPLÍKY
 10
119.1217782649106
 20
35.00000000000005
 30
335.3921496190256
 70
   192
  0
VERTEX
  5
E1F
  8
ŠUPLÍKY
 10
93.49999999999994
 20
60.62177826491072
 30
335.3921496190256
 70
   192
  0
VERTEX
  5
E20
  8
ŠUPLÍKY
 10
93.49999999999994
 20
60.62177826491072
 30
411.3921496190262
 70
   192
  0
VERTEX
  5
E21
  8
ŠUPLÍKY
 10
128.4999999999999
 20
0.0000000000000245
 30
411.3921496190262
 70
   192
  0
VERTEX
  5
E22
  8
ŠUPLÍKY
 10
128.4999999999999
 20
0.0000000000000331
 30
335.3921496190257
 70
   192
  0
VERTEX
  5
E23
  8
ŠUPLÍKY
 10
58.49999999999992
 20
70.00000000000001
 30
335.3921496190256
 70
   192
  0
VERTEX
  5
E24
  8
ŠUPLÍKY
 10
58.4999999999999
 20
69.99999999999989
 30
411.3921496190262
 70
   192
  0
VERTEX
  5
E25
  8
ŠUPLÍKY
 10
0.0
 20
0.0
 30
0.0
 70
   128
 71
     1
 72
     2
 73
    -3
  0
VERTEX
  5
E26
  8
ŠUPLÍKY
 10
0.0
 20
0.0
 30
0.0
 70
   128
 71
    -1
 72
     3
 73
     4
  0
VERTEX
  5
E27
  8
ŠUPLÍKY
 10
0.0
 20
0.0
 30
0.0
 70
   128
 71
     5
 72
     6
 73
    -2
  0
VERTEX
  5
E28
  8
ŠUPLÍKY
 10
0.0
 20
0.0
 30
0.0
 70
   128
 71
    -5
 72
     2
 73
     1
  0
VERTEX
  5
E29
  8
ŠUPLÍKY
 10
0.0
 20
0.0
 30
0.0
 70
   128
 71
     4
 72
     3
 73
    -7
  0
VERTEX
  5
E2A
  8
ŠUPLÍKY
 10
0.0
 20
0.0
 30
0.0
 70
   128
 71
    -4
 72
     7
 73
     8
  0
SEQEND
  5
1513
  8
ŠUPLÍKY
  0
POLYLINE
  5
E2B
  8
ŠUPLÍKY
 66
     1
 10
0.0
 20
0.0
 30
0.0
 70
    64
 71
     4
 72
     2
  0
VERTEX
  5
E2C
  8
ŠUPLÍKY
 10
-131.5000000000001
 20
-70.00000000000004
 30
335.3921496190256
 70
   192
  0
VERTEX
  5
E2D
  8
ŠUPLÍKY
 10
58.49999999999994
 20
-69.99999999999997
 30
335.3921496190256
 70
   192
  0
VERTEX
  5
E2E
  8
ŠUPLÍKY
 10
58.49999999999993
 20
-70.0000000000001
 30
411.3921496190262
 70
   192
  0
VERTEX
  5
E2F
  8
ŠUPLÍKY
 10
-131.5000000000001
 20
-70.00000000000004
 30
411.3921496190256
 70
   192
  0
VERTEX
  5
E30
  8
ŠUPLÍKY
 10
0.0
 20
0.0
 30
0.0
 70
   128
 71
     3
 72
     4
 73
    -1
  0
VERTEX
  5
E31
  8
ŠUPLÍKY
 10
0.0
 20
0.0
 30
0.0
 70
   128
 71
     2
 72
    -3
 73
     1
  0
SEQEND
  5
1514
  8
ŠUPLÍKY
  0
ENDBLK
  5
14FF
  8
0
  0
BLOCK
  8
0
  2
*X9
 70
     1
 10
0.0
 20
0.0
 30
0.0
  3
*X9
  1

  0
POLYLINE
  5
E33
  8
UMYVADLO
 66
     1
 10
0.0
 20
0.0
 30
0.0
 70
    64
 71
     9
 72
     7
  0
VERTEX
  5
E34
  8
UMYVADLO
 10
-107.5000000000062
 20
-8.838834764832686
 30
576.1611652351659
 70
   192
  0
VERTEX
  5
E35
  8
UMYVADLO
 10
-107.5000000000063
 20
-12.50000000000075
 30
584.9999999999977
 70
   192
  0
VERTEX
  5
E36
  8
UMYVADLO
 10
-76.83563075017834
 20
-10.83591115858684
 30
578.7683701262605
 70
   192
  0
VERTEX
  5
E37
  8
UMYVADLO
 10
-107.5000000000064
 20
-0.0000000000007616
 30
597.4999999999976
 70
   192
  0
VERTEX
  5
E38
  8
UMYVADLO
 10
-79.52828758088518
 20
-0.0000000000010259
 30
597.4999999999978
 70
   192
  0
VERTEX
  5
E39
  8
UMYVADLO
 10
-107.5000000000064
 20
-8.838834764832573
 30
593.8388347648295
 70
   192
  0
VERTEX
  5
E3A
  8
UMYVADLO
 10
-75.86941560304106
 20
-0.0000000000010981
 30
572.499999999998
 70
   192
  0
VERTEX
  5
E3B
  8
UMYVADLO
 10
-107.5000000000061
 20
-0.0000000000007566
 30
572.4999999999976
 70
   192
  0
VERTEX
  5
E3C
  8
UMYVADLO
 10
-78.65279471719364
 20
-10.8432619474171
 30
591.2187688545822
 70
   192
  0
VERTEX
  5
E3D
  8
UMYVADLO
 10
0.0
 20
0.0
 30
0.0
 70
   128
 71
     1
 72
     2
 73
     3
  0
VERTEX
  5
E3E
  8
UMYVADLO
 10
0.0
 20
0.0
 30
0.0
 70
   128
 71
     4
 72
     5
 73
     6
  0
VERTEX
  5
E3F
  8
UMYVADLO
 10
0.0
 20
0.0
 30
0.0
 70
   128
 71
     3
 72
     7
 73
     8
  0
VERTEX
  5
E40
  8
UMYVADLO
 10
0.0
 20
0.0
 30
0.0
 70
   128
 71
     1
 72
     3
 73
     8
  0
VERTEX
  5
E41
  8
UMYVADLO
 10
0.0
 20
0.0
 30
0.0
 70
   128
 71
     6
 72
     9
 73
     3
  0
VERTEX
  5
E42
  8
UMYVADLO
 10
0.0
 20
0.0
 30
0.0
 70
   128
 71
     2
 72
     6
 73
     3
  0
VERTEX
  5
E43
  8
UMYVADLO
 10
0.0
 20
0.0
 30
0.0
 70
   128
 71
     6
 72
     5
 73
     9
  0
SEQEND
  5
1517
  8
UMYVADLO
  0
POLYLINE
  5
E44
  8
UMYVADLO
 66
     1
 10
0.0
 20
0.0
 30
0.0
 70
    64
 71
    10
 72
     8
  0
VERTEX
  5
E45
  8
UMYVADLO
 10
49.99999999999739
 20
-0.0000000000021191
 30
509.9999999999999
 70
   192
  0
VERTEX
  5
E46
  8
UMYVADLO
 10
94.99999999999739
 20
-0.0000000000021243
 30
509.9999999999999
 70
   192
  0
VERTEX
  5
E47
  8
UMYVADLO
 10
112.4999999999979
 20
-0.0000000000021218
 30
520.0000000000001
 70
   192
  0
VERTEX
  5
E48
  8
UMYVADLO
 10
32.49999999999695
 20
-0.0000000000021169
 30
520.0000000000001
 70
   192
  0
VERTEX
  5
E49
  8
UMYVADLO
 10
72.49999999999739
 20
-40.00000000000261
 30
520.0000000000001
 70
   192
  0
VERTEX
  5
E4A
  8
UMYVADLO
 10
72.49999999999739
 20
-22.50000000000212
 30
509.9999999999999
 70
   192
  0
VERTEX
  5
E4B
  8
UMYVADLO
 10
44.21572875253514
 20
-28.28427124746437
 30
520.0000000000001
 70
   192
  0
VERTEX
  5
E4C
  8
UMYVADLO
 10
56.59009742330007
 20
-15.90990257669944
 30
509.9999999999999
 70
   192
  0
VERTEX
  5
E4D
  8
UMYVADLO
 10
100.7842712474596
 20
-28.28427124746436
 30
520.0000000000001
 70
   192
  0
VERTEX
  5
E4E
  8
UMYVADLO
 10
88.4099025766947
 20
-15.90990257669944
 30
509.9999999999999
 70
   192
  0
VERTEX
  5
E4F
  8
UMYVADLO
 10
0.0
 20
0.0
 30
0.0
 70
   128
 71
     8
 72
     1
 73
    -4
  0
VERTEX
  5
E50
  8
UMYVADLO
 10
0.0
 20
0.0
 30
0.0
 70
   128
 71
     7
 72
    -8
 73
     4
  0
VERTEX
  5
E51
  8
UMYVADLO
 10
0.0
 20
0.0
 30
0.0
 70
   128
 71
     6
 72
     8
 73
    -7
  0
VERTEX
  5
E52
  8
UMYVADLO
 10
0.0
 20
0.0
 30
0.0
 70
   128
 71
     5
 72
    -6
 73
     7
  0
VERTEX
  5
E53
  8
UMYVADLO
 10
0.0
 20
0.0
 30
0.0
 70
   128
 71
    10
 72
     6
 73
    -5
  0
VERTEX
  5
E54
  8
UMYVADLO
 10
0.0
 20
0.0
 30
0.0
 70
   128
 71
     9
 72
   -10
 73
     5
  0
VERTEX
  5
E55
  8
UMYVADLO
 10
0.0
 20
0.0
 30
0.0
 70
   128
 71
     2
 72
    10
 73
    -9
  0
VERTEX
  5
E56
  8
UMYVADLO
 10
0.0
 20
0.0
 30
0.0
 70
   128
 71
     3
 72
    -2
 73
     9
  0
SEQEND
  5
1518
  8
UMYVADLO
  0
POLYLINE
  5
E57
  8
UMYVADLO
 66
     1
 10
0.0
 20
0.0
 30
0.0
 70
    64
 71
    10
 72
     8
  0
VERTEX
  5
E58
  8
UMYVADLO
 10
49.99999999999739
 20
-0.0000000000021218
 30
500.0000000000004
 70
   192
  0
VERTEX
  5
E59
  8
UMYVADLO
 10
94.99999999999739
 20
-0.0000000000021218
 30
500.0000000000009
 70
   192
  0
VERTEX
  5
E5A
  8
UMYVADLO
 10
94.99999999999739
 20
-0.0000000000021243
 30
509.9999999999999
 70
   192
  0
VERTEX
  5
E5B
  8
UMYVADLO
 10
49.99999999999739
 20
-0.0000000000021191
 30
509.9999999999999
 70
   192
  0
VERTEX
  5
E5C
  8
UMYVADLO
 10
72.49999999999739
 20
-22.50000000000212
 30
509.9999999999999
 70
   192
  0
VERTEX
  5
E5D
  8
UMYVADLO
 10
72.49999999999739
 20
-22.50000000000212
 30
500.0000000000006
 70
   192
  0
VERTEX
  5
E5E
  8
UMYVADLO
 10
56.59009742330007
 20
-15.90990257669944
 30
509.9999999999999
 70
   192
  0
VERTEX
  5
E5F
  8
UMYVADLO
 10
56.59009742330007
 20
-15.90990257669944
 30
500.0000000000004
 70
   192
  0
VERTEX
  5
E60
  8
UMYVADLO
 10
88.4099025766947
 20
-15.90990257669944
 30
509.9999999999999
 70
   192
  0
VERTEX
  5
E61
  8
UMYVADLO
 10
88.4099025766947
 20
-15.90990257669944
 30
500.0000000000007
 70
   192
  0
VERTEX
  5
E62
  8
UMYVADLO
 10
0.0
 20
0.0
 30
0.0
 70
   128
 71
     8
 72
     1
 73
    -4
  0
VERTEX
  5
E63
  8
UMYVADLO
 10
0.0
 20
0.0
 30
0.0
 70
   128
 71
     7
 72
    -8
 73
     4
  0
VERTEX
  5
E64
  8
UMYVADLO
 10
0.0
 20
0.0
 30
0.0
 70
   128
 71
     6
 72
     8
 73
    -7
  0
VERTEX
  5
E65
  8
UMYVADLO
 10
0.0
 20
0.0
 30
0.0
 70
   128
 71
     5
 72
    -6
 73
     7
  0
VERTEX
  5
E66
  8
UMYVADLO
 10
0.0
 20
0.0
 30
0.0
 70
   128
 71
    10
 72
     6
 73
    -5
  0
VERTEX
  5
E67
  8
UMYVADLO
 10
0.0
 20
0.0
 30
0.0
 70
   128
 71
     9
 72
   -10
 73
     5
  0
VERTEX
  5
E68
  8
UMYVADLO
 10
0.0
 20
0.0
 30
0.0
 70
   128
 71
     2
 72
    10
 73
    -9
  0
VERTEX
  5
E69
  8
UMYVADLO
 10
0.0
 20
0.0
 30
0.0
 70
   128
 71
     3
 72
    -2
 73
     9
  0
SEQEND
  5
1519
  8
UMYVADLO
  0
POLYLINE
  5
E6A
  8
UMYVADLO
 66
     1
 10
0.0
 20
0.0
 30
0.0
 70
    64
 71
    10
 72
     8
  0
VERTEX
  5
E6B
  8
UMYVADLO
 10
-160.0000000000026
 20
-0.0000000000021218
 30
609.9999999999968
 70
   192
  0
VERTEX
  5
E6C
  8
UMYVADLO
 10
-125.0000000000026
 20
-0.0000000000021218
 30
609.9999999999973
 70
   192
  0
VERTEX
  5
E6D
  8
UMYVADLO
 10
-125.0000000000026
 20
-0.0000000000021238
 30
620.0000000000001
 70
   192
  0
VERTEX
  5
E6E
  8
UMYVADLO
 10
-160.0000000000026
 20
-0.0000000000021197
 30
620.0000000000001
 70
   192
  0
VERTEX
  5
E6F
  8
UMYVADLO
 10
-142.5000000000026
 20
-17.50000000000214
 30
620.0000000000001
 70
   192
  0
VERTEX
  5
E70
  8
UMYVADLO
 10
-142.5000000000026
 20
-17.50000000000214
 30
609.999999999997
 70
   192
  0
VERTEX
  5
E71
  8
UMYVADLO
 10
-154.8743686707672
 20
-12.37436867076671
 30
620.0000000000001
 70
   192
  0
VERTEX
  5
E72
  8
UMYVADLO
 10
-154.8743686707672
 20
-12.37436867076672
 30
609.9999999999969
 70
   192
  0
VERTEX
  5
E73
  8
UMYVADLO
 10
-130.125631329238
 20
-12.37436867076672
 30
620.0000000000001
 70
   192
  0
VERTEX
  5
E74
  8
UMYVADLO
 10
-130.125631329238
 20
-12.37436867076671
 30
609.9999999999972
 70
   192
  0
VERTEX
  5
E75
  8
UMYVADLO
 10
0.0
 20
0.0
 30
0.0
 70
   128
 71
     8
 72
     1
 73
    -4
  0
VERTEX
  5
E76
  8
UMYVADLO
 10
0.0
 20
0.0
 30
0.0
 70
   128
 71
     7
 72
    -8
 73
     4
  0
VERTEX
  5
E77
  8
UMYVADLO
 10
0.0
 20
0.0
 30
0.0
 70
   128
 71
     6
 72
     8
 73
    -7
  0
VERTEX
  5
E78
  8
UMYVADLO
 10
0.0
 20
0.0
 30
0.0
 70
   128
 71
     5
 72
    -6
 73
     7
  0
VERTEX
  5
E79
  8
UMYVADLO
 10
0.0
 20
0.0
 30
0.0
 70
   128
 71
    10
 72
     6
 73
    -5
  0
VERTEX
  5
E7A
  8
UMYVADLO
 10
0.0
 20
0.0
 30
0.0
 70
   128
 71
     9
 72
   -10
 73
     5
  0
VERTEX
  5
E7B
  8
UMYVADLO
 10
0.0
 20
0.0
 30
0.0
 70
   128
 71
     2
 72
    10
 73
    -9
  0
VERTEX
  5
E7C
  8
UMYVADLO
 10
0.0
 20
0.0
 30
0.0
 70
   128
 71
     3
 72
    -2
 73
     9
  0
SEQEND
  5
151A
  8
UMYVADLO
  0
POLYLINE
  5
E7D
  8
UMYVADLO
 66
     1
 10
0.0
 20
0.0
 30
0.0
 70
    64
 71
    11
 72
     9
  0
VERTEX
  5
E7E
  8
UMYVADLO
 10
107.855339059326
 20
35.35533905932538
 30
515.0000000000011
 70
   192
  0
VERTEX
  5
E7F
  8
UMYVADLO
 10
122.4999999999986
 20
-0.0000000000019857
 30
515.0000000000013
 70
   192
  0
VERTEX
  5
E80
  8
UMYVADLO
 10
122.4999999999988
 20
-0.0000000000019472
 30
500.0000000000011
 70
   192
  0
VERTEX
  5
E81
  8
UMYVADLO
 10
112.9508497187462
 20
29.38926261462169
 30
500.0000000000011
 70
   192
  0
VERTEX
  5
E82
  8
UMYVADLO
 10
57.04915028125145
 20
47.55282581475574
 30
500.0000000000006
 70
   192
  0
VERTEX
  5
E83
  8
UMYVADLO
 10
37.14466094067129
 20
35.3553390593254
 30
515.0000000000005
 70
   192
  0
VERTEX
  5
E84
  8
UMYVADLO
 10
72.49999999999866
 20
49.999999999998
 30
515.0000000000009
 70
   192
  0
VERTEX
  5
E85
  8
UMYVADLO
 10
32.04915028125144
 20
29.38926261462171
 30
500.0000000000003
 70
   192
  0
VERTEX
  5
E86
  8
UMYVADLO
 10
22.49999999999881
 20
-0.0000000000019472
 30
500.0000000000001
 70
   192
  0
VERTEX
  5
E87
  8
UMYVADLO
 10
22.49999999999864
 20
-0.0000000000019935
 30
515.0000000000001
 70
   192
  0
VERTEX
  5
E88
  8
UMYVADLO
 10
87.9508497187462
 20
47.55282581475572
 30
500.000000000001
 70
   192
  0
VERTEX
  5
E89
  8
UMYVADLO
 10
0.0
 20
0.0
 30
0.0
 70
   128
 71
     1
 72
     2
 73
     3
  0
VERTEX
  5
E8A
  8
UMYVADLO
 10
0.0
 20
0.0
 30
0.0
 70
   128
 71
     1
 72
     3
 73
     4
  0
VERTEX
  5
E8B
  8
UMYVADLO
 10
0.0
 20
0.0
 30
0.0
 70
   128
 71
     5
 72
     6
 73
     7
  0
VERTEX
  5
E8C
  8
UMYVADLO
 10
0.0
 20
0.0
 30
0.0
 70
   128
 71
     8
 72
     9
 73
    10
  0
VERTEX
  5
E8D
  8
UMYVADLO
 10
0.0
 20
0.0
 30
0.0
 70
   128
 71
     8
 72
    10
 73
     6
  0
VERTEX
  5
E8E
  8
UMYVADLO
 10
0.0
 20
0.0
 30
0.0
 70
   128
 71
    11
 72
     5
 73
     7
  0
VERTEX
  5
E8F
  8
UMYVADLO
 10
0.0
 20
0.0
 30
0.0
 70
   128
 71
     4
 72
    11
 73
     7
  0
VERTEX
  5
E90
  8
UMYVADLO
 10
0.0
 20
0.0
 30
0.0
 70
   128
 71
     4
 72
     7
 73
     1
  0
VERTEX
  5
E91
  8
UMYVADLO
 10
0.0
 20
0.0
 30
0.0
 70
   128
 71
     5
 72
     8
 73
     6
  0
SEQEND
  5
151B
  8
UMYVADLO
  0
POLYLINE
  5
E92
  8
UMYVADLO
 66
     1
 10
0.0
 20
0.0
 30
0.0
 70
    64
 71
     6
 72
     4
  0
VERTEX
  5
E93
  8
UMYVADLO
 10
-107.5000000000026
 20
254.0831239517761
 30
489.9999999999975
 70
   192
  0
VERTEX
  5
E94
  8
UMYVADLO
 10
-107.5000000000014
 20
359.9999999999995
 30
489.9999999999975
 70
   192
  0
VERTEX
  5
E95
  8
UMYVADLO
 10
42.49999999999793
 20
359.999999999998
 30
490.0000000000016
 70
   192
  0
VERTEX
  5
E96
  8
UMYVADLO
 10
42.49999999998902
 20
304.083123951776
 30
490.0000000000014
 70
   192
  0
VERTEX
  5
E97
  8
UMYVADLO
 10
-82.50000000000216
 20
304.0831239517772
 30
489.9999999999978
 70
   192
  0
VERTEX
  5
E98
  8
UMYVADLO
 10
-82.50000000000257
 20
254.0831239517801
 30
489.9999999999999
 70
   192
  0
VERTEX
  5
E99
  8
UMYVADLO
 10
0.0
 20
0.0
 30
0.0
 70
   128
 71
     3
 72
     4
 73
    -5
  0
VERTEX
  5
E9A
  8
UMYVADLO
 10
0.0
 20
0.0
 30
0.0
 70
   128
 71
     2
 72
    -3
 73
    -5
  0
VERTEX
  5
E9B
  8
UMYVADLO
 10
0.0
 20
0.0
 30
0.0
 70
   128
 71
    -5
 72
     1
 73
    -2
  0
VERTEX
  5
E9C
  8
UMYVADLO
 10
0.0
 20
0.0
 30
0.0
 70
   128
 71
     5
 72
     6
 73
    -1
  0
SEQEND
  5
151C
  8
UMYVADLO
  0
POLYLINE
  5
E9D
  8
UMYVADLO
 66
     1
 10
0.0
 20
0.0
 30
0.0
 70
    64
 71
     4
 72
     2
  0
VERTEX
  5
E9E
  8
UMYVADLO
 10
-82.50000000000249
 20
287.5000000000003
 30
514.9999999999977
 70
   192
  0
VERTEX
  5
E9F
  8
UMYVADLO
 10
-82.50000000000205
 20
304.0831239517815
 30
490.0000000000001
 70
   192
  0
VERTEX
  5
EA0
  8
UMYVADLO
 10
-82.50000000000257
 20
254.0831239517801
 30
489.9999999999914
 70
   192
  0
VERTEX
  5
EA1
  8
UMYVADLO
 10
-82.50000000000301
 20
237.4999999999977
 30
514.9999999999999
 70
   192
  0
VERTEX
  5
EA2
  8
UMYVADLO
 10
0.0
 20
0.0
 30
0.0
 70
   128
 71
     1
 72
     4
 73
    -3
  0
VERTEX
  5
EA3
  8
UMYVADLO
 10
0.0
 20
0.0
 30
0.0
 70
   128
 71
    -1
 72
     3
 73
     2
  0
SEQEND
  5
151D
  8
UMYVADLO
  0
POLYLINE
  5
EA4
  8
UMYVADLO
 66
     1
 10
0.0
 20
0.0
 30
0.0
 70
    64
 71
     4
 72
     2
  0
VERTEX
  5
EA5
  8
UMYVADLO
 10
177.4999999999984
 20
399.9999999999964
 30
550.0000000000031
 70
   192
  0
VERTEX
  5
EA6
  8
UMYVADLO
 10
177.4999999999975
 20
399.9999999999961
 30
630.0000000000032
 70
   192
  0
VERTEX
  5
EA7
  8
UMYVADLO
 10
-202.5000000000025
 20
400.0000000000001
 30
629.9999999999992
 70
   192
  0
VERTEX
  5
EA8
  8
UMYVADLO
 10
-202.5000000000017
 20
400.0000000000003
 30
549.9999999999991
 70
   192
  0
VERTEX
  5
EA9
  8
UMYVADLO
 10
0.0
 20
0.0
 30
0.0
 70
   128
 71
     1
 72
     4
 73
    -3
  0
VERTEX
  5
EAA
  8
UMYVADLO
 10
0.0
 20
0.0
 30
0.0
 70
   128
 71
    -1
 72
     3
 73
     2
  0
SEQEND
  5
151E
  8
UMYVADLO
  0
POLYLINE
  5
EAB
  8
UMYVADLO
 66
     1
 10
0.0
 20
0.0
 30
0.0
 70
    64
 71
     8
 72
     6
  0
VERTEX
  5
EAC
  8
UMYVADLO
 10
-202.5000000000017
 20
400.0000000000003
 30
549.9999999999991
 70
   192
  0
VERTEX
  5
EAD
  8
UMYVADLO
 10
-202.5000000000025
 20
400.0
 30
629.9999999999992
 70
   192
  0
VERTEX
  5
EAE
  8
UMYVADLO
 10
-202.5000000000109
 20
-400.0
 30
629.9999999999964
 70
   192
  0
VERTEX
  5
EAF
  8
UMYVADLO
 10
-202.5000000000101
 20
-399.9999999999997
 30
549.9999999999964
 70
   192
  0
VERTEX
  5
EB0
  8
UMYVADLO
 10
-202.5000000000095
 20
-352.4999999999994
 30
549.9999999999966
 70
   192
  0
VERTEX
  5
EB1
  8
UMYVADLO
 10
-202.5000000000101
 20
-352.4999999999994
 30
609.9999999999964
 70
   192
  0
VERTEX
  5
EB2
  8
UMYVADLO
 10
-202.5000000000026
 20
372.5000000000007
 30
609.9999999999965
 70
   192
  0
VERTEX
  5
EB3
  8
UMYVADLO
 10
-202.500000000002
 20
372.5000000000009
 30
549.9999999999991
 70
   192
  0
VERTEX
  5
EB4
  8
UMYVADLO
 10
0.0
 20
0.0
 30
0.0
 70
   128
 71
     6
 72
     5
 73
    -4
  0
VERTEX
  5
EB5
  8
UMYVADLO
 10
0.0
 20
0.0
 30
0.0
 70
   128
 71
    -6
 72
     4
 73
    -3
  0
VERTEX
  5
EB6
  8
UMYVADLO
 10
0.0
 20
0.0
 30
0.0
 70
   128
 71
     3
 72
    -2
 73
    -7
  0
VERTEX
  5
EB7
  8
UMYVADLO
 10
0.0
 20
0.0
 30
0.0
 70
   128
 71
    -3
 72
     7
 73
    -6
  0
VERTEX
  5
EB8
  8
UMYVADLO
 10
0.0
 20
0.0
 30
0.0
 70
   128
 71
     2
 72
     1
 73
    -8
  0
VERTEX
  5
EB9
  8
UMYVADLO
 10
0.0
 20
0.0
 30
0.0
 70
   128
 71
    -2
 72
     8
 73
    -7
  0
SEQEND
  5
151F
  8
UMYVADLO
  0
POLYLINE
  5
EBA
  8
UMYVADLO
 66
     1
 10
0.0
 20
0.0
 30
0.0
 70
    64
 71
     4
 72
     2
  0
VERTEX
  5
EBB
  8
UMYVADLO
 10
-202.5000000000101
 20
-399.9999999999997
 30
549.9999999999964
 70
   192
  0
VERTEX
  5
EBC
  8
UMYVADLO
 10
-202.5000000000109
 20
-400.0000000000001
 30
629.9999999999964
 70
   192
  0
VERTEX
  5
EBD
  8
UMYVADLO
 10
177.4999999999891
 20
-400.000000000004
 30
630.0000000000003
 70
   192
  0
VERTEX
  5
EBE
  8
UMYVADLO
 10
177.4999999999899
 20
-400.0000000000037
 30
550.0000000000003
 70
   192
  0
VERTEX
  5
EBF
  8
UMYVADLO
 10
0.0
 20
0.0
 30
0.0
 70
   128
 71
     1
 72
     4
 73
    -3
  0
VERTEX
  5
EC0
  8
UMYVADLO
 10
0.0
 20
0.0
 30
0.0
 70
   128
 71
    -1
 72
     3
 73
     2
  0
SEQEND
  5
1520
  8
UMYVADLO
  0
POLYLINE
  5
EC1
  8
UMYVADLO
 66
     1
 10
0.0
 20
0.0
 30
0.0
 70
    64
 71
     8
 72
     6
  0
VERTEX
  5
EC2
  8
UMYVADLO
 10
238.121778264901
 20
-365.0000000000043
 30
550.0000000000011
 70
   192
  0
VERTEX
  5
EC3
  8
UMYVADLO
 10
238.1217782649002
 20
-365.0000000000045
 30
630.0000000000013
 70
   192
  0
VERTEX
  5
EC4
  8
UMYVADLO
 10
212.4999999999892
 20
-390.621778264915
 30
630.0000000000008
 70
   192
  0
VERTEX
  5
EC5
  8
UMYVADLO
 10
212.4999999999901
 20
-390.6217782649148
 30
550.0000000000007
 70
   192
  0
VERTEX
  5
EC6
  8
UMYVADLO
 10
247.4999999999907
 20
-330.0000000000044
 30
550.0000000000013
 70
   192
  0
VERTEX
  5
EC7
  8
UMYVADLO
 10
247.4999999999899
 20
-330.0000000000047
 30
630.0000000000013
 70
   192
  0
VERTEX
  5
EC8
  8
UMYVADLO
 10
177.4999999999891
 20
-400.0000000000039
 30
630.0000000000005
 70
   192
  0
VERTEX
  5
EC9
  8
UMYVADLO
 10
177.4999999999899
 20
-400.0000000000037
 30
550.0000000000003
 70
   192
  0
VERTEX
  5
ECA
  8
UMYVADLO
 10
0.0
 20
0.0
 30
0.0
 70
   128
 71
     1
 72
     2
 73
    -3
  0
VERTEX
  5
ECB
  8
UMYVADLO
 10
0.0
 20
0.0
 30
0.0
 70
   128
 71
    -1
 72
     3
 73
     4
  0
VERTEX
  5
ECC
  8
UMYVADLO
 10
0.0
 20
0.0
 30
0.0
 70
   128
 71
     5
 72
     6
 73
    -2
  0
VERTEX
  5
ECD
  8
UMYVADLO
 10
0.0
 20
0.0
 30
0.0
 70
   128
 71
    -5
 72
     2
 73
     1
  0
VERTEX
  5
ECE
  8
UMYVADLO
 10
0.0
 20
0.0
 30
0.0
 70
   128
 71
     4
 72
     3
 73
    -7
  0
VERTEX
  5
ECF
  8
UMYVADLO
 10
0.0
 20
0.0
 30
0.0
 70
   128
 71
    -4
 72
     7
 73
     8
  0
SEQEND
  5
1521
  8
UMYVADLO
  0
POLYLINE
  5
ED0
  8
UMYVADLO
 66
     1
 10
0.0
 20
0.0
 30
0.0
 70
    64
 71
     4
 72
     2
  0
VERTEX
  5
ED1
  8
UMYVADLO
 10
247.4999999999907
 20
-330.0000000000044
 30
550.0000000000014
 70
   192
  0
VERTEX
  5
ED2
  8
UMYVADLO
 10
247.4999999999899
 20
-330.0000000000047
 30
630.0000000000013
 70
   192
  0
VERTEX
  5
ED3
  8
UMYVADLO
 10
247.4999999999968
 20
329.9999999999953
 30
630.0000000000036
 70
   192
  0
VERTEX
  5
ED4
  8
UMYVADLO
 10
247.4999999999976
 20
329.9999999999956
 30
550.0000000000036
 70
   192
  0
VERTEX
  5
ED5
  8
UMYVADLO
 10
0.0
 20
0.0
 30
0.0
 70
   128
 71
     1
 72
     4
 73
    -3
  0
VERTEX
  5
ED6
  8
UMYVADLO
 10
0.0
 20
0.0
 30
0.0
 70
   128
 71
    -1
 72
     3
 73
     2
  0
SEQEND
  5
1522
  8
UMYVADLO
  0
POLYLINE
  5
ED7
  8
UMYVADLO
 66
     1
 10
0.0
 20
0.0
 30
0.0
 70
    64
 71
     8
 72
     6
  0
VERTEX
  5
ED8
  8
UMYVADLO
 10
212.4999999999983
 20
390.6217782649067
 30
550.0000000000034
 70
   192
  0
VERTEX
  5
ED9
  8
UMYVADLO
 10
212.4999999999974
 20
390.6217782649064
 30
630.0000000000034
 70
   192
  0
VERTEX
  5
EDA
  8
UMYVADLO
 10
238.1217782649079
 20
364.9999999999955
 30
630.0000000000036
 70
   192
  0
VERTEX
  5
EDB
  8
UMYVADLO
 10
238.1217782649087
 20
364.9999999999957
 30
550.0000000000036
 70
   192
  0
VERTEX
  5
EDC
  8
UMYVADLO
 10
177.4999999999984
 20
399.9999999999964
 30
550.0000000000031
 70
   192
  0
VERTEX
  5
EDD
  8
UMYVADLO
 10
177.4999999999975
 20
399.9999999999961
 30
630.0000000000032
 70
   192
  0
VERTEX
  5
EDE
  8
UMYVADLO
 10
247.4999999999968
 20
329.9999999999953
 30
630.0000000000035
 70
   192
  0
VERTEX
  5
EDF
  8
UMYVADLO
 10
247.4999999999976
 20
329.9999999999956
 30
550.0000000000036
 70
   192
  0
VERTEX
  5
EE0
  8
UMYVADLO
 10
0.0
 20
0.0
 30
0.0
 70
   128
 71
     1
 72
     2
 73
    -3
  0
VERTEX
  5
EE1
  8
UMYVADLO
 10
0.0
 20
0.0
 30
0.0
 70
   128
 71
    -1
 72
     3
 73
     4
  0
VERTEX
  5
EE2
  8
UMYVADLO
 10
0.0
 20
0.0
 30
0.0
 70
   128
 71
     5
 72
     6
 73
    -2
  0
VERTEX
  5
EE3
  8
UMYVADLO
 10
0.0
 20
0.0
 30
0.0
 70
   128
 71
    -5
 72
     2
 73
     1
  0
VERTEX
  5
EE4
  8
UMYVADLO
 10
0.0
 20
0.0
 30
0.0
 70
   128
 71
     4
 72
     3
 73
    -7
  0
VERTEX
  5
EE5
  8
UMYVADLO
 10
0.0
 20
0.0
 30
0.0
 70
   128
 71
    -4
 72
     7
 73
     8
  0
SEQEND
  5
1523
  8
UMYVADLO
  0
POLYLINE
  5
EE6
  8
UMYVADLO
 66
     1
 10
0.0
 20
0.0
 30
0.0
 70
    64
 71
    26
 72
    26
  0
VERTEX
  5
EE7
  8
UMYVADLO
 10
177.4999999999975
 20
399.9999999999961
 30
630.0000000000031
 70
   192
  0
VERTEX
  5
EE8
  8
UMYVADLO
 10
212.4999999999974
 20
390.6217782649064
 30
630.0000000000034
 70
   192
  0
VERTEX
  5
EE9
  8
UMYVADLO
 10
238.1217782649079
 20
364.9999999999955
 30
630.0000000000036
 70
   192
  0
VERTEX
  5
EEA
  8
UMYVADLO
 10
247.4999999999968
 20
329.9999999999953
 30
630.0000000000035
 70
   192
  0
VERTEX
  5
EEB
  8
UMYVADLO
 10
247.4999999999898
 20
-330.0000000000047
 30
630.0000000000014
 70
   192
  0
VERTEX
  5
EEC
  8
UMYVADLO
 10
238.1217782649002
 20
-365.0000000000045
 30
630.0000000000013
 70
   192
  0
VERTEX
  5
EED
  8
UMYVADLO
 10
212.4999999999892
 20
-390.621778264915
 30
630.0000000000008
 70
   192
  0
VERTEX
  5
EEE
  8
UMYVADLO
 10
177.4999999999891
 20
-400.000000000004
 30
630.0000000000003
 70
   192
  0
VERTEX
  5
EEF
  8
UMYVADLO
 10
-202.5000000000109
 20
-400.0
 30
629.9999999999964
 70
   192
  0
VERTEX
  5
EF0
  8
UMYVADLO
 10
-202.5000000000025
 20
400.0
 30
629.9999999999992
 70
   192
  0
VERTEX
  5
EF1
  8
UMYVADLO
 10
-190.0000000000026
 20
392.4999999999999
 30
629.9999999999992
 70
   192
  0
VERTEX
  5
EF2
  8
UMYVADLO
 10
-192.5000000000026
 20
391.8301270189221
 30
629.9999999999992
 70
   192
  0
VERTEX
  5
EF3
  8
UMYVADLO
 10
-194.3301270189248
 20
389.9999999999999
 30
629.9999999999992
 70
   192
  0
VERTEX
  5
EF4
  8
UMYVADLO
 10
-195.0000000000026
 20
387.4999999999999
 30
630.0000000000001
 70
   192
  0
VERTEX
  5
EF5
  8
UMYVADLO
 10
-195.0000000000107
 20
-387.5000000000001
 30
629.9999999999965
 70
   192
  0
VERTEX
  5
EF6
  8
UMYVADLO
 10
-194.330127018933
 20
-390.0000000000001
 30
629.9999999999965
 70
   192
  0
VERTEX
  5
EF7
  8
UMYVADLO
 10
-192.5000000000108
 20
-391.8301270189223
 30
629.9999999999965
 70
   192
  0
VERTEX
  5
EF8
  8
UMYVADLO
 10
-190.0000000000108
 20
-392.5000000000001
 30
630.0000000000001
 70
   192
  0
VERTEX
  5
EF9
  8
UMYVADLO
 10
177.4999999999892
 20
-392.5000000000039
 30
630.0000000000001
 70
   192
  0
VERTEX
  5
EFA
  8
UMYVADLO
 10
208.7499999999895
 20
-384.1265877365316
 30
630.0000000000001
 70
   192
  0
VERTEX
  5
EFB
  8
UMYVADLO
 10
231.6265877365171
 20
-361.2500000000041
 30
630.0000000000001
 70
   192
  0
VERTEX
  5
EFC
  8
UMYVADLO
 10
239.9999999999899
 20
-330.0000000000039
 30
630.0000000000001
 70
   192
  0
VERTEX
  5
EFD
  8
UMYVADLO
 10
239.9999999999968
 20
329.9999999999954
 30
630.0000000000001
 70
   192
  0
VERTEX
  5
EFE
  8
UMYVADLO
 10
231.6265877365245
 20
361.2499999999955
 30
630.0000000000001
 70
   192
  0
VERTEX
  5
EFF
  8
UMYVADLO
 10
208.7499999999974
 20
384.1265877365232
 30
630.0000000000001
 70
   192
  0
VERTEX
  5
F00
  8
UMYVADLO
 10
177.4999999999974
 20
392.4999999999961
 30
630.0000000000001
 70
   192
  0
VERTEX
  5
F01
  8
UMYVADLO
 10
0.0
 20
0.0
 30
0.0
 70
   128
 71
    12
 72
   -11
 73
   -10
  0
VERTEX
  5
F02
  8
UMYVADLO
 10
0.0
 20
0.0
 30
0.0
 70
   128
 71
   -10
 72
    13
 73
   -12
  0
VERTEX
  5
F03
  8
UMYVADLO
 10
0.0
 20
0.0
 30
0.0
 70
   128
 71
   -10
 72
    14
 73
   -13
  0
VERTEX
  5
F04
  8
UMYVADLO
 10
0.0
 20
0.0
 30
0.0
 70
   128
 71
    10
 72
    -9
 73
   -15
  0
VERTEX
  5
F05
  8
UMYVADLO
 10
0.0
 20
0.0
 30
0.0
 70
   128
 71
   -10
 72
    15
 73
   -14
  0
VERTEX
  5
F06
  8
UMYVADLO
 10
0.0
 20
0.0
 30
0.0
 70
   128
 71
    -9
 72
    16
 73
   -15
  0
VERTEX
  5
F07
  8
UMYVADLO
 10
0.0
 20
0.0
 30
0.0
 70
   128
 71
    -9
 72
    17
 73
   -16
  0
VERTEX
  5
F08
  8
UMYVADLO
 10
0.0
 20
0.0
 30
0.0
 70
   128
 71
    -9
 72
    18
 73
   -17
  0
VERTEX
  5
F09
  8
UMYVADLO
 10
0.0
 20
0.0
 30
0.0
 70
   128
 71
     9
 72
    -8
 73
   -19
  0
VERTEX
  5
F0A
  8
UMYVADLO
 10
0.0
 20
0.0
 30
0.0
 70
   128
 71
    -9
 72
    19
 73
   -18
  0
VERTEX
  5
F0B
  8
UMYVADLO
 10
0.0
 20
0.0
 30
0.0
 70
   128
 71
     8
 72
    -7
 73
   -20
  0
VERTEX
  5
F0C
  8
UMYVADLO
 10
0.0
 20
0.0
 30
0.0
 70
   128
 71
    -8
 72
    20
 73
   -19
  0
VERTEX
  5
F0D
  8
UMYVADLO
 10
0.0
 20
0.0
 30
0.0
 70
   128
 71
     7
 72
    -6
 73
   -21
  0
VERTEX
  5
F0E
  8
UMYVADLO
 10
0.0
 20
0.0
 30
0.0
 70
   128
 71
    -7
 72
    21
 73
   -20
  0
VERTEX
  5
F0F
  8
UMYVADLO
 10
0.0
 20
0.0
 30
0.0
 70
   128
 71
     6
 72
    -5
 73
   -22
  0
VERTEX
  5
F10
  8
UMYVADLO
 10
0.0
 20
0.0
 30
0.0
 70
   128
 71
    -6
 72
    22
 73
   -21
  0
VERTEX
  5
F11
  8
UMYVADLO
 10
0.0
 20
0.0
 30
0.0
 70
   128
 71
     5
 72
    -4
 73
   -23
  0
VERTEX
  5
F12
  8
UMYVADLO
 10
0.0
 20
0.0
 30
0.0
 70
   128
 71
    -5
 72
    23
 73
   -22
  0
VERTEX
  5
F13
  8
UMYVADLO
 10
0.0
 20
0.0
 30
0.0
 70
   128
 71
     4
 72
    -3
 73
   -24
  0
VERTEX
  5
F14
  8
UMYVADLO
 10
0.0
 20
0.0
 30
0.0
 70
   128
 71
    -4
 72
    24
 73
   -23
  0
VERTEX
  5
F15
  8
UMYVADLO
 10
0.0
 20
0.0
 30
0.0
 70
   128
 71
     3
 72
    -2
 73
   -25
  0
VERTEX
  5
F16
  8
UMYVADLO
 10
0.0
 20
0.0
 30
0.0
 70
   128
 71
    -3
 72
    25
 73
   -24
  0
VERTEX
  5
F17
  8
UMYVADLO
 10
0.0
 20
0.0
 30
0.0
 70
   128
 71
     2
 72
    -1
 73
   -26
  0
VERTEX
  5
F18
  8
UMYVADLO
 10
0.0
 20
0.0
 30
0.0
 70
   128
 71
    -2
 72
    26
 73
   -25
  0
VERTEX
  5
F19
  8
UMYVADLO
 10
0.0
 20
0.0
 30
0.0
 70
   128
 71
     1
 72
   -10
 73
   -11
  0
VERTEX
  5
F1A
  8
UMYVADLO
 10
0.0
 20
0.0
 30
0.0
 70
   128
 71
    -1
 72
    11
 73
   -26
  0
SEQEND
  5
1524
  8
UMYVADLO
  0
POLYLINE
  5
F1B
  8
UMYVADLO
 66
     1
 10
0.0
 20
0.0
 30
0.0
 70
    64
 71
    24
 72
    22
  0
VERTEX
  5
F1C
  8
UMYVADLO
 10
-202.5000000000101
 20
-352.4999999999994
 30
549.9999999999966
 70
   192
  0
VERTEX
  5
F1D
  8
UMYVADLO
 10
-162.5000000000095
 20
-352.4999999999998
 30
549.999999999997
 70
   192
  0
VERTEX
  5
F1E
  8
UMYVADLO
 10
-162.5000000000096
 20
-360.0000000000002
 30
549.9999999999969
 70
   192
  0
VERTEX
  5
F1F
  8
UMYVADLO
 10
177.4999999999904
 20
-360.0000000000037
 30
550.0000000000005
 70
   192
  0
VERTEX
  5
F20
  8
UMYVADLO
 10
192.4999999999905
 20
-355.980762113537
 30
550.0000000000006
 70
   192
  0
VERTEX
  5
F21
  8
UMYVADLO
 10
203.4807621135237
 20
-345.0000000000039
 30
550.0000000000008
 70
   192
  0
VERTEX
  5
F22
  8
UMYVADLO
 10
207.4999999999907
 20
-330.0000000000039
 30
550.0000000000009
 70
   192
  0
VERTEX
  5
F23
  8
UMYVADLO
 10
207.4999999999976
 20
329.999999999996
 30
550.0000000000032
 70
   192
  0
VERTEX
  5
F24
  8
UMYVADLO
 10
203.4807621135309
 20
344.9999999999961
 30
550.0000000000031
 70
   192
  0
VERTEX
  5
F25
  8
UMYVADLO
 10
192.4999999999979
 20
355.9807621135294
 30
550.0000000000031
 70
   192
  0
VERTEX
  5
F26
  8
UMYVADLO
 10
177.4999999999979
 20
359.9999999999964
 30
550.000000000003
 70
   192
  0
VERTEX
  5
F27
  8
UMYVADLO
 10
-107.5000000000021
 20
359.9999999999994
 30
550.0
 70
   192
  0
VERTEX
  5
F28
  8
UMYVADLO
 10
-107.5000000000019
 20
372.4999999999995
 30
550.0000000000001
 70
   192
  0
VERTEX
  5
F29
  8
UMYVADLO
 10
-202.5000000000101
 20
372.5000000000006
 30
549.999999999999
 70
   192
  0
VERTEX
  5
F2A
  8
UMYVADLO
 10
-202.5000000000017
 20
400.0000000000003
 30
549.9999999999992
 70
   192
  0
VERTEX
  5
F2B
  8
UMYVADLO
 10
177.4999999999984
 20
399.9999999999964
 30
550.0000000000031
 70
   192
  0
VERTEX
  5
F2C
  8
UMYVADLO
 10
212.4999999999983
 20
390.6217782649067
 30
550.0000000000034
 70
   192
  0
VERTEX
  5
F2D
  8
UMYVADLO
 10
238.1217782649087
 20
364.9999999999957
 30
550.0000000000036
 70
   192
  0
VERTEX
  5
F2E
  8
UMYVADLO
 10
247.4999999999976
 20
329.9999999999956
 30
550.0000000000035
 70
   192
  0
VERTEX
  5
F2F
  8
UMYVADLO
 10
247.4999999999907
 20
-330.0000000000044
 30
550.0000000000014
 70
   192
  0
VERTEX
  5
F30
  8
UMYVADLO
 10
238.121778264901
 20
-365.0000000000043
 30
550.0000000000011
 70
   192
  0
VERTEX
  5
F31
  8
UMYVADLO
 10
212.4999999999901
 20
-390.6217782649148
 30
550.0000000000007
 70
   192
  0
VERTEX
  5
F32
  8
UMYVADLO
 10
177.4999999999899
 20
-400.0000000000037
 30
550.0000000000003
 70
   192
  0
VERTEX
  5
F33
  8
UMYVADLO
 10
-202.5000000000101
 20
-399.9999999999998
 30
549.9999999999964
 70
   192
  0
VERTEX
  5
F34
  8
UMYVADLO
 10
0.0
 20
0.0
 30
0.0
 70
   128
 71
    11
 72
    12
 73
   -13
  0
VERTEX
  5
F35
  8
UMYVADLO
 10
0.0
 20
0.0
 30
0.0
 70
   128
 71
     1
 72
     2
 73
    -3
  0
VERTEX
  5
F36
  8
UMYVADLO
 10
0.0
 20
0.0
 30
0.0
 70
   128
 71
    24
 72
    -1
 73
    -3
  0
VERTEX
  5
F37
  8
UMYVADLO
 10
0.0
 20
0.0
 30
0.0
 70
   128
 71
    22
 72
    23
 73
   -24
  0
VERTEX
  5
F38
  8
UMYVADLO
 10
0.0
 20
0.0
 30
0.0
 70
   128
 71
    -4
 72
   -22
 73
   -24
  0
VERTEX
  5
F39
  8
UMYVADLO
 10
0.0
 20
0.0
 30
0.0
 70
   128
 71
     3
 72
    -4
 73
   -24
  0
VERTEX
  5
F3A
  8
UMYVADLO
 10
0.0
 20
0.0
 30
0.0
 70
   128
 71
     4
 72
    -5
 73
   -22
  0
VERTEX
  5
F3B
  8
UMYVADLO
 10
0.0
 20
0.0
 30
0.0
 70
   128
 71
     5
 72
    -6
 73
   -22
  0
VERTEX
  5
F3C
  8
UMYVADLO
 10
0.0
 20
0.0
 30
0.0
 70
   128
 71
     6
 72
    -7
 73
   -22
  0
VERTEX
  5
F3D
  8
UMYVADLO
 10
0.0
 20
0.0
 30
0.0
 70
   128
 71
    21
 72
   -22
 73
    -7
  0
VERTEX
  5
F3E
  8
UMYVADLO
 10
0.0
 20
0.0
 30
0.0
 70
   128
 71
    20
 72
   -21
 73
    -7
  0
VERTEX
  5
F3F
  8
UMYVADLO
 10
0.0
 20
0.0
 30
0.0
 70
   128
 71
    18
 72
    19
 73
   -20
  0
VERTEX
  5
F40
  8
UMYVADLO
 10
0.0
 20
0.0
 30
0.0
 70
   128
 71
    -8
 72
   -18
 73
   -20
  0
VERTEX
  5
F41
  8
UMYVADLO
 10
0.0
 20
0.0
 30
0.0
 70
   128
 71
     7
 72
    -8
 73
   -20
  0
VERTEX
  5
F42
  8
UMYVADLO
 10
0.0
 20
0.0
 30
0.0
 70
   128
 71
     8
 72
    -9
 73
   -18
  0
VERTEX
  5
F43
  8
UMYVADLO
 10
0.0
 20
0.0
 30
0.0
 70
   128
 71
     9
 72
   -10
 73
   -18
  0
VERTEX
  5
F44
  8
UMYVADLO
 10
0.0
 20
0.0
 30
0.0
 70
   128
 71
    10
 72
   -11
 73
   -18
  0
VERTEX
  5
F45
  8
UMYVADLO
 10
0.0
 20
0.0
 30
0.0
 70
   128
 71
    16
 72
    17
 73
   -18
  0
VERTEX
  5
F46
  8
UMYVADLO
 10
0.0
 20
0.0
 30
0.0
 70
   128
 71
    15
 72
   -16
 73
   -18
  0
VERTEX
  5
F47
  8
UMYVADLO
 10
0.0
 20
0.0
 30
0.0
 70
   128
 71
   -13
 72
   -15
 73
   -18
  0
VERTEX
  5
F48
  8
UMYVADLO
 10
0.0
 20
0.0
 30
0.0
 70
   128
 71
   -11
 72
   -13
 73
   -18
  0
VERTEX
  5
F49
  8
UMYVADLO
 10
0.0
 20
0.0
 30
0.0
 70
   128
 71
    13
 72
    14
 73
   -15
  0
SEQEND
  5
1525
  8
UMYVADLO
  0
POLYLINE
  5
F4A
  8
UMYVADLO
 66
     1
 10
0.0
 20
0.0
 30
0.0
 70
    64
 71
     8
 72
     6
  0
VERTEX
  5
F4B
  8
UMYVADLO
 10
208.7499999999974
 20
384.1265877365232
 30
620.0000000000001
 70
   192
  0
VERTEX
  5
F4C
  8
UMYVADLO
 10
231.6265877365245
 20
361.2499999999955
 30
620.0000000000001
 70
   192
  0
VERTEX
  5
F4D
  8
UMYVADLO
 10
231.6265877365245
 20
361.2499999999955
 30
630.0000000000001
 70
   192
  0
VERTEX
  5
F4E
  8
UMYVADLO
 10
208.7499999999974
 20
384.1265877365232
 30
630.0000000000001
 70
   192
  0
VERTEX
  5
F4F
  8
UMYVADLO
 10
239.9999999999968
 20
329.9999999999954
 30
620.0000000000001
 70
   192
  0
VERTEX
  5
F50
  8
UMYVADLO
 10
239.9999999999968
 20
329.9999999999954
 30
630.0000000000001
 70
   192
  0
VERTEX
  5
F51
  8
UMYVADLO
 10
177.4999999999974
 20
392.4999999999961
 30
620.0000000000001
 70
   192
  0
VERTEX
  5
F52
  8
UMYVADLO
 10
177.4999999999975
 20
392.4999999999961
 30
630.0000000000001
 70
   192
  0
VERTEX
  5
F53
  8
UMYVADLO
 10
0.0
 20
0.0
 30
0.0
 70
   128
 71
     1
 72
     2
 73
    -3
  0
VERTEX
  5
F54
  8
UMYVADLO
 10
0.0
 20
0.0
 30
0.0
 70
   128
 71
     4
 72
    -1
 73
     3
  0
VERTEX
  5
F55
  8
UMYVADLO
 10
0.0
 20
0.0
 30
0.0
 70
   128
 71
     2
 72
     5
 73
    -6
  0
VERTEX
  5
F56
  8
UMYVADLO
 10
0.0
 20
0.0
 30
0.0
 70
   128
 71
     3
 72
    -2
 73
     6
  0
VERTEX
  5
F57
  8
UMYVADLO
 10
0.0
 20
0.0
 30
0.0
 70
   128
 71
     7
 72
     1
 73
    -4
  0
VERTEX
  5
F58
  8
UMYVADLO
 10
0.0
 20
0.0
 30
0.0
 70
   128
 71
     8
 72
    -7
 73
     4
  0
SEQEND
  5
1526
  8
UMYVADLO
  0
POLYLINE
  5
F59
  8
UMYVADLO
 66
     1
 10
0.0
 20
0.0
 30
0.0
 70
    64
 71
     4
 72
     2
  0
VERTEX
  5
F5A
  8
UMYVADLO
 10
239.9999999999899
 20
-330.0000000000039
 30
630.0000000000001
 70
   192
  0
VERTEX
  5
F5B
  8
UMYVADLO
 10
239.9999999999899
 20
-330.0000000000039
 30
620.0000000000001
 70
   192
  0
VERTEX
  5
F5C
  8
UMYVADLO
 10
239.9999999999968
 20
329.9999999999954
 30
620.0000000000001
 70
   192
  0
VERTEX
  5
F5D
  8
UMYVADLO
 10
239.9999999999968
 20
329.9999999999953
 30
630.0000000000001
 70
   192
  0
VERTEX
  5
F5E
  8
UMYVADLO
 10
0.0
 20
0.0
 30
0.0
 70
   128
 71
     1
 72
     4
 73
    -3
  0
VERTEX
  5
F5F
  8
UMYVADLO
 10
0.0
 20
0.0
 30
0.0
 70
   128
 71
    -1
 72
     3
 73
     2
  0
SEQEND
  5
1527
  8
UMYVADLO
  0
POLYLINE
  5
F60
  8
UMYVADLO
 66
     1
 10
0.0
 20
0.0
 30
0.0
 70
    64
 71
     8
 72
     6
  0
VERTEX
  5
F61
  8
UMYVADLO
 10
231.6265877365171
 20
-361.2500000000041
 30
620.0000000000001
 70
   192
  0
VERTEX
  5
F62
  8
UMYVADLO
 10
208.7499999999895
 20
-384.1265877365316
 30
620.0000000000001
 70
   192
  0
VERTEX
  5
F63
  8
UMYVADLO
 10
208.7499999999895
 20
-384.1265877365316
 30
630.0000000000001
 70
   192
  0
VERTEX
  5
F64
  8
UMYVADLO
 10
231.6265877365171
 20
-361.2500000000041
 30
630.0000000000001
 70
   192
  0
VERTEX
  5
F65
  8
UMYVADLO
 10
177.4999999999892
 20
-392.5000000000039
 30
620.0000000000001
 70
   192
  0
VERTEX
  5
F66
  8
UMYVADLO
 10
177.4999999999892
 20
-392.5000000000039
 30
630.0000000000001
 70
   192
  0
VERTEX
  5
F67
  8
UMYVADLO
 10
239.9999999999899
 20
-330.0000000000039
 30
620.0000000000001
 70
   192
  0
VERTEX
  5
F68
  8
UMYVADLO
 10
239.9999999999899
 20
-330.000000000004
 30
630.0000000000001
 70
   192
  0
VERTEX
  5
F69
  8
UMYVADLO
 10
0.0
 20
0.0
 30
0.0
 70
   128
 71
     1
 72
     2
 73
    -3
  0
VERTEX
  5
F6A
  8
UMYVADLO
 10
0.0
 20
0.0
 30
0.0
 70
   128
 71
     4
 72
    -1
 73
     3
  0
VERTEX
  5
F6B
  8
UMYVADLO
 10
0.0
 20
0.0
 30
0.0
 70
   128
 71
     2
 72
     5
 73
    -6
  0
VERTEX
  5
F6C
  8
UMYVADLO
 10
0.0
 20
0.0
 30
0.0
 70
   128
 71
     3
 72
    -2
 73
     6
  0
VERTEX
  5
F6D
  8
UMYVADLO
 10
0.0
 20
0.0
 30
0.0
 70
   128
 71
     7
 72
     1
 73
    -4
  0
VERTEX
  5
F6E
  8
UMYVADLO
 10
0.0
 20
0.0
 30
0.0
 70
   128
 71
     8
 72
    -7
 73
     4
  0
SEQEND
  5
1528
  8
UMYVADLO
  0
POLYLINE
  5
F6F
  8
UMYVADLO
 66
     1
 10
0.0
 20
0.0
 30
0.0
 70
    64
 71
     4
 72
     2
  0
VERTEX
  5
F70
  8
UMYVADLO
 10
177.4999999999892
 20
-392.5000000000039
 30
620.0000000000001
 70
   192
  0
VERTEX
  5
F71
  8
UMYVADLO
 10
177.4999999999892
 20
-392.5000000000039
 30
630.0000000000001
 70
   192
  0
VERTEX
  5
F72
  8
UMYVADLO
 10
-190.0000000000108
 20
-392.5000000000001
 30
630.0000000000001
 70
   192
  0
VERTEX
  5
F73
  8
UMYVADLO
 10
-190.0000000000108
 20
-392.5000000000001
 30
620.0000000000001
 70
   192
  0
VERTEX
  5
F74
  8
UMYVADLO
 10
0.0
 20
0.0
 30
0.0
 70
   128
 71
     1
 72
     4
 73
    -3
  0
VERTEX
  5
F75
  8
UMYVADLO
 10
0.0
 20
0.0
 30
0.0
 70
   128
 71
    -1
 72
     3
 73
     2
  0
SEQEND
  5
1529
  8
UMYVADLO
  0
POLYLINE
  5
F76
  8
UMYVADLO
 66
     1
 10
0.0
 20
0.0
 30
0.0
 70
    64
 71
     4
 72
     2
  0
VERTEX
  5
F77
  8
UMYVADLO
 10
-195.0000000000107
 20
-387.5000000000001
 30
620.0000000000001
 70
   192
  0
VERTEX
  5
F78
  8
UMYVADLO
 10
-195.0000000000107
 20
-387.5000000000001
 30
630.0000000000001
 70
   192
  0
VERTEX
  5
F79
  8
UMYVADLO
 10
-195.0000000000026
 20
387.4999999999999
 30
630.0000000000001
 70
   192
  0
VERTEX
  5
F7A
  8
UMYVADLO
 10
-195.0000000000026
 20
387.4999999999999
 30
620.0000000000001
 70
   192
  0
VERTEX
  5
F7B
  8
UMYVADLO
 10
0.0
 20
0.0
 30
0.0
 70
   128
 71
     1
 72
     4
 73
    -3
  0
VERTEX
  5
F7C
  8
UMYVADLO
 10
0.0
 20
0.0
 30
0.0
 70
   128
 71
    -1
 72
     3
 73
     2
  0
SEQEND
  5
152A
  8
UMYVADLO
  0
POLYLINE
  5
F7D
  8
UMYVADLO
 66
     1
 10
0.0
 20
0.0
 30
0.0
 70
    64
 71
     4
 72
     2
  0
VERTEX
  5
F7E
  8
UMYVADLO
 10
177.4999999999974
 20
392.4999999999961
 30
630.0000000000031
 70
   192
  0
VERTEX
  5
F7F
  8
UMYVADLO
 10
177.4999999999974
 20
392.4999999999961
 30
620.0000000000001
 70
   192
  0
VERTEX
  5
F80
  8
UMYVADLO
 10
-190.0000000000026
 20
392.4999999999999
 30
620.0000000000001
 70
   192
  0
VERTEX
  5
F81
  8
UMYVADLO
 10
-190.0000000000026
 20
392.4999999999999
 30
630.0000000000001
 70
   192
  0
VERTEX
  5
F82
  8
UMYVADLO
 10
0.0
 20
0.0
 30
0.0
 70
   128
 71
     1
 72
     4
 73
    -3
  0
VERTEX
  5
F83
  8
UMYVADLO
 10
0.0
 20
0.0
 30
0.0
 70
   128
 71
    -1
 72
     3
 73
     2
  0
SEQEND
  5
152B
  8
UMYVADLO
  0
POLYLINE
  5
F84
  8
UMYVADLO
 66
     1
 10
0.0
 20
0.0
 30
0.0
 70
    64
 71
    42
 72
    44
  0
VERTEX
  5
F85
  8
UMYVADLO
 10
177.4999999999974
 20
392.4999999999961
 30
620.0000000000001
 70
   192
  0
VERTEX
  5
F86
  8
UMYVADLO
 10
-190.0000000000026
 20
392.4999999999999
 30
620.0000000000001
 70
   192
  0
VERTEX
  5
F87
  8
UMYVADLO
 10
-192.5000000000026
 20
391.8301270189221
 30
620.0000000000001
 70
   192
  0
VERTEX
  5
F88
  8
UMYVADLO
 10
-194.3301270189248
 20
389.9999999999999
 30
620.0000000000001
 70
   192
  0
VERTEX
  5
F89
  8
UMYVADLO
 10
-195.0000000000026
 20
387.4999999999999
 30
620.0000000000001
 70
   192
  0
VERTEX
  5
F8A
  8
UMYVADLO
 10
-195.0000000000107
 20
-387.5000000000001
 30
620.0000000000001
 70
   192
  0
VERTEX
  5
F8B
  8
UMYVADLO
 10
-194.330127018933
 20
-390.0000000000001
 30
620.0000000000001
 70
   192
  0
VERTEX
  5
F8C
  8
UMYVADLO
 10
-192.5000000000108
 20
-391.8301270189223
 30
620.0000000000001
 70
   192
  0
VERTEX
  5
F8D
  8
UMYVADLO
 10
-190.0000000000108
 20
-392.5000000000001
 30
620.0000000000001
 70
   192
  0
VERTEX
  5
F8E
  8
UMYVADLO
 10
177.4999999999892
 20
-392.5000000000039
 30
620.0000000000001
 70
   192
  0
VERTEX
  5
F8F
  8
UMYVADLO
 10
208.7499999999895
 20
-384.1265877365316
 30
620.0000000000001
 70
   192
  0
VERTEX
  5
F90
  8
UMYVADLO
 10
231.6265877365171
 20
-361.2500000000041
 30
620.0000000000001
 70
   192
  0
VERTEX
  5
F91
  8
UMYVADLO
 10
239.9999999999899
 20
-330.000000000004
 30
620.0000000000001
 70
   192
  0
VERTEX
  5
F92
  8
UMYVADLO
 10
239.9999999999968
 20
329.9999999999953
 30
620.0000000000001
 70
   192
  0
VERTEX
  5
F93
  8
UMYVADLO
 10
231.6265877365245
 20
361.2499999999955
 30
620.0000000000001
 70
   192
  0
VERTEX
  5
F94
  8
UMYVADLO
 10
208.7499999999974
 20
384.1265877365232
 30
620.0000000000001
 70
   192
  0
VERTEX
  5
F95
  8
UMYVADLO
 10
177.4999999955071
 20
-390.0000000000039
 30
620.0000000000001
 70
   192
  0
VERTEX
  5
F96
  8
UMYVADLO
 10
-74.59002449505395
 20
-390.000000000004
 30
620.0000000000001
 70
   192
  0
VERTEX
  5
F97
  8
UMYVADLO
 10
-78.55316743955396
 20
-388.9434862066268
 30
620.0000000000002
 70
   192
  0
VERTEX
  5
F98
  8
UMYVADLO
 10
-81.44895552677237
 20
-386.0358465788198
 30
620.0000000000001
 70
   192
  0
VERTEX
  5
F99
  8
UMYVADLO
 10
-82.50000000000315
 20
-382.0614031301785
 30
620.0000000000001
 70
   192
  0
VERTEX
  5
F9A
  8
UMYVADLO
 10
-82.50000000000315
 20
382.0614031301699
 30
620.0000000000001
 70
   192
  0
VERTEX
  5
F9B
  8
UMYVADLO
 10
-81.45346937990112
 20
386.0281291337649
 30
620.0000000000001
 70
   192
  0
VERTEX
  5
F9C
  8
UMYVADLO
 10
-78.5614207154004
 20
388.938608629624
 30
620.0000000000001
 70
   192
  0
VERTEX
  5
F9D
  8
UMYVADLO
 10
-74.59002449505401
 20
389.9999999999959
 30
620.0000000000001
 70
   192
  0
VERTEX
  5
F9E
  8
UMYVADLO
 10
177.4999999999422
 20
389.9999999999961
 30
620.0000000000001
 70
   192
  0
VERTEX
  5
F9F
  8
UMYVADLO
 10
207.4999999999525
 20
381.961524227088
 30
620.0000000000001
 70
   192
  0
VERTEX
  5
FA0
  8
UMYVADLO
 10
229.4615242270392
 20
360.0000000000375
 30
620.0000000000001
 70
   192
  0
VERTEX
  5
FA1
  8
UMYVADLO
 10
237.4999999999968
 20
330.0000000000405
 30
620.0000000000001
 70
   192
  0
VERTEX
  5
FA2
  8
UMYVADLO
 10
237.4999999999945
 20
109.9999999986799
 30
620.0000000000001
 70
   192
  0
VERTEX
  5
FA3
  8
UMYVADLO
 10
237.4999999999922
 20
-110.0000000026807
 30
620.0000000000001
 70
   192
  0
VERTEX
  5
FA4
  8
UMYVADLO
 10
237.4999999999899
 20
-330.0000000040412
 30
620.0000000000001
 70
   192
  0
VERTEX
  5
FA5
  8
UMYVADLO
 10
229.4615242249633
 20
-360.0000000036289
 30
620.0000000000001
 70
   192
  0
VERTEX
  5
FA6
  8
UMYVADLO
 10
207.4999999962363
 20
-381.9615242292374
 30
620.0000000000001
 70
   192
  0
VERTEX
  5
FA7
  8
UMYVADLO
 10
-160.0000000000026
 20
-0.0000000000021218
 30
620.0000000000001
 70
   192
  0
VERTEX
  5
FA8
  8
UMYVADLO
 10
-154.8743686707672
 20
12.37436867076247
 30
620.0000000000001
 70
   192
  0
VERTEX
  5
FA9
  8
UMYVADLO
 10
-142.5000000000026
 20
17.4999999999979
 30
620.0000000000001
 70
   192
  0
VERTEX
  5
FAA
  8
UMYVADLO
 10
-130.125631329238
 20
12.37436867076247
 30
620.0000000000001
 70
   192
  0
VERTEX
  5
FAB
  8
UMYVADLO
 10
-125.0000000000026
 20
-0.0000000000021218
 30
620.0000000000001
 70
   192
  0
VERTEX
  5
FAC
  8
UMYVADLO
 10
-130.125631329238
 20
-12.37436867076672
 30
620.0000000000001
 70
   192
  0
VERTEX
  5
FAD
  8
UMYVADLO
 10
-142.5000000000026
 20
-17.50000000000214
 30
620.0000000000001
 70
   192
  0
VERTEX
  5
FAE
  8
UMYVADLO
 10
-154.8743686707672
 20
-12.37436867076671
 30
620.0000000000001
 70
   192
  0
VERTEX
  5
FAF
  8
UMYVADLO
 10
0.0
 20
0.0
 30
0.0
 70
   128
 71
   -10
 72
    17
 73
   -18
  0
VERTEX
  5
FB0
  8
UMYVADLO
 10
0.0
 20
0.0
 30
0.0
 70
   128
 71
   -18
 72
     9
 73
   -10
  0
VERTEX
  5
FB1
  8
UMYVADLO
 10
0.0
 20
0.0
 30
0.0
 70
   128
 71
    18
 72
   -19
 73
    -9
  0
VERTEX
  5
FB2
  8
UMYVADLO
 10
0.0
 20
0.0
 30
0.0
 70
   128
 71
    19
 72
   -20
 73
    -9
  0
VERTEX
  5
FB3
  8
UMYVADLO
 10
0.0
 20
0.0
 30
0.0
 70
   128
 71
    20
 72
   -21
 73
    -9
  0
VERTEX
  5
FB4
  8
UMYVADLO
 10
0.0
 20
0.0
 30
0.0
 70
   128
 71
     5
 72
    -6
 73
   -35
  0
VERTEX
  5
FB5
  8
UMYVADLO
 10
0.0
 20
0.0
 30
0.0
 70
   128
 71
    35
 72
   -36
 73
    -5
  0
VERTEX
  5
FB6
  8
UMYVADLO
 10
0.0
 20
0.0
 30
0.0
 70
   128
 71
     3
 72
     4
 73
    -5
  0
VERTEX
  5
FB7
  8
UMYVADLO
 10
0.0
 20
0.0
 30
0.0
 70
   128
 71
   -22
 72
    -3
 73
    -5
  0
VERTEX
  5
FB8
  8
UMYVADLO
 10
0.0
 20
0.0
 30
0.0
 70
   128
 71
   -37
 72
   -22
 73
    -5
  0
VERTEX
  5
FB9
  8
UMYVADLO
 10
0.0
 20
0.0
 30
0.0
 70
   128
 71
    36
 72
   -37
 73
    -5
  0
VERTEX
  5
FBA
  8
UMYVADLO
 10
0.0
 20
0.0
 30
0.0
 70
   128
 71
    37
 72
   -38
 73
   -22
  0
VERTEX
  5
FBB
  8
UMYVADLO
 10
0.0
 20
0.0
 30
0.0
 70
   128
 71
    38
 72
   -39
 73
   -22
  0
VERTEX
  5
FBC
  8
UMYVADLO
 10
0.0
 20
0.0
 30
0.0
 70
   128
 71
    21
 72
   -22
 73
   -39
  0
VERTEX
  5
FBD
  8
UMYVADLO
 10
0.0
 20
0.0
 30
0.0
 70
   128
 71
    39
 72
   -40
 73
   -21
  0
VERTEX
  5
FBE
  8
UMYVADLO
 10
0.0
 20
0.0
 30
0.0
 70
   128
 71
    40
 72
   -41
 73
   -21
  0
VERTEX
  5
FBF
  8
UMYVADLO
 10
0.0
 20
0.0
 30
0.0
 70
   128
 71
     8
 72
    -9
 73
   -21
  0
VERTEX
  5
FC0
  8
UMYVADLO
 10
0.0
 20
0.0
 30
0.0
 70
   128
 71
     7
 72
    -8
 73
   -21
  0
VERTEX
  5
FC1
  8
UMYVADLO
 10
0.0
 20
0.0
 30
0.0
 70
   128
 71
     6
 72
    -7
 73
   -21
  0
VERTEX
  5
FC2
  8
UMYVADLO
 10
0.0
 20
0.0
 30
0.0
 70
   128
 71
   -42
 72
    -6
 73
   -21
  0
VERTEX
  5
FC3
  8
UMYVADLO
 10
0.0
 20
0.0
 30
0.0
 70
   128
 71
    41
 72
   -42
 73
   -21
  0
VERTEX
  5
FC4
  8
UMYVADLO
 10
0.0
 20
0.0
 30
0.0
 70
   128
 71
    42
 72
   -35
 73
    -6
  0
VERTEX
  5
FC5
  8
UMYVADLO
 10
0.0
 20
0.0
 30
0.0
 70
   128
 71
    22
 72
   -23
 73
    -3
  0
VERTEX
  5
FC6
  8
UMYVADLO
 10
0.0
 20
0.0
 30
0.0
 70
   128
 71
    23
 72
   -24
 73
    -3
  0
VERTEX
  5
FC7
  8
UMYVADLO
 10
0.0
 20
0.0
 30
0.0
 70
   128
 71
    24
 72
   -25
 73
    -3
  0
VERTEX
  5
FC8
  8
UMYVADLO
 10
0.0
 20
0.0
 30
0.0
 70
   128
 71
     2
 72
    -3
 73
   -25
  0
VERTEX
  5
FC9
  8
UMYVADLO
 10
0.0
 20
0.0
 30
0.0
 70
   128
 71
     1
 72
    -2
 73
   -25
  0
VERTEX
  5
FCA
  8
UMYVADLO
 10
0.0
 20
0.0
 30
0.0
 70
   128
 71
    25
 72
   -26
 73
    -1
  0
VERTEX
  5
FCB
  8
UMYVADLO
 10
0.0
 20
0.0
 30
0.0
 70
   128
 71
   -27
 72
    16
 73
    -1
  0
VERTEX
  5
FCC
  8
UMYVADLO
 10
0.0
 20
0.0
 30
0.0
 70
   128
 71
    26
 72
   -27
 73
    -1
  0
VERTEX
  5
FCD
  8
UMYVADLO
 10
0.0
 20
0.0
 30
0.0
 70
   128
 71
   -28
 72
    15
 73
   -16
  0
VERTEX
  5
FCE
  8
UMYVADLO
 10
0.0
 20
0.0
 30
0.0
 70
   128
 71
    27
 72
   -28
 73
   -16
  0
VERTEX
  5
FCF
  8
UMYVADLO
 10
0.0
 20
0.0
 30
0.0
 70
   128
 71
   -29
 72
    14
 73
   -15
  0
VERTEX
  5
FD0
  8
UMYVADLO
 10
0.0
 20
0.0
 30
0.0
 70
   128
 71
    28
 72
   -29
 73
   -15
  0
VERTEX
  5
FD1
  8
UMYVADLO
 10
0.0
 20
0.0
 30
0.0
 70
   128
 71
    29
 72
   -30
 73
   -14
  0
VERTEX
  5
FD2
  8
UMYVADLO
 10
0.0
 20
0.0
 30
0.0
 70
   128
 71
    30
 72
   -31
 73
   -14
  0
VERTEX
  5
FD3
  8
UMYVADLO
 10
0.0
 20
0.0
 30
0.0
 70
   128
 71
   -31
 72
    13
 73
   -14
  0
VERTEX
  5
FD4
  8
UMYVADLO
 10
0.0
 20
0.0
 30
0.0
 70
   128
 71
    31
 72
   -32
 73
   -13
  0
VERTEX
  5
FD5
  8
UMYVADLO
 10
0.0
 20
0.0
 30
0.0
 70
   128
 71
   -33
 72
    12
 73
   -13
  0
VERTEX
  5
FD6
  8
UMYVADLO
 10
0.0
 20
0.0
 30
0.0
 70
   128
 71
    32
 72
   -33
 73
   -13
  0
VERTEX
  5
FD7
  8
UMYVADLO
 10
0.0
 20
0.0
 30
0.0
 70
   128
 71
   -34
 72
    11
 73
   -12
  0
VERTEX
  5
FD8
  8
UMYVADLO
 10
0.0
 20
0.0
 30
0.0
 70
   128
 71
    33
 72
   -34
 73
   -12
  0
VERTEX
  5
FD9
  8
UMYVADLO
 10
0.0
 20
0.0
 30
0.0
 70
   128
 71
   -17
 72
    10
 73
   -11
  0
VERTEX
  5
FDA
  8
UMYVADLO
 10
0.0
 20
0.0
 30
0.0
 70
   128
 71
    34
 72
   -17
 73
   -11
  0
SEQEND
  5
152C
  8
UMYVADLO
  0
POLYLINE
  5
FDB
  8
UMYVADLO
 66
     1
 10
0.0
 20
0.0
 30
0.0
 70
    64
 71
     4
 72
     2
  0
VERTEX
  5
FDC
  8
UMYVADLO
 10
-162.5000000000096
 20
-360.0000000000002
 30
549.9999999999969
 70
   192
  0
VERTEX
  5
FDD
  8
UMYVADLO
 10
-162.500000000009
 20
-359.9999999999999
 30
489.9999999999969
 70
   192
  0
VERTEX
  5
FDE
  8
UMYVADLO
 10
-162.5000000000089
 20
-352.4999999999998
 30
489.9999999999968
 70
   192
  0
VERTEX
  5
FDF
  8
UMYVADLO
 10
-162.5000000000095
 20
-352.4999999999998
 30
549.9999999999969
 70
   192
  0
VERTEX
  5
FE0
  8
UMYVADLO
 10
0.0
 20
0.0
 30
0.0
 70
   128
 71
     1
 72
     4
 73
    -3
  0
VERTEX
  5
FE1
  8
UMYVADLO
 10
0.0
 20
0.0
 30
0.0
 70
   128
 71
    -1
 72
     3
 73
     2
  0
SEQEND
  5
152D
  8
UMYVADLO
  0
POLYLINE
  5
FE2
  8
UMYVADLO
 66
     1
 10
0.0
 20
0.0
 30
0.0
 70
    64
 71
     5
 72
     3
  0
VERTEX
  5
FE3
  8
UMYVADLO
 10
42.49999999999798
 20
359.999999999998
 30
490.0000000000031
 70
   192
  0
VERTEX
  5
FE4
  8
UMYVADLO
 10
177.4999999999983
 20
359.9999999999965
 30
514.5454545454576
 70
   192
  0
VERTEX
  5
FE5
  8
UMYVADLO
 10
177.4999999999979
 20
359.9999999999964
 30
550.000000000003
 70
   192
  0
VERTEX
  5
FE6
  8
UMYVADLO
 10
-107.5000000000021
 20
359.9999999999994
 30
550.000000000003
 70
   192
  0
VERTEX
  5
FE7
  8
UMYVADLO
 10
-107.5000000000015
 20
359.9999999999996
 30
490.0
 70
   192
  0
VERTEX
  5
FE8
  8
UMYVADLO
 10
0.0
 20
0.0
 30
0.0
 70
   128
 71
     1
 72
     5
 73
    -4
  0
VERTEX
  5
FE9
  8
UMYVADLO
 10
0.0
 20
0.0
 30
0.0
 70
   128
 71
    -1
 72
     4
 73
    -3
  0
VERTEX
  5
FEA
  8
UMYVADLO
 10
0.0
 20
0.0
 30
0.0
 70
   128
 71
    -1
 72
     3
 73
     2
  0
SEQEND
  5
152E
  8
UMYVADLO
  0
POLYLINE
  5
FEB
  8
UMYVADLO
 66
     1
 10
0.0
 20
0.0
 30
0.0
 70
    64
 71
     8
 72
     6
  0
VERTEX
  5
FEC
  8
UMYVADLO
 10
207.4999999999976
 20
329.999999999996
 30
550.0000000000032
 70
   192
  0
VERTEX
  5
FED
  8
UMYVADLO
 10
207.499999999998
 20
329.9999999999961
 30
520.000000000003
 70
   192
  0
VERTEX
  5
FEE
  8
UMYVADLO
 10
203.6678125730797
 20
344.6712502923223
 30
519.3032386496541
 70
   192
  0
VERTEX
  5
FEF
  8
UMYVADLO
 10
203.4807621135309
 20
344.9999999999961
 30
550.0000000000031
 70
   192
  0
VERTEX
  5
FF0
  8
UMYVADLO
 10
192.1712502923243
 20
356.1678125730778
 30
517.2129545986077
 70
   192
  0
VERTEX
  5
FF1
  8
UMYVADLO
 10
192.4999999999979
 20
355.9807621135294
 30
550.0000000000031
 70
   192
  0
VERTEX
  5
FF2
  8
UMYVADLO
 10
177.4999999999983
 20
359.9999999999965
 30
514.5454545454576
 70
   192
  0
VERTEX
  5
FF3
  8
UMYVADLO
 10
177.4999999999979
 20
359.9999999999964
 30
550.000000000003
 70
   192
  0
VERTEX
  5
FF4
  8
UMYVADLO
 10
0.0
 20
0.0
 30
0.0
 70
   128
 71
     1
 72
     2
 73
     3
  0
VERTEX
  5
FF5
  8
UMYVADLO
 10
0.0
 20
0.0
 30
0.0
 70
   128
 71
     1
 72
     3
 73
     4
  0
VERTEX
  5
FF6
  8
UMYVADLO
 10
0.0
 20
0.0
 30
0.0
 70
   128
 71
     4
 72
     3
 73
     5
  0
VERTEX
  5
FF7
  8
UMYVADLO
 10
0.0
 20
0.0
 30
0.0
 70
   128
 71
     4
 72
     5
 73
     6
  0
VERTEX
  5
FF8
  8
UMYVADLO
 10
0.0
 20
0.0
 30
0.0
 70
   128
 71
     6
 72
     5
 73
     7
  0
VERTEX
  5
FF9
  8
UMYVADLO
 10
0.0
 20
0.0
 30
0.0
 70
   128
 71
     6
 72
     7
 73
     8
  0
SEQEND
  5
152F
  8
UMYVADLO
  0
POLYLINE
  5
FFA
  8
UMYVADLO
 66
     1
 10
0.0
 20
0.0
 30
0.0
 70
    64
 71
     4
 72
     2
  0
VERTEX
  5
FFB
  8
UMYVADLO
 10
207.4999999999907
 20
-330.000000000004
 30
550.0000000000009
 70
   192
  0
VERTEX
  5
FFC
  8
UMYVADLO
 10
207.4999999999976
 20
329.999999999996
 30
550.0000000000032
 70
   192
  0
VERTEX
  5
FFD
  8
UMYVADLO
 10
207.4999999999982
 20
329.9999999999962
 30
520.000000000003
 70
   192
  0
VERTEX
  5
FFE
  8
UMYVADLO
 10
207.499999999991
 20
-330.0000000000039
 30
520.0000000000007
 70
   192
  0
VERTEX
  5
FFF
  8
UMYVADLO
 10
0.0
 20
0.0
 30
0.0
 70
   128
 71
     1
 72
     4
 73
    -3
  0
VERTEX
  5
1000
  8
UMYVADLO
 10
0.0
 20
0.0
 30
0.0
 70
   128
 71
    -1
 72
     3
 73
     2
  0
SEQEND
  5
1530
  8
UMYVADLO
  0
POLYLINE
  5
1001
  8
UMYVADLO
 66
     1
 10
0.0
 20
0.0
 30
0.0
 70
    64
 71
     8
 72
     6
  0
VERTEX
  5
1002
  8
UMYVADLO
 10
177.4999999999904
 20
-360.0000000000037
 30
550.0000000000005
 70
   192
  0
VERTEX
  5
1003
  8
UMYVADLO
 10
192.171250292317
 20
-356.1678125730852
 30
517.2129545986054
 70
   192
  0
VERTEX
  5
1004
  8
UMYVADLO
 10
192.4999999999905
 20
-355.980762113537
 30
550.0000000000006
 70
   192
  0
VERTEX
  5
1005
  8
UMYVADLO
 10
177.4999999999908
 20
-360.0000000000036
 30
514.5454545454552
 70
   192
  0
VERTEX
  5
1006
  8
UMYVADLO
 10
203.6678125730724
 20
-344.6712502923298
 30
519.3032386496518
 70
   192
  0
VERTEX
  5
1007
  8
UMYVADLO
 10
203.4807621135237
 20
-345.0000000000039
 30
550.0000000000008
 70
   192
  0
VERTEX
  5
1008
  8
UMYVADLO
 10
207.499999999991
 20
-330.0000000000039
 30
520.0000000000007
 70
   192
  0
VERTEX
  5
1009
  8
UMYVADLO
 10
207.4999999999907
 20
-330.000000000004
 30
550.0000000000009
 70
   192
  0
VERTEX
  5
100A
  8
UMYVADLO
 10
0.0
 20
0.0
 30
0.0
 70
   128
 71
     1
 72
     2
 73
     3
  0
VERTEX
  5
100B
  8
UMYVADLO
 10
0.0
 20
0.0
 30
0.0
 70
   128
 71
     1
 72
     4
 73
     2
  0
VERTEX
  5
100C
  8
UMYVADLO
 10
0.0
 20
0.0
 30
0.0
 70
   128
 71
     3
 72
     2
 73
     5
  0
VERTEX
  5
100D
  8
UMYVADLO
 10
0.0
 20
0.0
 30
0.0
 70
   128
 71
     3
 72
     5
 73
     6
  0
VERTEX
  5
100E
  8
UMYVADLO
 10
0.0
 20
0.0
 30
0.0
 70
   128
 71
     6
 72
     5
 73
     7
  0
VERTEX
  5
100F
  8
UMYVADLO
 10
0.0
 20
0.0
 30
0.0
 70
   128
 71
     6
 72
     7
 73
     8
  0
SEQEND
  5
1531
  8
UMYVADLO
  0
POLYLINE
  5
1010
  8
UMYVADLO
 66
     1
 10
0.0
 20
0.0
 30
0.0
 70
    64
 71
     5
 72
     3
  0
VERTEX
  5
1011
  8
UMYVADLO
 10
-162.500000000009
 20
-359.9999999999999
 30
489.9999999999969
 70
   192
  0
VERTEX
  5
1012
  8
UMYVADLO
 10
-162.5000000000097
 20
-360.0000000000001
 30
549.9999999999969
 70
   192
  0
VERTEX
  5
1013
  8
UMYVADLO
 10
177.4999999999904
 20
-360.0000000000037
 30
550.0000000000005
 70
   192
  0
VERTEX
  5
1014
  8
UMYVADLO
 10
177.499999999991
 20
-360.0000000000036
 30
514.5454545454552
 70
   192
  0
VERTEX
  5
1015
  8
UMYVADLO
 10
42.49999999998582
 20
-360.000000000002
 30
489.9999999999991
 70
   192
  0
VERTEX
  5
1016
  8
UMYVADLO
 10
0.0
 20
0.0
 30
0.0
 70
   128
 71
     1
 72
     5
 73
    -4
  0
VERTEX
  5
1017
  8
UMYVADLO
 10
0.0
 20
0.0
 30
0.0
 70
   128
 71
    -1
 72
     4
 73
    -3
  0
VERTEX
  5
1018
  8
UMYVADLO
 10
0.0
 20
0.0
 30
0.0
 70
   128
 71
    -1
 72
     3
 73
     2
  0
SEQEND
  5
1532
  8
UMYVADLO
  0
POLYLINE
  5
1019
  8
UMYVADLO
 66
     1
 10
0.0
 20
0.0
 30
0.0
 70
    64
 71
     8
 72
     6
  0
VERTEX
  5
101A
  8
UMYVADLO
 10
-162.500000000009
 20
-352.4999999999998
 30
489.9999999999969
 70
   192
  0
VERTEX
  5
101B
  8
UMYVADLO
 10
-107.5000000000089
 20
-352.5000000000003
 30
489.9999999999974
 70
   192
  0
VERTEX
  5
101C
  8
UMYVADLO
 10
-107.5000000000079
 20
-254.0831239517777
 30
489.9999999999974
 70
   192
  0
VERTEX
  5
101D
  8
UMYVADLO
 10
-82.50000000000796
 20
-254.0831239517821
 30
489.9999999999913
 70
   192
  0
VERTEX
  5
101E
  8
UMYVADLO
 10
-82.50000000000841
 20
-304.0831239517809
 30
489.999999999998
 70
   192
  0
VERTEX
  5
101F
  8
UMYVADLO
 10
42.49999999997908
 20
-304.083123951778
 30
489.9999999999991
 70
   192
  0
VERTEX
  5
1020
  8
UMYVADLO
 10
42.49999999998206
 20
-360.000000000002
 30
489.9999999999991
 70
   192
  0
VERTEX
  5
1021
  8
UMYVADLO
 10
-162.500000000009
 20
-359.9999999999999
 30
489.9999999999969
 70
   192
  0
VERTEX
  5
1022
  8
UMYVADLO
 10
0.0
 20
0.0
 30
0.0
 70
   128
 71
     3
 72
     4
 73
    -5
  0
VERTEX
  5
1023
  8
UMYVADLO
 10
0.0
 20
0.0
 30
0.0
 70
   128
 71
     2
 72
    -3
 73
    -5
  0
VERTEX
  5
1024
  8
UMYVADLO
 10
0.0
 20
0.0
 30
0.0
 70
   128
 71
     8
 72
     1
 73
    -2
  0
VERTEX
  5
1025
  8
UMYVADLO
 10
0.0
 20
0.0
 30
0.0
 70
   128
 71
     7
 72
    -8
 73
    -2
  0
VERTEX
  5
1026
  8
UMYVADLO
 10
0.0
 20
0.0
 30
0.0
 70
   128
 71
     5
 72
     6
 73
    -7
  0
VERTEX
  5
1027
  8
UMYVADLO
 10
0.0
 20
0.0
 30
0.0
 70
   128
 71
    -2
 72
    -5
 73
    -7
  0
SEQEND
  5
1533
  8
UMYVADLO
  0
POLYLINE
  5
1028
  8
UMYVADLO
 66
     1
 10
0.0
 20
0.0
 30
0.0
 70
    64
 71
    14
 72
    12
  0
VERTEX
  5
1029
  8
UMYVADLO
 10
179.9999999999899
 20
-287.5000000000024
 30
515.0000000000005
 70
   192
  0
VERTEX
  5
102A
  8
UMYVADLO
 10
42.49999999998265
 20
-304.0831239517779
 30
489.9999999999993
 70
   192
  0
VERTEX
  5
102B
  8
UMYVADLO
 10
42.49999999998568
 20
-360.0000000000021
 30
489.9999999999998
 70
   192
  0
VERTEX
  5
102C
  8
UMYVADLO
 10
177.499999999991
 20
-360.0000000000036
 30
514.5454545454552
 70
   192
  0
VERTEX
  5
102D
  8
UMYVADLO
 10
192.171250292317
 20
-356.1678125730852
 30
517.2129545986054
 70
   192
  0
VERTEX
  5
102E
  8
UMYVADLO
 10
203.6678125730724
 20
-344.6712502923298
 30
519.3032386496518
 70
   192
  0
VERTEX
  5
102F
  8
UMYVADLO
 10
207.4999999999913
 20
-330.0000000000039
 30
520.0000000000007
 70
   192
  0
VERTEX
  5
1030
  8
UMYVADLO
 10
207.4999999999982
 20
329.9999999999962
 30
520.000000000003
 70
   192
  0
VERTEX
  5
1031
  8
UMYVADLO
 10
203.6678125730797
 20
344.6712502923223
 30
519.3032386496541
 70
   192
  0
VERTEX
  5
1032
  8
UMYVADLO
 10
192.1712502923243
 20
356.1678125730778
 30
517.2129545986077
 70
   192
  0
VERTEX
  5
1033
  8
UMYVADLO
 10
177.4999999999983
 20
359.9999999999965
 30
514.5454545454577
 70
   192
  0
VERTEX
  5
1034
  8
UMYVADLO
 10
42.4999999999896
 20
360.0000000000001
 30
490.0000000000016
 70
   192
  0
VERTEX
  5
1035
  8
UMYVADLO
 10
42.49999999997894
 20
304.0831239517757
 30
489.9999999999996
 70
   192
  0
VERTEX
  5
1036
  8
UMYVADLO
 10
179.999999999985
 20
287.4999999999976
 30
515.0000000000006
 70
   192
  0
VERTEX
  5
1037
  8
UMYVADLO
 10
0.0
 20
0.0
 30
0.0
 70
   128
 71
    14
 72
    13
 73
   -12
  0
VERTEX
  5
1038
  8
UMYVADLO
 10
0.0
 20
0.0
 30
0.0
 70
   128
 71
   -14
 72
    12
 73
   -11
  0
VERTEX
  5
1039
  8
UMYVADLO
 10
0.0
 20
0.0
 30
0.0
 70
   128
 71
   -14
 72
    11
 73
   -10
  0
VERTEX
  5
103A
  8
UMYVADLO
 10
0.0
 20
0.0
 30
0.0
 70
   128
 71
   -14
 72
    10
 73
    -9
  0
VERTEX
  5
103B
  8
UMYVADLO
 10
0.0
 20
0.0
 30
0.0
 70
   128
 71
     9
 72
     8
 73
    -7
  0
VERTEX
  5
103C
  8
UMYVADLO
 10
0.0
 20
0.0
 30
0.0
 70
   128
 71
    -9
 72
     7
 73
    -6
  0
VERTEX
  5
103D
  8
UMYVADLO
 10
0.0
 20
0.0
 30
0.0
 70
   128
 71
    -9
 72
    -6
 73
    -1
  0
VERTEX
  5
103E
  8
UMYVADLO
 10
0.0
 20
0.0
 30
0.0
 70
   128
 71
    -9
 72
     1
 73
   -14
  0
VERTEX
  5
103F
  8
UMYVADLO
 10
0.0
 20
0.0
 30
0.0
 70
   128
 71
     6
 72
     5
 73
    -4
  0
VERTEX
  5
1040
  8
UMYVADLO
 10
0.0
 20
0.0
 30
0.0
 70
   128
 71
    -6
 72
     4
 73
    -3
  0
VERTEX
  5
1041
  8
UMYVADLO
 10
0.0
 20
0.0
 30
0.0
 70
   128
 71
    -6
 72
     3
 73
    -2
  0
VERTEX
  5
1042
  8
UMYVADLO
 10
0.0
 20
0.0
 30
0.0
 70
   128
 71
    -6
 72
     2
 73
    -1
  0
SEQEND
  5
1534
  8
UMYVADLO
  0
POLYLINE
  5
1043
  8
UMYVADLO
 66
     1
 10
0.0
 20
0.0
 30
0.0
 70
    64
 71
     4
 72
     2
  0
VERTEX
  5
1044
  8
UMYVADLO
 10
-82.50000000000837
 20
-304.0831239517809
 30
489.9999999999914
 70
   192
  0
VERTEX
  5
1045
  8
UMYVADLO
 10
-82.50000000000851
 20
-287.5000000000027
 30
514.9999999999981
 70
   192
  0
VERTEX
  5
1046
  8
UMYVADLO
 10
-82.50000000000799
 20
-237.5000000000011
 30
514.9999999999977
 70
   192
  0
VERTEX
  5
1047
  8
UMYVADLO
 10
-82.50000000000789
 20
-254.0831239517821
 30
489.9999999999982
 70
   192
  0
VERTEX
  5
1048
  8
UMYVADLO
 10
0.0
 20
0.0
 30
0.0
 70
   128
 71
     1
 72
     4
 73
    -3
  0
VERTEX
  5
1049
  8
UMYVADLO
 10
0.0
 20
0.0
 30
0.0
 70
   128
 71
    -1
 72
     3
 73
     2
  0
SEQEND
  5
1535
  8
UMYVADLO
  0
POLYLINE
  5
104A
  8
UMYVADLO
 66
     1
 10
0.0
 20
0.0
 30
0.0
 70
    64
 71
    17
 72
    17
  0
VERTEX
  5
104B
  8
UMYVADLO
 10
-107.500000000008
 20
-237.5000000000008
 30
514.999999999998
 70
   192
  0
VERTEX
  5
104C
  8
UMYVADLO
 10
-107.500000000003
 20
237.4999999999993
 30
514.9999999999995
 70
   192
  0
VERTEX
  5
104D
  8
UMYVADLO
 10
-82.50000000000296
 20
237.4999999999989
 30
514.9999999999977
 70
   192
  0
VERTEX
  5
104E
  8
UMYVADLO
 10
-82.50000000000249
 20
287.5000000000003
 30
515.0
 70
   192
  0
VERTEX
  5
104F
  8
UMYVADLO
 10
179.9999999999875
 20
287.4999999999976
 30
515.0000000000006
 70
   192
  0
VERTEX
  5
1050
  8
UMYVADLO
 10
179.99999999999
 20
-287.5000000000022
 30
515.0000000000006
 70
   192
  0
VERTEX
  5
1051
  8
UMYVADLO
 10
-82.50000000000864
 20
-287.4999999999997
 30
514.9999999999978
 70
   192
  0
VERTEX
  5
1052
  8
UMYVADLO
 10
-82.50000000000799
 20
-237.500000000001
 30
514.9999999999982
 70
   192
  0
VERTEX
  5
1053
  8
UMYVADLO
 10
22.49999999999865
 20
-0.0000000000019746
 30
515.0000000000001
 70
   192
  0
VERTEX
  5
1054
  8
UMYVADLO
 10
32.04915028125126
 20
-29.38926261462565
 30
515.0000000000001
 70
   192
  0
VERTEX
  5
1055
  8
UMYVADLO
 10
57.04915028125127
 20
-47.55282581475967
 30
515.0000000000005
 70
   192
  0
VERTEX
  5
1056
  8
UMYVADLO
 10
87.95084971874603
 20
-47.55282581475968
 30
515.0000000000007
 70
   192
  0
VERTEX
  5
1057
  8
UMYVADLO
 10
112.950849718746
 20
-29.38926261462565
 30
515.000000000001
 70
   192
  0
VERTEX
  5
1058
  8
UMYVADLO
 10
122.4999999999986
 20
-0.0000000000019835
 30
515.0000000000013
 70
   192
  0
VERTEX
  5
1059
  8
UMYVADLO
 10
107.855339059326
 20
35.35533905932538
 30
515.0000000000011
 70
   192
  0
VERTEX
  5
105A
  8
UMYVADLO
 10
72.49999999999866
 20
49.999999999998
 30
515.0000000000009
 70
   192
  0
VERTEX
  5
105B
  8
UMYVADLO
 10
37.14466094067129
 20
35.3553390593254
 30
515.0000000000005
 70
   192
  0
VERTEX
  5
105C
  8
UMYVADLO
 10
0.0
 20
0.0
 30
0.0
 70
   128
 71
    -9
 72
     2
 73
    -3
  0
VERTEX
  5
105D
  8
UMYVADLO
 10
0.0
 20
0.0
 30
0.0
 70
   128
 71
    17
 72
    -9
 73
    -3
  0
VERTEX
  5
105E
  8
UMYVADLO
 10
0.0
 20
0.0
 30
0.0
 70
   128
 71
    -8
 72
    10
 73
   -11
  0
VERTEX
  5
105F
  8
UMYVADLO
 10
0.0
 20
0.0
 30
0.0
 70
   128
 71
     7
 72
    -8
 73
   -11
  0
VERTEX
  5
1060
  8
UMYVADLO
 10
0.0
 20
0.0
 30
0.0
 70
   128
 71
     6
 72
    -7
 73
   -11
  0
VERTEX
  5
1061
  8
UMYVADLO
 10
0.0
 20
0.0
 30
0.0
 70
   128
 71
    11
 72
   -12
 73
    -6
  0
VERTEX
  5
1062
  8
UMYVADLO
 10
0.0
 20
0.0
 30
0.0
 70
   128
 71
    12
 72
   -13
 73
    -6
  0
VERTEX
  5
1063
  8
UMYVADLO
 10
0.0
 20
0.0
 30
0.0
 70
   128
 71
    13
 72
   -14
 73
    -6
  0
VERTEX
  5
1064
  8
UMYVADLO
 10
0.0
 20
0.0
 30
0.0
 70
   128
 71
   -14
 72
     5
 73
    -6
  0
VERTEX
  5
1065
  8
UMYVADLO
 10
0.0
 20
0.0
 30
0.0
 70
   128
 71
    14
 72
   -15
 73
    -5
  0
VERTEX
  5
1066
  8
UMYVADLO
 10
0.0
 20
0.0
 30
0.0
 70
   128
 71
    15
 72
   -16
 73
    -5
  0
VERTEX
  5
1067
  8
UMYVADLO
 10
0.0
 20
0.0
 30
0.0
 70
   128
 71
     3
 72
     4
 73
    -5
  0
VERTEX
  5
1068
  8
UMYVADLO
 10
0.0
 20
0.0
 30
0.0
 70
   128
 71
   -17
 72
    -3
 73
    -5
  0
VERTEX
  5
1069
  8
UMYVADLO
 10
0.0
 20
0.0
 30
0.0
 70
   128
 71
    16
 72
   -17
 73
    -5
  0
VERTEX
  5
106A
  8
UMYVADLO
 10
0.0
 20
0.0
 30
0.0
 70
   128
 71
    -2
 72
     9
 73
   -10
  0
VERTEX
  5
106B
  8
UMYVADLO
 10
0.0
 20
0.0
 30
0.0
 70
   128
 71
     1
 72
    -2
 73
   -10
  0
VERTEX
  5
106C
  8
UMYVADLO
 10
0.0
 20
0.0
 30
0.0
 70
   128
 71
     8
 72
    -1
 73
   -10
  0
SEQEND
  5
1536
  8
UMYVADLO
  0
POLYLINE
  5
106D
  8
UMYVADLO
 66
     1
 10
0.0
 20
0.0
 30
0.0
 70
    64
 71
     4
 72
     2
  0
VERTEX
  5
106E
  8
UMYVADLO
 10
179.9999999999874
 20
287.4999999999973
 30
515.000000000001
 70
   192
  0
VERTEX
  5
106F
  8
UMYVADLO
 10
42.49999999997897
 20
304.0831239517759
 30
489.9999999999991
 70
   192
  0
VERTEX
  5
1070
  8
UMYVADLO
 10
-82.50000000000205
 20
304.0831239517815
 30
489.9999999999914
 70
   192
  0
VERTEX
  5
1071
  8
UMYVADLO
 10
-82.50000000000239
 20
287.5000000000003
 30
514.9999999999978
 70
   192
  0
VERTEX
  5
1072
  8
UMYVADLO
 10
0.0
 20
0.0
 30
0.0
 70
   128
 71
     1
 72
     4
 73
    -3
  0
VERTEX
  5
1073
  8
UMYVADLO
 10
0.0
 20
0.0
 30
0.0
 70
   128
 71
    -1
 72
     3
 73
     2
  0
SEQEND
  5
1537
  8
UMYVADLO
  0
POLYLINE
  5
1074
  8
UMYVADLO
 66
     1
 10
0.0
 20
0.0
 30
0.0
 70
    64
 71
     4
 72
     2
  0
VERTEX
  5
1075
  8
UMYVADLO
 10
42.49999999997922
 20
-304.0831239517782
 30
489.9999999999986
 70
   192
  0
VERTEX
  5
1076
  8
UMYVADLO
 10
179.9999999999899
 20
-287.5000000000024
 30
515.0000000000006
 70
   192
  0
VERTEX
  5
1077
  8
UMYVADLO
 10
-82.50000000000846
 20
-287.5000000000006
 30
514.9999999999964
 70
   192
  0
VERTEX
  5
1078
  8
UMYVADLO
 10
-82.50000000000853
 20
-304.0831239517767
 30
489.9999999999978
 70
   192
  0
VERTEX
  5
1079
  8
UMYVADLO
 10
0.0
 20
0.0
 30
0.0
 70
   128
 71
     1
 72
     4
 73
    -3
  0
VERTEX
  5
107A
  8
UMYVADLO
 10
0.0
 20
0.0
 30
0.0
 70
   128
 71
    -1
 72
     3
 73
     2
  0
SEQEND
  5
1538
  8
UMYVADLO
  0
POLYLINE
  5
107B
  8
UMYVADLO
 66
     1
 10
0.0
 20
0.0
 30
0.0
 70
    64
 71
     4
 72
     2
  0
VERTEX
  5
107C
  8
UMYVADLO
 10
-82.500000000003
 20
237.4999999999976
 30
514.9999999999999
 70
   192
  0
VERTEX
  5
107D
  8
UMYVADLO
 10
-82.50000000000261
 20
254.0831239517801
 30
489.9999999999913
 70
   192
  0
VERTEX
  5
107E
  8
UMYVADLO
 10
-107.5000000000026
 20
254.0831239517761
 30
489.9999999999975
 70
   192
  0
VERTEX
  5
107F
  8
UMYVADLO
 10
-107.500000000003
 20
237.4999999999992
 30
514.9999999999975
 70
   192
  0
VERTEX
  5
1080
  8
UMYVADLO
 10
0.0
 20
0.0
 30
0.0
 70
   128
 71
     1
 72
     4
 73
    -3
  0
VERTEX
  5
1081
  8
UMYVADLO
 10
0.0
 20
0.0
 30
0.0
 70
   128
 71
    -1
 72
     3
 73
     2
  0
SEQEND
  5
1539
  8
UMYVADLO
  0
POLYLINE
  5
1082
  8
UMYVADLO
 66
     1
 10
0.0
 20
0.0
 30
0.0
 70
    64
 71
     4
 72
     2
  0
VERTEX
  5
1083
  8
UMYVADLO
 10
-82.5000000000079
 20
-254.0831239517821
 30
489.9999999999914
 70
   192
  0
VERTEX
  5
1084
  8
UMYVADLO
 10
-82.50000000000796
 20
-237.500000000001
 30
514.9999999999977
 70
   192
  0
VERTEX
  5
1085
  8
UMYVADLO
 10
-107.5000000000079
 20
-237.5000000000008
 30
514.9999999999975
 70
   192
  0
VERTEX
  5
1086
  8
UMYVADLO
 10
-107.5000000000078
 20
-254.0831239517819
 30
489.9999999999911
 70
   192
  0
VERTEX
  5
1087
  8
UMYVADLO
 10
0.0
 20
0.0
 30
0.0
 70
   128
 71
     1
 72
     4
 73
    -3
  0
VERTEX
  5
1088
  8
UMYVADLO
 10
0.0
 20
0.0
 30
0.0
 70
   128
 71
    -1
 72
     3
 73
     2
  0
SEQEND
  5
153A
  8
UMYVADLO
  0
POLYLINE
  5
1089
  8
UMYVADLO
 66
     1
 10
0.0
 20
0.0
 30
0.0
 70
    64
 71
    11
 72
     9
  0
VERTEX
  5
108A
  8
UMYVADLO
 10
32.04915028125126
 20
-29.38926261462565
 30
515.0000000000001
 70
   192
  0
VERTEX
  5
108B
  8
UMYVADLO
 10
22.49999999999865
 20
-0.0000000000019746
 30
515.0000000000001
 70
   192
  0
VERTEX
  5
108C
  8
UMYVADLO
 10
22.4999999999988
 20
-0.0000000000019411
 30
500.0000000000001
 70
   192
  0
VERTEX
  5
108D
  8
UMYVADLO
 10
37.14466094067144
 20
-35.35533905932933
 30
500.0000000000002
 70
   192
  0
VERTEX
  5
108E
  8
UMYVADLO
 10
57.04915028125127
 20
-47.55282581475967
 30
515.0000000000005
 70
   192
  0
VERTEX
  5
108F
  8
UMYVADLO
 10
72.4999999999988
 20
-50.00000000000195
 30
500.0000000000005
 70
   192
  0
VERTEX
  5
1090
  8
UMYVADLO
 10
107.8553390593262
 20
-35.35533905932933
 30
500.0000000000009
 70
   192
  0
VERTEX
  5
1091
  8
UMYVADLO
 10
122.4999999999988
 20
-0.0000000000019633
 30
500.0000000000011
 70
   192
  0
VERTEX
  5
1092
  8
UMYVADLO
 10
122.4999999999986
 20
-0.0000000000019996
 30
515.0000000000011
 70
   192
  0
VERTEX
  5
1093
  8
UMYVADLO
 10
112.950849718746
 20
-29.38926261462565
 30
515.000000000001
 70
   192
  0
VERTEX
  5
1094
  8
UMYVADLO
 10
87.95084971874603
 20
-47.55282581475968
 30
515.0000000000007
 70
   192
  0
VERTEX
  5
1095
  8
UMYVADLO
 10
0.0
 20
0.0
 30
0.0
 70
   128
 71
     1
 72
     2
 73
     3
  0
VERTEX
  5
1096
  8
UMYVADLO
 10
0.0
 20
0.0
 30
0.0
 70
   128
 71
     1
 72
     3
 73
     4
  0
VERTEX
  5
1097
  8
UMYVADLO
 10
0.0
 20
0.0
 30
0.0
 70
   128
 71
     5
 72
     4
 73
     6
  0
VERTEX
  5
1098
  8
UMYVADLO
 10
0.0
 20
0.0
 30
0.0
 70
   128
 71
     7
 72
     8
 73
     9
  0
VERTEX
  5
1099
  8
UMYVADLO
 10
0.0
 20
0.0
 30
0.0
 70
   128
 71
     7
 72
     9
 73
    10
  0
VERTEX
  5
109A
  8
UMYVADLO
 10
0.0
 20
0.0
 30
0.0
 70
   128
 71
     5
 72
     6
 73
    11
  0
VERTEX
  5
109B
  8
UMYVADLO
 10
0.0
 20
0.0
 30
0.0
 70
   128
 71
     1
 72
     4
 73
     5
  0
VERTEX
  5
109C
  8
UMYVADLO
 10
0.0
 20
0.0
 30
0.0
 70
   128
 71
    11
 72
     6
 73
     7
  0
VERTEX
  5
109D
  8
UMYVADLO
 10
0.0
 20
0.0
 30
0.0
 70
   128
 71
    11
 72
     7
 73
    10
  0
SEQEND
  5
153B
  8
UMYVADLO
  0
POLYLINE
  5
109E
  8
UMYVADLO
 66
     1
 10
0.0
 20
0.0
 30
0.0
 70
    64
 71
    17
 72
    17
  0
VERTEX
  5
109F
  8
UMYVADLO
 10
122.4999999999988
 20
-0.0000000000019633
 30
500.0000000000011
 70
   192
  0
VERTEX
  5
10A0
  8
UMYVADLO
 10
107.8553390593262
 20
-35.35533905932933
 30
500.0000000000009
 70
   192
  0
VERTEX
  5
10A1
  8
UMYVADLO
 10
72.4999999999988
 20
-50.00000000000195
 30
500.0000000000005
 70
   192
  0
VERTEX
  5
10A2
  8
UMYVADLO
 10
37.14466094067144
 20
-35.35533905932933
 30
500.0000000000002
 70
   192
  0
VERTEX
  5
10A3
  8
UMYVADLO
 10
22.49999999999879
 20
-0.0000000000019639
 30
500.0000000000001
 70
   192
  0
VERTEX
  5
10A4
  8
UMYVADLO
 10
32.04915028125144
 20
29.38926261462171
 30
500.0000000000003
 70
   192
  0
VERTEX
  5
10A5
  8
UMYVADLO
 10
57.04915028125145
 20
47.55282581475574
 30
500.0000000000006
 70
   192
  0
VERTEX
  5
10A6
  8
UMYVADLO
 10
87.9508497187462
 20
47.55282581475572
 30
500.000000000001
 70
   192
  0
VERTEX
  5
10A7
  8
UMYVADLO
 10
112.9508497187462
 20
29.38926261462169
 30
500.0000000000011
 70
   192
  0
VERTEX
  5
10A8
  8
UMYVADLO
 10
94.99999999999739
 20
-0.0000000000021246
 30
500.0000000000009
 70
   192
  0
VERTEX
  5
10A9
  8
UMYVADLO
 10
88.4099025766947
 20
15.90990257669519
 30
500.0000000000009
 70
   192
  0
VERTEX
  5
10AA
  8
UMYVADLO
 10
72.49999999999739
 20
22.49999999999788
 30
500.0000000000007
 70
   192
  0
VERTEX
  5
10AB
  8
UMYVADLO
 10
56.59009742330007
 20
15.9099025766952
 30
500.0000000000005
 70
   192
  0
VERTEX
  5
10AC
  8
UMYVADLO
 10
49.99999999999739
 20
-0.0000000000021193
 30
500.0000000000004
 70
   192
  0
VERTEX
  5
10AD
  8
UMYVADLO
 10
56.59009742330007
 20
-15.90990257669944
 30
500.0000000000004
 70
   192
  0
VERTEX
  5
10AE
  8
UMYVADLO
 10
72.49999999999739
 20
-22.50000000000212
 30
500.0000000000006
 70
   192
  0
VERTEX
  5
10AF
  8
UMYVADLO
 10
88.4099025766947
 20
-15.90990257669944
 30
500.0000000000007
 70
   192
  0
VERTEX
  5
10B0
  8
UMYVADLO
 10
0.0
 20
0.0
 30
0.0
 70
   128
 71
    -1
 72
    10
 73
   -11
  0
VERTEX
  5
10B1
  8
UMYVADLO
 10
0.0
 20
0.0
 30
0.0
 70
   128
 71
     9
 72
    -1
 73
   -11
  0
VERTEX
  5
10B2
  8
UMYVADLO
 10
0.0
 20
0.0
 30
0.0
 70
   128
 71
     7
 72
     8
 73
    -9
  0
VERTEX
  5
10B3
  8
UMYVADLO
 10
0.0
 20
0.0
 30
0.0
 70
   128
 71
   -12
 72
    -7
 73
    -9
  0
VERTEX
  5
10B4
  8
UMYVADLO
 10
0.0
 20
0.0
 30
0.0
 70
   128
 71
    11
 72
   -12
 73
    -9
  0
VERTEX
  5
10B5
  8
UMYVADLO
 10
0.0
 20
0.0
 30
0.0
 70
   128
 71
   -13
 72
     6
 73
    -7
  0
VERTEX
  5
10B6
  8
UMYVADLO
 10
0.0
 20
0.0
 30
0.0
 70
   128
 71
    12
 72
   -13
 73
    -7
  0
VERTEX
  5
10B7
  8
UMYVADLO
 10
0.0
 20
0.0
 30
0.0
 70
   128
 71
   -14
 72
     5
 73
    -6
  0
VERTEX
  5
10B8
  8
UMYVADLO
 10
0.0
 20
0.0
 30
0.0
 70
   128
 71
    13
 72
   -14
 73
    -6
  0
VERTEX
  5
10B9
  8
UMYVADLO
 10
0.0
 20
0.0
 30
0.0
 70
   128
 71
   -15
 72
     4
 73
    -5
  0
VERTEX
  5
10BA
  8
UMYVADLO
 10
0.0
 20
0.0
 30
0.0
 70
   128
 71
    14
 72
   -15
 73
    -5
  0
VERTEX
  5
10BB
  8
UMYVADLO
 10
0.0
 20
0.0
 30
0.0
 70
   128
 71
   -16
 72
     3
 73
    -4
  0
VERTEX
  5
10BC
  8
UMYVADLO
 10
0.0
 20
0.0
 30
0.0
 70
   128
 71
    15
 72
   -16
 73
    -4
  0
VERTEX
  5
10BD
  8
UMYVADLO
 10
0.0
 20
0.0
 30
0.0
 70
   128
 71
   -17
 72
     2
 73
    -3
  0
VERTEX
  5
10BE
  8
UMYVADLO
 10
0.0
 20
0.0
 30
0.0
 70
   128
 71
    16
 72
   -17
 73
    -3
  0
VERTEX
  5
10BF
  8
UMYVADLO
 10
0.0
 20
0.0
 30
0.0
 70
   128
 71
   -10
 72
     1
 73
    -2
  0
VERTEX
  5
10C0
  8
UMYVADLO
 10
0.0
 20
0.0
 30
0.0
 70
   128
 71
    17
 72
   -10
 73
    -2
  0
SEQEND
  5
153C
  8
UMYVADLO
  0
POLYLINE
  5
10C1
  8
UMYVADLO
 66
     1
 10
0.0
 20
0.0
 30
0.0
 70
    64
 71
    28
 72
    28
  0
VERTEX
  5
10C2
  8
UMYVADLO
 10
97.4999999999959
 20
289.999999999996
 30
520.0000000000001
 70
   192
  0
VERTEX
  5
10C3
  8
UMYVADLO
 10
-57.98351949965367
 20
289.9999999999959
 30
520.0000000000001
 70
   192
  0
VERTEX
  5
10C4
  8
UMYVADLO
 10
-57.99231464839767
 20
289.9998974496403
 30
520.0000000000001
 70
   192
  0
VERTEX
  5
10C5
  8
UMYVADLO
 10
-58.00110979714164
 20
289.9998718120514
 30
520.0000000000001
 70
   192
  0
VERTEX
  5
10C6
  8
UMYVADLO
 10
-58.00990494588557
 20
289.9999999999959
 30
520.0000000000001
 70
   192
  0
VERTEX
  5
10C7
  8
UMYVADLO
 10
-58.00990494588738
 20
96.66655129751263
 30
520.0000000000001
 70
   192
  0
VERTEX
  5
10C8
  8
UMYVADLO
 10
-58.00990494588917
 20
-96.66656231152959
 30
520.0000000000001
 70
   192
  0
VERTEX
  5
10C9
  8
UMYVADLO
 10
-58.00990494589087
 20
-290.000000000004
 30
520.0000000000001
 70
   192
  0
VERTEX
  5
10CA
  8
UMYVADLO
 10
-58.00110979714695
 20
-289.9998718120595
 30
520.0000000000001
 70
   192
  0
VERTEX
  5
10CB
  8
UMYVADLO
 10
-57.99231464840301
 20
-289.9998974496484
 30
520.0000000000001
 70
   192
  0
VERTEX
  5
10CC
  8
UMYVADLO
 10
-57.98351949965905
 20
-290.000000000004
 30
520.0000000000001
 70
   192
  0
VERTEX
  5
10CD
  8
UMYVADLO
 10
97.4999999999907
 20
-290.000000000004
 30
520.0000000000001
 70
   192
  0
VERTEX
  5
10CE
  8
UMYVADLO
 10
117.4999999999906
 20
-284.6410161513817
 30
520.0000000000001
 70
   192
  0
VERTEX
  5
10CF
  8
UMYVADLO
 10
132.1410161513681
 20
-270.0000000000043
 30
520.0000000000001
 70
   192
  0
VERTEX
  5
10D0
  8
UMYVADLO
 10
137.4999999999907
 20
-250.0000000000045
 30
520.0000000000001
 70
   192
  0
VERTEX
  5
10D1
  8
UMYVADLO
 10
137.4999999999924
 20
-83.3333333333378
 30
520.0000000000001
 70
   192
  0
VERTEX
  5
10D2
  8
UMYVADLO
 10
137.4999999999942
 20
83.33333333332885
 30
520.0000000000001
 70
   192
  0
VERTEX
  5
10D3
  8
UMYVADLO
 10
137.499999999996
 20
249.9999999999955
 30
520.0000000000001
 70
   192
  0
VERTEX
  5
10D4
  8
UMYVADLO
 10
132.1410161513736
 20
269.9999999999957
 30
520.0000000000001
 70
   192
  0
VERTEX
  5
10D5
  8
UMYVADLO
 10
117.499999999996
 20
284.6410161513734
 30
520.0000000000001
 70
   192
  0
VERTEX
  5
10D6
  8
UMYVADLO
 10
112.4999999999979
 20
-0.0000000000021218
 30
520.0000000000001
 70
   192
  0
VERTEX
  5
10D7
  8
UMYVADLO
 10
100.7842712474596
 20
-28.28427124746436
 30
520.0000000000001
 70
   192
  0
VERTEX
  5
10D8
  8
UMYVADLO
 10
72.49999999999739
 20
-40.00000000000261
 30
520.0000000000001
 70
   192
  0
VERTEX
  5
10D9
  8
UMYVADLO
 10
44.21572875253514
 20
-28.28427124746437
 30
520.0000000000001
 70
   192
  0
VERTEX
  5
10DA
  8
UMYVADLO
 10
32.49999999999689
 20
-0.0000000000021218
 30
520.0000000000001
 70
   192
  0
VERTEX
  5
10DB
  8
UMYVADLO
 10
44.21572875253514
 20
28.28427124746012
 30
520.0000000000001
 70
   192
  0
VERTEX
  5
10DC
  8
UMYVADLO
 10
72.49999999999739
 20
39.99999999999836
 30
520.0000000000001
 70
   192
  0
VERTEX
  5
10DD
  8
UMYVADLO
 10
100.7842712474596
 20
28.28427124746013
 30
520.0000000000001
 70
   192
  0
VERTEX
  5
10DE
  8
UMYVADLO
 10
0.0
 20
0.0
 30
0.0
 70
   128
 71
     7
 72
     8
 73
    -9
  0
VERTEX
  5
10DF
  8
UMYVADLO
 10
0.0
 20
0.0
 30
0.0
 70
   128
 71
     9
 72
   -10
 73
    -7
  0
VERTEX
  5
10E0
  8
UMYVADLO
 10
0.0
 20
0.0
 30
0.0
 70
   128
 71
    10
 72
   -11
 73
    -7
  0
VERTEX
  5
10E1
  8
UMYVADLO
 10
0.0
 20
0.0
 30
0.0
 70
   128
 71
    15
 72
   -16
 73
    -7
  0
VERTEX
  5
10E2
  8
UMYVADLO
 10
0.0
 20
0.0
 30
0.0
 70
   128
 71
    14
 72
   -15
 73
    -7
  0
VERTEX
  5
10E3
  8
UMYVADLO
 10
0.0
 20
0.0
 30
0.0
 70
   128
 71
    13
 72
   -14
 73
    -7
  0
VERTEX
  5
10E4
  8
UMYVADLO
 10
0.0
 20
0.0
 30
0.0
 70
   128
 71
    12
 72
   -13
 73
    -7
  0
VERTEX
  5
10E5
  8
UMYVADLO
 10
0.0
 20
0.0
 30
0.0
 70
   128
 71
    11
 72
   -12
 73
    -7
  0
VERTEX
  5
10E6
  8
UMYVADLO
 10
0.0
 20
0.0
 30
0.0
 70
   128
 71
    20
 72
     1
 73
    -2
  0
VERTEX
  5
10E7
  8
UMYVADLO
 10
0.0
 20
0.0
 30
0.0
 70
   128
 71
    19
 72
   -20
 73
    -2
  0
VERTEX
  5
10E8
  8
UMYVADLO
 10
0.0
 20
0.0
 30
0.0
 70
   128
 71
    18
 72
   -19
 73
    -2
  0
VERTEX
  5
10E9
  8
UMYVADLO
 10
0.0
 20
0.0
 30
0.0
 70
   128
 71
    17
 72
   -18
 73
    -2
  0
VERTEX
  5
10EA
  8
UMYVADLO
 10
0.0
 20
0.0
 30
0.0
 70
   128
 71
    -6
 72
   -17
 73
    -2
  0
VERTEX
  5
10EB
  8
UMYVADLO
 10
0.0
 20
0.0
 30
0.0
 70
   128
 71
     2
 72
    -3
 73
    -6
  0
VERTEX
  5
10EC
  8
UMYVADLO
 10
0.0
 20
0.0
 30
0.0
 70
   128
 71
     3
 72
    -4
 73
    -6
  0
VERTEX
  5
10ED
  8
UMYVADLO
 10
0.0
 20
0.0
 30
0.0
 70
   128
 71
     4
 72
     5
 73
    -6
  0
VERTEX
  5
10EE
  8
UMYVADLO
 10
0.0
 20
0.0
 30
0.0
 70
   128
 71
    16
 72
   -17
 73
   -21
  0
VERTEX
  5
10EF
  8
UMYVADLO
 10
0.0
 20
0.0
 30
0.0
 70
   128
 71
    21
 72
   -22
 73
   -16
  0
VERTEX
  5
10F0
  8
UMYVADLO
 10
0.0
 20
0.0
 30
0.0
 70
   128
 71
    22
 72
   -23
 73
   -16
  0
VERTEX
  5
10F1
  8
UMYVADLO
 10
0.0
 20
0.0
 30
0.0
 70
   128
 71
    23
 72
   -24
 73
   -16
  0
VERTEX
  5
10F2
  8
UMYVADLO
 10
0.0
 20
0.0
 30
0.0
 70
   128
 71
    -7
 72
   -16
 73
   -24
  0
VERTEX
  5
10F3
  8
UMYVADLO
 10
0.0
 20
0.0
 30
0.0
 70
   128
 71
   -25
 72
     6
 73
    -7
  0
VERTEX
  5
10F4
  8
UMYVADLO
 10
0.0
 20
0.0
 30
0.0
 70
   128
 71
    24
 72
   -25
 73
    -7
  0
VERTEX
  5
10F5
  8
UMYVADLO
 10
0.0
 20
0.0
 30
0.0
 70
   128
 71
    25
 72
   -26
 73
    -6
  0
VERTEX
  5
10F6
  8
UMYVADLO
 10
0.0
 20
0.0
 30
0.0
 70
   128
 71
   -26
 72
   -17
 73
    -6
  0
VERTEX
  5
10F7
  8
UMYVADLO
 10
0.0
 20
0.0
 30
0.0
 70
   128
 71
    26
 72
   -27
 73
   -17
  0
VERTEX
  5
10F8
  8
UMYVADLO
 10
0.0
 20
0.0
 30
0.0
 70
   128
 71
    27
 72
   -28
 73
   -17
  0
VERTEX
  5
10F9
  8
UMYVADLO
 10
0.0
 20
0.0
 30
0.0
 70
   128
 71
    28
 72
   -21
 73
   -17
  0
SEQEND
  5
153D
  8
UMYVADLO
  0
POLYLINE
  5
10FA
  8
UMYVADLO
 66
     1
 10
0.0
 20
0.0
 30
0.0
 70
    64
 71
    32
 72
    34
  0
VERTEX
  5
10FB
  8
UMYVADLO
 10
75.99454313847214
 20
-356.8905945751186
 30
552.8174526021792
 70
   192
  0
VERTEX
  5
10FC
  8
UMYVADLO
 10
-57.98351949965905
 20
-290.000000000004
 30
520.0000000000001
 70
   192
  0
VERTEX
  5
10FD
  8
UMYVADLO
 10
-62.63435827709422
 20
-337.1187692437468
 30
537.3281957755204
 70
   192
  0
VERTEX
  5
10FE
  8
UMYVADLO
 10
137.4999999999907
 20
-250.0000000000045
 30
520.0000000000001
 70
   192
  0
VERTEX
  5
10FF
  8
UMYVADLO
 10
132.1410161513681
 20
-270.0000000000043
 30
520.0000000000001
 70
   192
  0
VERTEX
  5
1100
  8
UMYVADLO
 10
229.4615242249633
 20
-360.0000000036289
 30
620.0000000000001
 70
   192
  0
VERTEX
  5
1101
  8
UMYVADLO
 10
237.4999999999899
 20
-330.0000000040412
 30
620.0000000000001
 70
   192
  0
VERTEX
  5
1102
  8
UMYVADLO
 10
149.8035104855149
 20
-354.0804103306833
 30
552.8174526021792
 70
   192
  0
VERTEX
  5
1103
  8
UMYVADLO
 10
207.4999999962363
 20
-381.9615242292374
 30
620.0000000000001
 70
   192
  0
VERTEX
  5
1104
  8
UMYVADLO
 10
117.4999999999906
 20
-284.6410161513817
 30
520.0000000000001
 70
   192
  0
VERTEX
  5
1105
  8
UMYVADLO
 10
97.49999999999065
 20
-290.000000000004
 30
520.0000000000001
 70
   192
  0
VERTEX
  5
1106
  8
UMYVADLO
 10
117.499999999996
 20
284.6410161513734
 30
520.0000000000001
 70
   192
  0
VERTEX
  5
1107
  8
UMYVADLO
 10
207.4999999999525
 20
381.961524227088
 30
620.0000000000001
 70
   192
  0
VERTEX
  5
1108
  8
UMYVADLO
 10
149.8035104855184
 20
354.0804103306794
 30
552.8174526021809
 70
   192
  0
VERTEX
  5
1109
  8
UMYVADLO
 10
132.1410161513736
 20
269.9999999999957
 30
520.0000000000001
 70
   192
  0
VERTEX
  5
110A
  8
UMYVADLO
 10
229.4615242270392
 20
360.0000000000375
 30
620.0000000000001
 70
   192
  0
VERTEX
  5
110B
  8
UMYVADLO
 10
237.4999999999968
 20
330.0000000000405
 30
620.0000000000001
 70
   192
  0
VERTEX
  5
110C
  8
UMYVADLO
 10
137.4999999999959
 20
249.9999999999955
 30
520.0000000000001
 70
   192
  0
VERTEX
  5
110D
  8
UMYVADLO
 10
177.4999999999422
 20
389.9999999999961
 30
620.0000000000001
 70
   192
  0
VERTEX
  5
110E
  8
UMYVADLO
 10
75.99454313847549
 20
356.8905945751132
 30
552.8174526021809
 70
   192
  0
VERTEX
  5
110F
  8
UMYVADLO
 10
-74.590024495054
 20
389.9999999999959
 30
620.0000000000001
 70
   192
  0
VERTEX
  5
1110
  8
UMYVADLO
 10
-68.6784643295359
 20
372.4639539851107
 30
573.1784715714838
 70
   192
  0
VERTEX
  5
1111
  8
UMYVADLO
 10
237.4999999999922
 20
-110.0000000026807
 30
620.0000000000001
 70
   192
  0
VERTEX
  5
1112
  8
UMYVADLO
 10
137.4999999999942
 20
83.33333333332885
 30
520.0000000000001
 70
   192
  0
VERTEX
  5
1113
  8
UMYVADLO
 10
137.4999999999924
 20
-83.3333333333378
 30
520.0000000000001
 70
   192
  0
VERTEX
  5
1114
  8
UMYVADLO
 10
237.4999999999945
 20
109.9999999986799
 30
620.0000000000001
 70
   192
  0
VERTEX
  5
1115
  8
UMYVADLO
 10
177.4999999955071
 20
-390.0000000000039
 30
620.0000000000001
 70
   192
  0
VERTEX
  5
1116
  8
UMYVADLO
 10
-68.65399671692293
 20
-372.354883964501
 30
573.0069913491224
 70
   192
  0
VERTEX
  5
1117
  8
UMYVADLO
 10
-74.59002449505395
 20
-390.000000000004
 30
620.0000000000001
 70
   192
  0
VERTEX
  5
1118
  8
UMYVADLO
 10
-62.66112712720193
 20
337.3150928093435
 30
537.4560882261826
 70
   192
  0
VERTEX
  5
1119
  8
UMYVADLO
 10
-57.98351949965367
 20
289.9999999999959
 30
520.0000000000001
 70
   192
  0
VERTEX
  5
111A
  8
UMYVADLO
 10
97.4999999999959
 20
289.999999999996
 30
520.0000000000001
 70
   192
  0
VERTEX
  5
111B
  8
UMYVADLO
 10
0.0
 20
0.0
 30
0.0
 70
   128
 71
     1
 72
     2
 73
     3
  0
VERTEX
  5
111C
  8
UMYVADLO
 10
0.0
 20
0.0
 30
0.0
 70
   128
 71
     4
 72
     5
 73
    -6
  0
VERTEX
  5
111D
  8
UMYVADLO
 10
0.0
 20
0.0
 30
0.0
 70
   128
 71
    -4
 72
     6
 73
     7
  0
VERTEX
  5
111E
  8
UMYVADLO
 10
0.0
 20
0.0
 30
0.0
 70
   128
 71
     8
 72
     9
 73
    10
  0
VERTEX
  5
111F
  8
UMYVADLO
 10
0.0
 20
0.0
 30
0.0
 70
   128
 71
     9
 72
     6
 73
    -5
  0
VERTEX
  5
1120
  8
UMYVADLO
 10
0.0
 20
0.0
 30
0.0
 70
   128
 71
    -9
 72
     5
 73
    10
  0
VERTEX
  5
1121
  8
UMYVADLO
 10
0.0
 20
0.0
 30
0.0
 70
   128
 71
    11
 72
     1
 73
     8
  0
VERTEX
  5
1122
  8
UMYVADLO
 10
0.0
 20
0.0
 30
0.0
 70
   128
 71
    12
 72
    13
 73
    14
  0
VERTEX
  5
1123
  8
UMYVADLO
 10
0.0
 20
0.0
 30
0.0
 70
   128
 71
    12
 72
    15
 73
   -16
  0
VERTEX
  5
1124
  8
UMYVADLO
 10
0.0
 20
0.0
 30
0.0
 70
   128
 71
   -12
 72
    16
 73
    13
  0
VERTEX
  5
1125
  8
UMYVADLO
 10
0.0
 20
0.0
 30
0.0
 70
   128
 71
    17
 72
    16
 73
   -15
  0
VERTEX
  5
1126
  8
UMYVADLO
 10
0.0
 20
0.0
 30
0.0
 70
   128
 71
   -17
 72
    15
 73
    18
  0
VERTEX
  5
1127
  8
UMYVADLO
 10
0.0
 20
0.0
 30
0.0
 70
   128
 71
    19
 72
    20
 73
    14
  0
VERTEX
  5
1128
  8
UMYVADLO
 10
0.0
 20
0.0
 30
0.0
 70
   128
 71
    20
 72
    21
 73
    22
  0
VERTEX
  5
1129
  8
UMYVADLO
 10
0.0
 20
0.0
 30
0.0
 70
   128
 71
   -23
 72
    24
 73
   -25
  0
VERTEX
  5
112A
  8
UMYVADLO
 10
0.0
 20
0.0
 30
0.0
 70
   128
 71
   -26
 72
   -24
 73
    23
  0
VERTEX
  5
112B
  8
UMYVADLO
 10
0.0
 20
0.0
 30
0.0
 70
   128
 71
    -7
 72
    25
 73
     4
  0
VERTEX
  5
112C
  8
UMYVADLO
 10
0.0
 20
0.0
 30
0.0
 70
   128
 71
   -23
 72
   -25
 73
     7
  0
VERTEX
  5
112D
  8
UMYVADLO
 10
0.0
 20
0.0
 30
0.0
 70
   128
 71
     1
 72
    11
 73
     2
  0
VERTEX
  5
112E
  8
UMYVADLO
 10
0.0
 20
0.0
 30
0.0
 70
   128
 71
    27
 72
     8
 73
     1
  0
VERTEX
  5
112F
  8
UMYVADLO
 10
0.0
 20
0.0
 30
0.0
 70
   128
 71
    27
 72
     1
 73
    28
  0
VERTEX
  5
1130
  8
UMYVADLO
 10
0.0
 20
0.0
 30
0.0
 70
   128
 71
    27
 72
    28
 73
    29
  0
VERTEX
  5
1131
  8
UMYVADLO
 10
0.0
 20
0.0
 30
0.0
 70
   128
 71
     8
 72
    10
 73
    11
  0
VERTEX
  5
1132
  8
UMYVADLO
 10
0.0
 20
0.0
 30
0.0
 70
   128
 71
     9
 72
     8
 73
    27
  0
VERTEX
  5
1133
  8
UMYVADLO
 10
0.0
 20
0.0
 30
0.0
 70
   128
 71
   -26
 72
    18
 73
   -24
  0
VERTEX
  5
1134
  8
UMYVADLO
 10
0.0
 20
0.0
 30
0.0
 70
   128
 71
    17
 72
   -18
 73
    26
  0
VERTEX
  5
1135
  8
UMYVADLO
 10
0.0
 20
0.0
 30
0.0
 70
   128
 71
    14
 72
    20
 73
    30
  0
VERTEX
  5
1136
  8
UMYVADLO
 10
0.0
 20
0.0
 30
0.0
 70
   128
 71
    14
 72
    30
 73
    31
  0
VERTEX
  5
1137
  8
UMYVADLO
 10
0.0
 20
0.0
 30
0.0
 70
   128
 71
    14
 72
    31
 73
    32
  0
VERTEX
  5
1138
  8
UMYVADLO
 10
0.0
 20
0.0
 30
0.0
 70
   128
 71
    21
 72
    20
 73
    19
  0
VERTEX
  5
1139
  8
UMYVADLO
 10
0.0
 20
0.0
 30
0.0
 70
   128
 71
    14
 72
    32
 73
    12
  0
VERTEX
  5
113A
  8
UMYVADLO
 10
0.0
 20
0.0
 30
0.0
 70
   128
 71
    13
 72
    19
 73
    14
  0
VERTEX
  5
113B
  8
UMYVADLO
 10
0.0
 20
0.0
 30
0.0
 70
   128
 71
    28
 72
     1
 73
     3
  0
VERTEX
  5
113C
  8
UMYVADLO
 10
0.0
 20
0.0
 30
0.0
 70
   128
 71
    22
 72
    30
 73
    20
  0
SEQEND
  5
153E
  8
UMYVADLO
  0
POLYLINE
  5
113D
  8
UMYVADLO
 66
     1
 10
0.0
 20
0.0
 30
0.0
 70
    64
 71
    16
 72
    16
  0
VERTEX
  5
113E
  8
UMYVADLO
 10
-65.39783655728657
 20
-289.4863517133728
 30
524.9310479793031
 70
   192
  0
VERTEX
  5
113F
  8
UMYVADLO
 10
-70.40660175928862
 20
-333.0609009306814
 30
542.510847738763
 70
   192
  0
VERTEX
  5
1140
  8
UMYVADLO
 10
-76.44519287667937
 20
-365.6810117284688
 30
576.2045064846715
 70
   192
  0
VERTEX
  5
1141
  8
UMYVADLO
 10
-82.50000000000313
 20
-382.0614031301785
 30
620.0000000000001
 70
   192
  0
VERTEX
  5
1142
  8
UMYVADLO
 10
-82.50000000000315
 20
382.0614031301701
 30
620.0000000000001
 70
   192
  0
VERTEX
  5
1143
  8
UMYVADLO
 10
-76.44519285183218
 20
365.6810116263962
 30
576.2045063228398
 70
   192
  0
VERTEX
  5
1144
  8
UMYVADLO
 10
-70.40660174756087
 20
333.0609008518815
 30
542.5108476855627
 70
   192
  0
VERTEX
  5
1145
  8
UMYVADLO
 10
-65.39783655728085
 20
289.4863517133646
 30
524.931047979302
 70
   192
  0
VERTEX
  5
1146
  8
UMYVADLO
 10
-65.3978365572829
 20
96.91689876538572
 30
524.9310479793027
 70
   192
  0
VERTEX
  5
1147
  8
UMYVADLO
 10
-65.39783655728456
 20
-96.91689876539435
 30
524.9310479793023
 70
   192
  0
VERTEX
  5
1148
  8
UMYVADLO
 10
-75.86941560304106
 20
-0.0000000000010981
 30
572.499999999998
 70
   192
  0
VERTEX
  5
1149
  8
UMYVADLO
 10
-76.8355157591103
 20
10.83559450339358
 30
578.7676089477834
 70
   192
  0
VERTEX
  5
114A
  8
UMYVADLO
 10
-78.65199437381693
 20
10.84666595472796
 30
591.2131024912912
 70
   192
  0
VERTEX
  5
114B
  8
UMYVADLO
 10
-79.52828758088518
 20
-0.0000000000010259
 30
597.4999999999978
 70
   192
  0
VERTEX
  5
114C
  8
UMYVADLO
 10
-78.65279471719364
 20
-10.8432619474171
 30
591.2187688545822
 70
   192
  0
VERTEX
  5
114D
  8
UMYVADLO
 10
-76.83563075017834
 20
-10.83591115858684
 30
578.7683701262605
 70
   192
  0
VERTEX
  5
114E
  8
UMYVADLO
 10
0.0
 20
0.0
 30
0.0
 70
   128
 71
     6
 72
     5
 73
     9
  0
VERTEX
  5
114F
  8
UMYVADLO
 10
0.0
 20
0.0
 30
0.0
 70
   128
 71
     9
 72
     7
 73
     6
  0
VERTEX
  5
1150
  8
UMYVADLO
 10
0.0
 20
0.0
 30
0.0
 70
   128
 71
     9
 72
     8
 73
     7
  0
VERTEX
  5
1151
  8
UMYVADLO
 10
0.0
 20
0.0
 30
0.0
 70
   128
 71
     2
 72
     1
 73
    10
  0
VERTEX
  5
1152
  8
UMYVADLO
 10
0.0
 20
0.0
 30
0.0
 70
   128
 71
    10
 72
    11
 73
    16
  0
VERTEX
  5
1153
  8
UMYVADLO
 10
0.0
 20
0.0
 30
0.0
 70
   128
 71
    10
 72
    16
 73
     3
  0
VERTEX
  5
1154
  8
UMYVADLO
 10
0.0
 20
0.0
 30
0.0
 70
   128
 71
    10
 72
     3
 73
     2
  0
VERTEX
  5
1155
  8
UMYVADLO
 10
0.0
 20
0.0
 30
0.0
 70
   128
 71
    11
 72
    10
 73
     9
  0
VERTEX
  5
1156
  8
UMYVADLO
 10
0.0
 20
0.0
 30
0.0
 70
   128
 71
    11
 72
     9
 73
     5
  0
VERTEX
  5
1157
  8
UMYVADLO
 10
0.0
 20
0.0
 30
0.0
 70
   128
 71
     5
 72
    12
 73
    11
  0
VERTEX
  5
1158
  8
UMYVADLO
 10
0.0
 20
0.0
 30
0.0
 70
   128
 71
     5
 72
    13
 73
    12
  0
VERTEX
  5
1159
  8
UMYVADLO
 10
0.0
 20
0.0
 30
0.0
 70
   128
 71
     5
 72
    14
 73
    13
  0
VERTEX
  5
115A
  8
UMYVADLO
 10
0.0
 20
0.0
 30
0.0
 70
   128
 71
    14
 72
     5
 73
     4
  0
VERTEX
  5
115B
  8
UMYVADLO
 10
0.0
 20
0.0
 30
0.0
 70
   128
 71
     4
 72
     3
 73
    15
  0
VERTEX
  5
115C
  8
UMYVADLO
 10
0.0
 20
0.0
 30
0.0
 70
   128
 71
     4
 72
    15
 73
    14
  0
VERTEX
  5
115D
  8
UMYVADLO
 10
0.0
 20
0.0
 30
0.0
 70
   128
 71
     3
 72
    16
 73
    15
  0
SEQEND
  5
153F
  8
UMYVADLO
  0
POLYLINE
  5
115E
  8
UMYVADLO
 66
     1
 10
0.0
 20
0.0
 30
0.0
 70
    64
 71
    15
 72
    13
  0
VERTEX
  5
115F
  8
UMYVADLO
 10
-74.59002449505395
 20
-390.000000000004
 30
620.0000000000001
 70
   192
  0
VERTEX
  5
1160
  8
UMYVADLO
 10
-78.55316743955396
 20
-388.9434862066268
 30
620.0000000000002
 70
   192
  0
VERTEX
  5
1161
  8
UMYVADLO
 10
-81.44895552677237
 20
-386.0358465788198
 30
620.0000000000001
 70
   192
  0
VERTEX
  5
1162
  8
UMYVADLO
 10
-82.50000000000315
 20
-382.0614031301785
 30
620.0000000000001
 70
   192
  0
VERTEX
  5
1163
  8
UMYVADLO
 10
-76.44519287667937
 20
-365.6810117284688
 30
576.2045064846715
 70
   192
  0
VERTEX
  5
1164
  8
UMYVADLO
 10
-70.40660175928862
 20
-333.0609009306814
 30
542.510847738763
 70
   192
  0
VERTEX
  5
1165
  8
UMYVADLO
 10
-65.39783655728657
 20
-289.4863517133728
 30
524.9310479793031
 70
   192
  0
VERTEX
  5
1166
  8
UMYVADLO
 10
-63.66144794834489
 20
-289.7011358747928
 30
522.3378071000875
 70
   192
  0
VERTEX
  5
1167
  8
UMYVADLO
 10
-61.06985008949243
 20
-289.8805553416822
 30
520.6084039197592
 70
   192
  0
VERTEX
  5
1168
  8
UMYVADLO
 10
-58.00990494589087
 20
-290.000000000004
 30
520.0000000000001
 70
   192
  0
VERTEX
  5
1169
  8
UMYVADLO
 10
-58.00110979714695
 20
-289.9998718120595
 30
520.0000000000001
 70
   192
  0
VERTEX
  5
116A
  8
UMYVADLO
 10
-57.99231464840301
 20
-289.9998974496484
 30
520.0000000000001
 70
   192
  0
VERTEX
  5
116B
  8
UMYVADLO
 10
-57.98351949965905
 20
-290.000000000004
 30
520.0000000000001
 70
   192
  0
VERTEX
  5
116C
  8
UMYVADLO
 10
-62.63435827709422
 20
-337.1187692437468
 30
537.3281957755204
 70
   192
  0
VERTEX
  5
116D
  8
UMYVADLO
 10
-68.65399671692293
 20
-372.354883964501
 30
573.0069913491224
 70
   192
  0
VERTEX
  5
116E
  8
UMYVADLO
 10
0.0
 20
0.0
 30
0.0
 70
   128
 71
     8
 72
     7
 73
     6
  0
VERTEX
  5
116F
  8
UMYVADLO
 10
0.0
 20
0.0
 30
0.0
 70
   128
 71
     6
 72
    14
 73
     9
  0
VERTEX
  5
1170
  8
UMYVADLO
 10
0.0
 20
0.0
 30
0.0
 70
   128
 71
     6
 72
     9
 73
     8
  0
VERTEX
  5
1171
  8
UMYVADLO
 10
0.0
 20
0.0
 30
0.0
 70
   128
 71
    14
 72
    10
 73
     9
  0
VERTEX
  5
1172
  8
UMYVADLO
 10
0.0
 20
0.0
 30
0.0
 70
   128
 71
    14
 72
    11
 73
    10
  0
VERTEX
  5
1173
  8
UMYVADLO
 10
0.0
 20
0.0
 30
0.0
 70
   128
 71
    14
 72
    12
 73
    11
  0
VERTEX
  5
1174
  8
UMYVADLO
 10
0.0
 20
0.0
 30
0.0
 70
   128
 71
    14
 72
    13
 73
    12
  0
VERTEX
  5
1175
  8
UMYVADLO
 10
0.0
 20
0.0
 30
0.0
 70
   128
 71
     6
 72
     5
 73
    15
  0
VERTEX
  5
1176
  8
UMYVADLO
 10
0.0
 20
0.0
 30
0.0
 70
   128
 71
     6
 72
    15
 73
    14
  0
VERTEX
  5
1177
  8
UMYVADLO
 10
0.0
 20
0.0
 30
0.0
 70
   128
 71
     2
 72
     1
 73
    15
  0
VERTEX
  5
1178
  8
UMYVADLO
 10
0.0
 20
0.0
 30
0.0
 70
   128
 71
    15
 72
     5
 73
     3
  0
VERTEX
  5
1179
  8
UMYVADLO
 10
0.0
 20
0.0
 30
0.0
 70
   128
 71
    15
 72
     3
 73
     2
  0
VERTEX
  5
117A
  8
UMYVADLO
 10
0.0
 20
0.0
 30
0.0
 70
   128
 71
     5
 72
     4
 73
     3
  0
SEQEND
  5
1540
  8
UMYVADLO
  0
POLYLINE
  5
117B
  8
UMYVADLO
 66
     1
 10
0.0
 20
0.0
 30
0.0
 70
    64
 71
    12
 72
    10
  0
VERTEX
  5
117C
  8
UMYVADLO
 10
-65.39783655728657
 20
-289.4863517133728
 30
524.9310479793031
 70
   192
  0
VERTEX
  5
117D
  8
UMYVADLO
 10
-65.39783655728456
 20
-96.91689876539435
 30
524.9310479793023
 70
   192
  0
VERTEX
  5
117E
  8
UMYVADLO
 10
-65.3978365572829
 20
96.91689876538572
 30
524.9310479793027
 70
   192
  0
VERTEX
  5
117F
  8
UMYVADLO
 10
-65.39783655728085
 20
289.4863517133646
 30
524.931047979302
 70
   192
  0
VERTEX
  5
1180
  8
UMYVADLO
 10
-63.66144794833801
 20
289.7011358747841
 30
522.3378071000857
 70
   192
  0
VERTEX
  5
1181
  8
UMYVADLO
 10
-61.06985008948624
 20
289.8805553416769
 30
520.6084039197589
 70
   192
  0
VERTEX
  5
1182
  8
UMYVADLO
 10
-58.00990494588557
 20
289.9999999999959
 30
520.0000000000001
 70
   192
  0
VERTEX
  5
1183
  8
UMYVADLO
 10
-58.00990494588738
 20
96.66655129751263
 30
520.0000000000001
 70
   192
  0
VERTEX
  5
1184
  8
UMYVADLO
 10
-58.00990494588917
 20
-96.66656231152959
 30
520.0000000000001
 70
   192
  0
VERTEX
  5
1185
  8
UMYVADLO
 10
-58.00990494589087
 20
-290.000000000004
 30
520.0000000000001
 70
   192
  0
VERTEX
  5
1186
  8
UMYVADLO
 10
-61.06985008949243
 20
-289.8805553416822
 30
520.6084039197592
 70
   192
  0
VERTEX
  5
1187
  8
UMYVADLO
 10
-63.66144794834489
 20
-289.7011358747928
 30
522.3378071000875
 70
   192
  0
VERTEX
  5
1188
  8
UMYVADLO
 10
0.0
 20
0.0
 30
0.0
 70
   128
 71
     8
 72
     7
 73
    -6
  0
VERTEX
  5
1189
  8
UMYVADLO
 10
0.0
 20
0.0
 30
0.0
 70
   128
 71
     6
 72
   -11
 73
    -9
  0
VERTEX
  5
118A
  8
UMYVADLO
 10
0.0
 20
0.0
 30
0.0
 70
   128
 71
    -6
 72
     9
 73
    -8
  0
VERTEX
  5
118B
  8
UMYVADLO
 10
0.0
 20
0.0
 30
0.0
 70
   128
 71
    11
 72
    10
 73
    -9
  0
VERTEX
  5
118C
  8
UMYVADLO
 10
0.0
 20
0.0
 30
0.0
 70
   128
 71
     6
 72
     5
 73
   -12
  0
VERTEX
  5
118D
  8
UMYVADLO
 10
0.0
 20
0.0
 30
0.0
 70
   128
 71
    -6
 72
    12
 73
    11
  0
VERTEX
  5
118E
  8
UMYVADLO
 10
0.0
 20
0.0
 30
0.0
 70
   128
 71
     2
 72
     1
 73
   -12
  0
VERTEX
  5
118F
  8
UMYVADLO
 10
0.0
 20
0.0
 30
0.0
 70
   128
 71
    12
 72
    -5
 73
    -3
  0
VERTEX
  5
1190
  8
UMYVADLO
 10
0.0
 20
0.0
 30
0.0
 70
   128
 71
   -12
 72
     3
 73
    -2
  0
VERTEX
  5
1191
  8
UMYVADLO
 10
0.0
 20
0.0
 30
0.0
 70
   128
 71
     5
 72
     4
 73
    -3
  0
SEQEND
  5
1541
  8
UMYVADLO
  0
POLYLINE
  5
1192
  8
UMYVADLO
 66
     1
 10
0.0
 20
0.0
 30
0.0
 70
    64
 71
    15
 72
    13
  0
VERTEX
  5
1193
  8
UMYVADLO
 10
-74.59002449505401
 20
389.9999999999959
 30
620.0000000000001
 70
   192
  0
VERTEX
  5
1194
  8
UMYVADLO
 10
-68.6784643295359
 20
372.4639539851107
 30
573.1784715714838
 70
   192
  0
VERTEX
  5
1195
  8
UMYVADLO
 10
-62.66112712720193
 20
337.3150928093435
 30
537.4560882261826
 70
   192
  0
VERTEX
  5
1196
  8
UMYVADLO
 10
-57.98351949965367
 20
289.9999999999959
 30
520.0000000000001
 70
   192
  0
VERTEX
  5
1197
  8
UMYVADLO
 10
-57.99231464839767
 20
289.9998974496403
 30
520.0000000000001
 70
   192
  0
VERTEX
  5
1198
  8
UMYVADLO
 10
-58.00110979714164
 20
289.9998718120514
 30
520.0000000000001
 70
   192
  0
VERTEX
  5
1199
  8
UMYVADLO
 10
-58.00990494588557
 20
289.9999999999959
 30
520.0000000000001
 70
   192
  0
VERTEX
  5
119A
  8
UMYVADLO
 10
-61.06985008948624
 20
289.8805553416769
 30
520.6084039197589
 70
   192
  0
VERTEX
  5
119B
  8
UMYVADLO
 10
-63.66144794833801
 20
289.7011358747841
 30
522.3378071000857
 70
   192
  0
VERTEX
  5
119C
  8
UMYVADLO
 10
-65.39783655728085
 20
289.4863517133646
 30
524.931047979302
 70
   192
  0
VERTEX
  5
119D
  8
UMYVADLO
 10
-70.40660174756087
 20
333.0609008518815
 30
542.5108476855627
 70
   192
  0
VERTEX
  5
119E
  8
UMYVADLO
 10
-76.44519285183218
 20
365.6810116263962
 30
576.2045063228398
 70
   192
  0
VERTEX
  5
119F
  8
UMYVADLO
 10
-82.50000000000315
 20
382.0614031301701
 30
620.0000000000001
 70
   192
  0
VERTEX
  5
11A0
  8
UMYVADLO
 10
-81.45346937990112
 20
386.0281291337649
 30
620.0000000000001
 70
   192
  0
VERTEX
  5
11A1
  8
UMYVADLO
 10
-78.5614207154004
 20
388.938608629624
 30
620.0000000000001
 70
   192
  0
VERTEX
  5
11A2
  8
UMYVADLO
 10
0.0
 20
0.0
 30
0.0
 70
   128
 71
    11
 72
    10
 73
     9
  0
VERTEX
  5
11A3
  8
UMYVADLO
 10
0.0
 20
0.0
 30
0.0
 70
   128
 71
     9
 72
    14
 73
    12
  0
VERTEX
  5
11A4
  8
UMYVADLO
 10
0.0
 20
0.0
 30
0.0
 70
   128
 71
     9
 72
    12
 73
    11
  0
VERTEX
  5
11A5
  8
UMYVADLO
 10
0.0
 20
0.0
 30
0.0
 70
   128
 71
    14
 72
    13
 73
    12
  0
VERTEX
  5
11A6
  8
UMYVADLO
 10
0.0
 20
0.0
 30
0.0
 70
   128
 71
     9
 72
     8
 73
    15
  0
VERTEX
  5
11A7
  8
UMYVADLO
 10
0.0
 20
0.0
 30
0.0
 70
   128
 71
     9
 72
    15
 73
    14
  0
VERTEX
  5
11A8
  8
UMYVADLO
 10
0.0
 20
0.0
 30
0.0
 70
   128
 71
     2
 72
     1
 73
     5
  0
VERTEX
  5
11A9
  8
UMYVADLO
 10
0.0
 20
0.0
 30
0.0
 70
   128
 71
     5
 72
     3
 73
     2
  0
VERTEX
  5
11AA
  8
UMYVADLO
 10
0.0
 20
0.0
 30
0.0
 70
   128
 71
     5
 72
     4
 73
     3
  0
VERTEX
  5
11AB
  8
UMYVADLO
 10
0.0
 20
0.0
 30
0.0
 70
   128
 71
     1
 72
     6
 73
     5
  0
VERTEX
  5
11AC
  8
UMYVADLO
 10
0.0
 20
0.0
 30
0.0
 70
   128
 71
     1
 72
     7
 73
     6
  0
VERTEX
  5
11AD
  8
UMYVADLO
 10
0.0
 20
0.0
 30
0.0
 70
   128
 71
     1
 72
    15
 73
     8
  0
VERTEX
  5
11AE
  8
UMYVADLO
 10
0.0
 20
0.0
 30
0.0
 70
   128
 71
     1
 72
     8
 73
     7
  0
SEQEND
  5
1542
  8
UMYVADLO
  0
POLYLINE
  5
11AF
  8
UMYVADLO
 66
     1
 10
0.0
 20
0.0
 30
0.0
 70
    64
 71
    10
 72
     8
  0
VERTEX
  5
11B0
  8
UMYVADLO
 10
-125.0000000000026
 20
-0.0000000000021199
 30
609.9999999999973
 70
   192
  0
VERTEX
  5
11B1
  8
UMYVADLO
 10
-160.0000000000026
 20
-0.0000000000021197
 30
609.9999999999969
 70
   192
  0
VERTEX
  5
11B2
  8
UMYVADLO
 10
-160.0000000000026
 20
-0.0000000000021197
 30
620.0000000000001
 70
   192
  0
VERTEX
  5
11B3
  8
UMYVADLO
 10
-125.0000000000026
 20
-0.0000000000021218
 30
620.0000000000001
 70
   192
  0
VERTEX
  5
11B4
  8
UMYVADLO
 10
-142.5000000000026
 20
17.4999999999979
 30
620.0000000000001
 70
   192
  0
VERTEX
  5
11B5
  8
UMYVADLO
 10
-142.5000000000026
 20
17.49999999999789
 30
609.999999999997
 70
   192
  0
VERTEX
  5
11B6
  8
UMYVADLO
 10
-130.125631329238
 20
12.37436867076247
 30
620.0000000000001
 70
   192
  0
VERTEX
  5
11B7
  8
UMYVADLO
 10
-130.125631329238
 20
12.37436867076247
 30
609.9999999999972
 70
   192
  0
VERTEX
  5
11B8
  8
UMYVADLO
 10
-154.8743686707672
 20
12.37436867076247
 30
620.0000000000001
 70
   192
  0
VERTEX
  5
11B9
  8
UMYVADLO
 10
-154.8743686707672
 20
12.37436867076247
 30
609.9999999999969
 70
   192
  0
VERTEX
  5
11BA
  8
UMYVADLO
 10
0.0
 20
0.0
 30
0.0
 70
   128
 71
     8
 72
     1
 73
    -4
  0
VERTEX
  5
11BB
  8
UMYVADLO
 10
0.0
 20
0.0
 30
0.0
 70
   128
 71
     7
 72
    -8
 73
     4
  0
VERTEX
  5
11BC
  8
UMYVADLO
 10
0.0
 20
0.0
 30
0.0
 70
   128
 71
     6
 72
     8
 73
    -7
  0
VERTEX
  5
11BD
  8
UMYVADLO
 10
0.0
 20
0.0
 30
0.0
 70
   128
 71
     5
 72
    -6
 73
     7
  0
VERTEX
  5
11BE
  8
UMYVADLO
 10
0.0
 20
0.0
 30
0.0
 70
   128
 71
    10
 72
     6
 73
    -5
  0
VERTEX
  5
11BF
  8
UMYVADLO
 10
0.0
 20
0.0
 30
0.0
 70
   128
 71
     9
 72
   -10
 73
     5
  0
VERTEX
  5
11C0
  8
UMYVADLO
 10
0.0
 20
0.0
 30
0.0
 70
   128
 71
     3
 72
     2
 73
   -10
  0
VERTEX
  5
11C1
  8
UMYVADLO
 10
0.0
 20
0.0
 30
0.0
 70
   128
 71
     9
 72
    -3
 73
    10
  0
SEQEND
  5
1543
  8
UMYVADLO
  0
POLYLINE
  5
11C2
  8
UMYVADLO
 66
     1
 10
0.0
 20
0.0
 30
0.0
 70
    64
 71
     4
 72
     2
  0
VERTEX
  5
11C3
  8
UMYVADLO
 10
-202.500000000002
 20
372.5000000000007
 30
549.999999999999
 70
   192
  0
VERTEX
  5
11C4
  8
UMYVADLO
 10
-202.5000000000022
 20
372.5000000000006
 30
609.9999999999965
 70
   192
  0
VERTEX
  5
11C5
  8
UMYVADLO
 10
-107.5000000000026
 20
372.4999999999996
 30
609.9999999999975
 70
   192
  0
VERTEX
  5
11C6
  8
UMYVADLO
 10
-107.500000000002
 20
372.4999999999996
 30
550.0
 70
   192
  0
VERTEX
  5
11C7
  8
UMYVADLO
 10
0.0
 20
0.0
 30
0.0
 70
   128
 71
     1
 72
     4
 73
    -3
  0
VERTEX
  5
11C8
  8
UMYVADLO
 10
0.0
 20
0.0
 30
0.0
 70
   128
 71
    -1
 72
     3
 73
     2
  0
SEQEND
  5
1544
  8
UMYVADLO
  0
POLYLINE
  5
11C9
  8
UMYVADLO
 66
     1
 10
0.0
 20
0.0
 30
0.0
 70
    64
 71
     6
 72
     4
  0
VERTEX
  5
11CA
  8
UMYVADLO
 10
-202.5000000000102
 20
-352.4999999999994
 30
609.9999999999964
 70
   192
  0
VERTEX
  5
11CB
  8
UMYVADLO
 10
-202.5000000000101
 20
-352.4999999999994
 30
549.9999999999966
 70
   192
  0
VERTEX
  5
11CC
  8
UMYVADLO
 10
-162.5000000000095
 20
-352.4999999999998
 30
549.9999999999994
 70
   192
  0
VERTEX
  5
11CD
  8
UMYVADLO
 10
-162.500000000009
 20
-352.4999999999998
 30
489.9999999999969
 70
   192
  0
VERTEX
  5
11CE
  8
UMYVADLO
 10
-107.5000000000089
 20
-352.5000000000003
 30
489.9999999999974
 70
   192
  0
VERTEX
  5
11CF
  8
UMYVADLO
 10
-107.5000000000102
 20
-352.5000000000003
 30
609.9999999999974
 70
   192
  0
VERTEX
  5
11D0
  8
UMYVADLO
 10
0.0
 20
0.0
 30
0.0
 70
   128
 71
     3
 72
     2
 73
    -1
  0
VERTEX
  5
11D1
  8
UMYVADLO
 10
0.0
 20
0.0
 30
0.0
 70
   128
 71
    -3
 72
     1
 73
    -6
  0
VERTEX
  5
11D2
  8
UMYVADLO
 10
0.0
 20
0.0
 30
0.0
 70
   128
 71
     6
 72
     5
 73
    -4
  0
VERTEX
  5
11D3
  8
UMYVADLO
 10
0.0
 20
0.0
 30
0.0
 70
   128
 71
    -6
 72
     4
 73
    -3
  0
SEQEND
  5
1545
  8
UMYVADLO
  0
POLYLINE
  5
11D4
  8
UMYVADLO
 66
     1
 10
0.0
 20
0.0
 30
0.0
 70
    64
 71
    19
 72
    19
  0
VERTEX
  5
11D5
  8
UMYVADLO
 10
-107.5000000000019
 20
372.4999999999996
 30
549.9999999999987
 70
   192
  0
VERTEX
  5
11D6
  8
UMYVADLO
 10
-107.5000000000026
 20
372.4999999999996
 30
609.9999999999975
 70
   192
  0
VERTEX
  5
11D7
  8
UMYVADLO
 10
-107.5000000000102
 20
-352.5000000000003
 30
609.9999999999974
 70
   192
  0
VERTEX
  5
11D8
  8
UMYVADLO
 10
-107.5000000000089
 20
-352.5000000000004
 30
489.9999999999974
 70
   192
  0
VERTEX
  5
11D9
  8
UMYVADLO
 10
-107.5000000000078
 20
-254.0831239517776
 30
489.9999999999975
 70
   192
  0
VERTEX
  5
11DA
  8
UMYVADLO
 10
-107.500000000008
 20
-237.5000000000008
 30
514.999999999998
 70
   192
  0
VERTEX
  5
11DB
  8
UMYVADLO
 10
-107.5000000000031
 20
237.4999999999984
 30
514.9999999999989
 70
   192
  0
VERTEX
  5
11DC
  8
UMYVADLO
 10
-107.5000000000026
 20
254.0831239517761
 30
489.9999999999975
 70
   192
  0
VERTEX
  5
11DD
  8
UMYVADLO
 10
-107.5000000000014
 20
359.9999999999996
 30
489.9999999999975
 70
   192
  0
VERTEX
  5
11DE
  8
UMYVADLO
 10
-107.500000000002
 20
359.9999999999993
 30
550.0
 70
   192
  0
VERTEX
  5
11DF
  8
UMYVADLO
 10
-107.5000000000061
 20
-0.0000000000009232
 30
572.4999999999976
 70
   192
  0
VERTEX
  5
11E0
  8
UMYVADLO
 10
-107.5000000000062
 20
-8.838834764832686
 30
576.1611652351659
 70
   192
  0
VERTEX
  5
11E1
  8
UMYVADLO
 10
-107.5000000000063
 20
-12.50000000000075
 30
584.9999999999977
 70
   192
  0
VERTEX
  5
11E2
  8
UMYVADLO
 10
-107.5000000000064
 20
-8.838834764832573
 30
593.8388347648295
 70
   192
  0
VERTEX
  5
11E3
  8
UMYVADLO
 10
-107.5000000000064
 20
-0.0000000000007582
 30
597.4999999999976
 70
   192
  0
VERTEX
  5
11E4
  8
UMYVADLO
 10
-107.5000000000063
 20
7.34731565365518
 30
595.1127124296844
 70
   192
  0
VERTEX
  5
11E5
  8
UMYVADLO
 10
-107.5000000000061
 20
11.88820645368868
 30
588.8627124296844
 70
   192
  0
VERTEX
  5
11E6
  8
UMYVADLO
 10
-107.500000000006
 20
11.88820645368863
 30
581.1372875703107
 70
   192
  0
VERTEX
  5
11E7
  8
UMYVADLO
 10
-107.500000000006
 20
7.347315653655048
 30
574.8872875703107
 70
   192
  0
VERTEX
  5
11E8
  8
UMYVADLO
 10
0.0
 20
0.0
 30
0.0
 70
   128
 71
     6
 72
     5
 73
    -4
  0
VERTEX
  5
11E9
  8
UMYVADLO
 10
0.0
 20
0.0
 30
0.0
 70
   128
 71
    10
 72
     9
 73
    -8
  0
VERTEX
  5
11EA
  8
UMYVADLO
 10
0.0
 20
0.0
 30
0.0
 70
   128
 71
   -10
 72
     8
 73
    -7
  0
VERTEX
  5
11EB
  8
UMYVADLO
 10
0.0
 20
0.0
 30
0.0
 70
   128
 71
   -11
 72
     7
 73
    -6
  0
VERTEX
  5
11EC
  8
UMYVADLO
 10
0.0
 20
0.0
 30
0.0
 70
   128
 71
    -6
 72
    12
 73
   -11
  0
VERTEX
  5
11ED
  8
UMYVADLO
 10
0.0
 20
0.0
 30
0.0
 70
   128
 71
    -6
 72
     4
 73
    -3
  0
VERTEX
  5
11EE
  8
UMYVADLO
 10
0.0
 20
0.0
 30
0.0
 70
   128
 71
    -3
 72
    13
 73
   -12
  0
VERTEX
  5
11EF
  8
UMYVADLO
 10
0.0
 20
0.0
 30
0.0
 70
   128
 71
    -3
 72
   -12
 73
    -6
  0
VERTEX
  5
11F0
  8
UMYVADLO
 10
0.0
 20
0.0
 30
0.0
 70
   128
 71
    -3
 72
    14
 73
   -13
  0
VERTEX
  5
11F1
  8
UMYVADLO
 10
0.0
 20
0.0
 30
0.0
 70
   128
 71
    -3
 72
    15
 73
   -14
  0
VERTEX
  5
11F2
  8
UMYVADLO
 10
0.0
 20
0.0
 30
0.0
 70
   128
 71
   -15
 72
     3
 73
    -2
  0
VERTEX
  5
11F3
  8
UMYVADLO
 10
0.0
 20
0.0
 30
0.0
 70
   128
 71
    -2
 72
    16
 73
   -15
  0
VERTEX
  5
11F4
  8
UMYVADLO
 10
0.0
 20
0.0
 30
0.0
 70
   128
 71
    -2
 72
    17
 73
   -16
  0
VERTEX
  5
11F5
  8
UMYVADLO
 10
0.0
 20
0.0
 30
0.0
 70
   128
 71
    -2
 72
   -10
 73
    -7
  0
VERTEX
  5
11F6
  8
UMYVADLO
 10
0.0
 20
0.0
 30
0.0
 70
   128
 71
    -2
 72
    -7
 73
   -18
  0
VERTEX
  5
11F7
  8
UMYVADLO
 10
0.0
 20
0.0
 30
0.0
 70
   128
 71
    -2
 72
    18
 73
   -17
  0
VERTEX
  5
11F8
  8
UMYVADLO
 10
0.0
 20
0.0
 30
0.0
 70
   128
 71
    -7
 72
    19
 73
   -18
  0
VERTEX
  5
11F9
  8
UMYVADLO
 10
0.0
 20
0.0
 30
0.0
 70
   128
 71
    -7
 72
    11
 73
   -19
  0
VERTEX
  5
11FA
  8
UMYVADLO
 10
0.0
 20
0.0
 30
0.0
 70
   128
 71
     2
 72
     1
 73
   -10
  0
SEQEND
  5
1546
  8
UMYVADLO
  0
POLYLINE
  5
11FB
  8
UMYVADLO
 66
     1
 10
0.0
 20
0.0
 30
0.0
 70
    64
 71
    12
 72
    12
  0
VERTEX
  5
11FC
  8
UMYVADLO
 10
-202.5000000000026
 20
372.5000000000008
 30
609.9999999999965
 70
   192
  0
VERTEX
  5
11FD
  8
UMYVADLO
 10
-202.5000000000099
 20
-352.4999999999994
 30
609.9999999999964
 70
   192
  0
VERTEX
  5
11FE
  8
UMYVADLO
 10
-107.5000000000102
 20
-352.5000000000004
 30
609.9999999999974
 70
   192
  0
VERTEX
  5
11FF
  8
UMYVADLO
 10
-107.5000000000026
 20
372.4999999999997
 30
609.9999999999975
 70
   192
  0
VERTEX
  5
1200
  8
UMYVADLO
 10
-160.0000000000026
 20
-0.000000000002124
 30
609.9999999999968
 70
   192
  0
VERTEX
  5
1201
  8
UMYVADLO
 10
-154.8743686707672
 20
12.37436867076247
 30
609.9999999999969
 70
   192
  0
VERTEX
  5
1202
  8
UMYVADLO
 10
-142.5000000000026
 20
17.49999999999789
 30
609.999999999997
 70
   192
  0
VERTEX
  5
1203
  8
UMYVADLO
 10
-130.125631329238
 20
12.37436867076247
 30
609.9999999999972
 70
   192
  0
VERTEX
  5
1204
  8
UMYVADLO
 10
-125.0000000000026
 20
-0.0000000000021218
 30
609.9999999999973
 70
   192
  0
VERTEX
  5
1205
  8
UMYVADLO
 10
-130.125631329238
 20
-12.37436867076671
 30
609.9999999999972
 70
   192
  0
VERTEX
  5
1206
  8
UMYVADLO
 10
-142.5000000000026
 20
-17.50000000000214
 30
609.999999999997
 70
   192
  0
VERTEX
  5
1207
  8
UMYVADLO
 10
-154.8743686707672
 20
-12.37436867076672
 30
609.9999999999969
 70
   192
  0
VERTEX
  5
1208
  8
UMYVADLO
 10
0.0
 20
0.0
 30
0.0
 70
   128
 71
    -5
 72
     2
 73
    -1
  0
VERTEX
  5
1209
  8
UMYVADLO
 10
0.0
 20
0.0
 30
0.0
 70
   128
 71
    -1
 72
     6
 73
    -5
  0
VERTEX
  5
120A
  8
UMYVADLO
 10
0.0
 20
0.0
 30
0.0
 70
   128
 71
     1
 72
    -4
 73
    -7
  0
VERTEX
  5
120B
  8
UMYVADLO
 10
0.0
 20
0.0
 30
0.0
 70
   128
 71
    -1
 72
     7
 73
    -6
  0
VERTEX
  5
120C
  8
UMYVADLO
 10
0.0
 20
0.0
 30
0.0
 70
   128
 71
    -4
 72
     8
 73
    -7
  0
VERTEX
  5
120D
  8
UMYVADLO
 10
0.0
 20
0.0
 30
0.0
 70
   128
 71
    -4
 72
     9
 73
    -8
  0
VERTEX
  5
120E
  8
UMYVADLO
 10
0.0
 20
0.0
 30
0.0
 70
   128
 71
     4
 72
    -3
 73
    -9
  0
VERTEX
  5
120F
  8
UMYVADLO
 10
0.0
 20
0.0
 30
0.0
 70
   128
 71
    -3
 72
    10
 73
    -9
  0
VERTEX
  5
1210
  8
UMYVADLO
 10
0.0
 20
0.0
 30
0.0
 70
   128
 71
    -3
 72
    11
 73
   -10
  0
VERTEX
  5
1211
  8
UMYVADLO
 10
0.0
 20
0.0
 30
0.0
 70
   128
 71
     3
 72
    -2
 73
   -12
  0
VERTEX
  5
1212
  8
UMYVADLO
 10
0.0
 20
0.0
 30
0.0
 70
   128
 71
    -3
 72
    12
 73
   -11
  0
VERTEX
  5
1213
  8
UMYVADLO
 10
0.0
 20
0.0
 30
0.0
 70
   128
 71
    -2
 72
     5
 73
   -12
  0
SEQEND
  5
1547
  8
UMYVADLO
  0
POLYLINE
  5
1214
  8
UMYVADLO
 66
     1
 10
0.0
 20
0.0
 30
0.0
 70
    64
 71
    10
 72
     8
  0
VERTEX
  5
1215
  8
UMYVADLO
 10
94.99999999999739
 20
-0.0000000000021246
 30
500.0000000000009
 70
   192
  0
VERTEX
  5
1216
  8
UMYVADLO
 10
49.99999999999739
 20
-0.0000000000021191
 30
500.0000000000004
 70
   192
  0
VERTEX
  5
1217
  8
UMYVADLO
 10
49.99999999999739
 20
-0.0000000000021191
 30
509.9999999999999
 70
   192
  0
VERTEX
  5
1218
  8
UMYVADLO
 10
94.99999999999739
 20
-0.0000000000021218
 30
509.9999999999999
 70
   192
  0
VERTEX
  5
1219
  8
UMYVADLO
 10
72.49999999999739
 20
22.49999999999788
 30
509.9999999999999
 70
   192
  0
VERTEX
  5
121A
  8
UMYVADLO
 10
72.49999999999739
 20
22.49999999999788
 30
500.0000000000007
 70
   192
  0
VERTEX
  5
121B
  8
UMYVADLO
 10
88.4099025766947
 20
15.9099025766952
 30
509.9999999999999
 70
   192
  0
VERTEX
  5
121C
  8
UMYVADLO
 10
88.4099025766947
 20
15.90990257669519
 30
500.0000000000009
 70
   192
  0
VERTEX
  5
121D
  8
UMYVADLO
 10
56.59009742330007
 20
15.9099025766952
 30
509.9999999999999
 70
   192
  0
VERTEX
  5
121E
  8
UMYVADLO
 10
56.59009742330007
 20
15.9099025766952
 30
500.0000000000005
 70
   192
  0
VERTEX
  5
121F
  8
UMYVADLO
 10
0.0
 20
0.0
 30
0.0
 70
   128
 71
     8
 72
     1
 73
    -4
  0
VERTEX
  5
1220
  8
UMYVADLO
 10
0.0
 20
0.0
 30
0.0
 70
   128
 71
     7
 72
    -8
 73
     4
  0
VERTEX
  5
1221
  8
UMYVADLO
 10
0.0
 20
0.0
 30
0.0
 70
   128
 71
     6
 72
     8
 73
    -7
  0
VERTEX
  5
1222
  8
UMYVADLO
 10
0.0
 20
0.0
 30
0.0
 70
   128
 71
     5
 72
    -6
 73
     7
  0
VERTEX
  5
1223
  8
UMYVADLO
 10
0.0
 20
0.0
 30
0.0
 70
   128
 71
    10
 72
     6
 73
    -5
  0
VERTEX
  5
1224
  8
UMYVADLO
 10
0.0
 20
0.0
 30
0.0
 70
   128
 71
     9
 72
   -10
 73
     5
  0
VERTEX
  5
1225
  8
UMYVADLO
 10
0.0
 20
0.0
 30
0.0
 70
   128
 71
     3
 72
     2
 73
   -10
  0
VERTEX
  5
1226
  8
UMYVADLO
 10
0.0
 20
0.0
 30
0.0
 70
   128
 71
     9
 72
    -3
 73
    10
  0
SEQEND
  5
1548
  8
UMYVADLO
  0
POLYLINE
  5
1227
  8
UMYVADLO
 66
     1
 10
0.0
 20
0.0
 30
0.0
 70
    64
 71
    10
 72
     8
  0
VERTEX
  5
1228
  8
UMYVADLO
 10
94.99999999999739
 20
-0.0000000000021218
 30
509.9999999999999
 70
   192
  0
VERTEX
  5
1229
  8
UMYVADLO
 10
49.99999999999739
 20
-0.0000000000021191
 30
509.9999999999999
 70
   192
  0
VERTEX
  5
122A
  8
UMYVADLO
 10
32.49999999999695
 20
-0.0000000000021169
 30
520.0000000000001
 70
   192
  0
VERTEX
  5
122B
  8
UMYVADLO
 10
112.4999999999978
 20
-0.0000000000021218
 30
520.0000000000001
 70
   192
  0
VERTEX
  5
122C
  8
UMYVADLO
 10
72.49999999999739
 20
39.99999999999836
 30
520.0000000000001
 70
   192
  0
VERTEX
  5
122D
  8
UMYVADLO
 10
72.49999999999739
 20
22.49999999999788
 30
509.9999999999999
 70
   192
  0
VERTEX
  5
122E
  8
UMYVADLO
 10
100.7842712474596
 20
28.28427124746013
 30
520.0000000000001
 70
   192
  0
VERTEX
  5
122F
  8
UMYVADLO
 10
88.4099025766947
 20
15.9099025766952
 30
509.9999999999999
 70
   192
  0
VERTEX
  5
1230
  8
UMYVADLO
 10
44.21572875253514
 20
28.28427124746012
 30
520.0000000000001
 70
   192
  0
VERTEX
  5
1231
  8
UMYVADLO
 10
56.59009742330007
 20
15.9099025766952
 30
509.9999999999999
 70
   192
  0
VERTEX
  5
1232
  8
UMYVADLO
 10
0.0
 20
0.0
 30
0.0
 70
   128
 71
     8
 72
     1
 73
    -4
  0
VERTEX
  5
1233
  8
UMYVADLO
 10
0.0
 20
0.0
 30
0.0
 70
   128
 71
     7
 72
    -8
 73
     4
  0
VERTEX
  5
1234
  8
UMYVADLO
 10
0.0
 20
0.0
 30
0.0
 70
   128
 71
     6
 72
     8
 73
    -7
  0
VERTEX
  5
1235
  8
UMYVADLO
 10
0.0
 20
0.0
 30
0.0
 70
   128
 71
     5
 72
    -6
 73
     7
  0
VERTEX
  5
1236
  8
UMYVADLO
 10
0.0
 20
0.0
 30
0.0
 70
   128
 71
    10
 72
     6
 73
    -5
  0
VERTEX
  5
1237
  8
UMYVADLO
 10
0.0
 20
0.0
 30
0.0
 70
   128
 71
     9
 72
   -10
 73
     5
  0
VERTEX
  5
1238
  8
UMYVADLO
 10
0.0
 20
0.0
 30
0.0
 70
   128
 71
     3
 72
     2
 73
   -10
  0
VERTEX
  5
1239
  8
UMYVADLO
 10
0.0
 20
0.0
 30
0.0
 70
   128
 71
     9
 72
    -3
 73
    10
  0
SEQEND
  5
1549
  8
UMYVADLO
  0
POLYLINE
  5
123A
  8
UMYVADLO
 66
     1
 10
0.0
 20
0.0
 30
0.0
 70
    64
 71
    10
 72
     8
  0
VERTEX
  5
123B
  8
UMYVADLO
 10
-79.52828758088518
 20
-0.0000000000010259
 30
597.4999999999978
 70
   192
  0
VERTEX
  5
123C
  8
UMYVADLO
 10
-107.5000000000064
 20
-0.0000000000007582
 30
597.4999999999976
 70
   192
  0
VERTEX
  5
123D
  8
UMYVADLO
 10
-107.5000000000063
 20
7.34731565365518
 30
595.1127124296844
 70
   192
  0
VERTEX
  5
123E
  8
UMYVADLO
 10
-107.500000000006
 20
11.88820645368863
 30
581.1372875703107
 70
   192
  0
VERTEX
  5
123F
  8
UMYVADLO
 10
-107.500000000006
 20
7.347315653655048
 30
574.8872875703107
 70
   192
  0
VERTEX
  5
1240
  8
UMYVADLO
 10
-76.8355157591103
 20
10.83559450339358
 30
578.7676089477834
 70
   192
  0
VERTEX
  5
1241
  8
UMYVADLO
 10
-78.65199437381693
 20
10.84666595472796
 30
591.2131024912912
 70
   192
  0
VERTEX
  5
1242
  8
UMYVADLO
 10
-107.5000000000061
 20
11.88820645368868
 30
588.8627124296844
 70
   192
  0
VERTEX
  5
1243
  8
UMYVADLO
 10
-107.5000000000061
 20
-0.0000000000007566
 30
572.4999999999976
 70
   192
  0
VERTEX
  5
1244
  8
UMYVADLO
 10
-75.86941560304103
 20
-0.0000000000010884
 30
572.499999999998
 70
   192
  0
VERTEX
  5
1245
  8
UMYVADLO
 10
0.0
 20
0.0
 30
0.0
 70
   128
 71
     1
 72
     2
 73
     3
  0
VERTEX
  5
1246
  8
UMYVADLO
 10
0.0
 20
0.0
 30
0.0
 70
   128
 71
     4
 72
     5
 73
     6
  0
VERTEX
  5
1247
  8
UMYVADLO
 10
0.0
 20
0.0
 30
0.0
 70
   128
 71
     7
 72
     1
 73
     3
  0
VERTEX
  5
1248
  8
UMYVADLO
 10
0.0
 20
0.0
 30
0.0
 70
   128
 71
     8
 72
     7
 73
     3
  0
VERTEX
  5
1249
  8
UMYVADLO
 10
0.0
 20
0.0
 30
0.0
 70
   128
 71
     6
 72
     7
 73
     8
  0
VERTEX
  5
124A
  8
UMYVADLO
 10
0.0
 20
0.0
 30
0.0
 70
   128
 71
     4
 72
     6
 73
     8
  0
VERTEX
  5
124B
  8
UMYVADLO
 10
0.0
 20
0.0
 30
0.0
 70
   128
 71
     9
 72
    10
 73
     6
  0
VERTEX
  5
124C
  8
UMYVADLO
 10
0.0
 20
0.0
 30
0.0
 70
   128
 71
     5
 72
     9
 73
     6
  0
SEQEND
  5
154A
  8
UMYVADLO
  0
POLYLINE
  5
124D
  8
UMYVADLO
 66
     1
 10
0.0
 20
0.0
 30
0.0
 70
    64
 71
     8
 72
     6
  0
VERTEX
  5
124E
  8
UMYVADLO
 10
-192.5000000000026
 20
391.8301270189221
 30
629.9999999999992
 70
   192
  0
VERTEX
  5
124F
  8
UMYVADLO
 10
-194.3301270189248
 20
389.9999999999999
 30
629.9999999999992
 70
   192
  0
VERTEX
  5
1250
  8
UMYVADLO
 10
-194.3301270189248
 20
389.9999999999999
 30
620.0000000000001
 70
   192
  0
VERTEX
  5
1251
  8
UMYVADLO
 10
-192.5000000000026
 20
391.8301270189221
 30
620.0000000000001
 70
   192
  0
VERTEX
  5
1252
  8
UMYVADLO
 10
-195.0000000000026
 20
387.4999999999999
 30
629.9999999999992
 70
   192
  0
VERTEX
  5
1253
  8
UMYVADLO
 10
-195.0000000000026
 20
387.4999999999999
 30
620.0000000000001
 70
   192
  0
VERTEX
  5
1254
  8
UMYVADLO
 10
-190.0000000000026
 20
392.4999999999999
 30
630.0000000000001
 70
   192
  0
VERTEX
  5
1255
  8
UMYVADLO
 10
-190.0000000000026
 20
392.4999999999999
 30
620.0000000000001
 70
   192
  0
VERTEX
  5
1256
  8
UMYVADLO
 10
0.0
 20
0.0
 30
0.0
 70
   128
 71
     1
 72
     2
 73
    -3
  0
VERTEX
  5
1257
  8
UMYVADLO
 10
0.0
 20
0.0
 30
0.0
 70
   128
 71
     4
 72
    -1
 73
     3
  0
VERTEX
  5
1258
  8
UMYVADLO
 10
0.0
 20
0.0
 30
0.0
 70
   128
 71
     2
 72
     5
 73
    -6
  0
VERTEX
  5
1259
  8
UMYVADLO
 10
0.0
 20
0.0
 30
0.0
 70
   128
 71
     3
 72
    -2
 73
     6
  0
VERTEX
  5
125A
  8
UMYVADLO
 10
0.0
 20
0.0
 30
0.0
 70
   128
 71
     7
 72
     1
 73
    -4
  0
VERTEX
  5
125B
  8
UMYVADLO
 10
0.0
 20
0.0
 30
0.0
 70
   128
 71
     8
 72
    -7
 73
     4
  0
SEQEND
  5
154B
  8
UMYVADLO
  0
POLYLINE
  5
125C
  8
UMYVADLO
 66
     1
 10
0.0
 20
0.0
 30
0.0
 70
    64
 71
     8
 72
     6
  0
VERTEX
  5
125D
  8
UMYVADLO
 10
-194.330127018933
 20
-390.0000000000001
 30
629.9999999999965
 70
   192
  0
VERTEX
  5
125E
  8
UMYVADLO
 10
-192.5000000000108
 20
-391.8301270189223
 30
629.9999999999965
 70
   192
  0
VERTEX
  5
125F
  8
UMYVADLO
 10
-192.5000000000108
 20
-391.8301270189223
 30
620.0000000000001
 70
   192
  0
VERTEX
  5
1260
  8
UMYVADLO
 10
-194.330127018933
 20
-390.0000000000001
 30
620.0000000000001
 70
   192
  0
VERTEX
  5
1261
  8
UMYVADLO
 10
-190.0000000000108
 20
-392.5000000000001
 30
629.9999999999965
 70
   192
  0
VERTEX
  5
1262
  8
UMYVADLO
 10
-190.0000000000108
 20
-392.5000000000001
 30
620.0000000000001
 70
   192
  0
VERTEX
  5
1263
  8
UMYVADLO
 10
-195.0000000000107
 20
-387.5000000000001
 30
630.0000000000001
 70
   192
  0
VERTEX
  5
1264
  8
UMYVADLO
 10
-195.0000000000107
 20
-387.5000000000001
 30
620.0000000000001
 70
   192
  0
VERTEX
  5
1265
  8
UMYVADLO
 10
0.0
 20
0.0
 30
0.0
 70
   128
 71
     1
 72
     2
 73
    -3
  0
VERTEX
  5
1266
  8
UMYVADLO
 10
0.0
 20
0.0
 30
0.0
 70
   128
 71
     4
 72
    -1
 73
     3
  0
VERTEX
  5
1267
  8
UMYVADLO
 10
0.0
 20
0.0
 30
0.0
 70
   128
 71
     2
 72
     5
 73
    -6
  0
VERTEX
  5
1268
  8
UMYVADLO
 10
0.0
 20
0.0
 30
0.0
 70
   128
 71
     3
 72
    -2
 73
     6
  0
VERTEX
  5
1269
  8
UMYVADLO
 10
0.0
 20
0.0
 30
0.0
 70
   128
 71
     7
 72
     1
 73
    -4
  0
VERTEX
  5
126A
  8
UMYVADLO
 10
0.0
 20
0.0
 30
0.0
 70
   128
 71
     8
 72
    -7
 73
     4
  0
SEQEND
  5
154C
  8
UMYVADLO
  0
ENDBLK
  5
1516
  8
0
  0
BLOCK
  8
0
  2
*X10
 70
     1
 10
0.0
 20
0.0
 30
0.0
  3
*X10
  1

  0
POLYLINE
  5
126C
  8
MADLA
 66
     1
 10
0.0
 20
0.0
 30
0.0
 70
    64
 71
    10
 72
     8
  0
VERTEX
  5
126D
  8
MADLA
 10
203.4999999999997
 20
80.00000000000004
 30
531.0000000000027
 70
   192
  0
VERTEX
  5
126E
  8
MADLA
 10
203.4999999999997
 20
80.00000000000004
 30
536.0000000000027
 70
   192
  0
VERTEX
  5
126F
  8
MADLA
 10
201.4999999999997
 20
80.00000000000004
 30
536.0000000000027
 70
   192
  0
VERTEX
  5
1270
  8
MADLA
 10
201.4999999999997
 20
80.00000000000004
 30
531.0000000000027
 70
   192
  0
VERTEX
  5
1271
  8
MADLA
 10
201.4999999999997
 20
77.50000000000004
 30
533.5000000000027
 70
   192
  0
VERTEX
  5
1272
  8
MADLA
 10
203.4999999999997
 20
77.50000000000004
 30
533.5000000000027
 70
   192
  0
VERTEX
  5
1273
  8
MADLA
 10
201.4999999999997
 20
78.23223304703367
 30
531.7322330470364
 70
   192
  0
VERTEX
  5
1274
  8
MADLA
 10
203.4999999999997
 20
78.23223304703367
 30
531.7322330470364
 70
   192
  0
VERTEX
  5
1275
  8
MADLA
 10
201.4999999999997
 20
78.23223304703367
 30
535.267766952969
 70
   192
  0
VERTEX
  5
1276
  8
MADLA
 10
203.4999999999997
 20
78.23223304703367
 30
535.267766952969
 70
   192
  0
VERTEX
  5
1277
  8
MADLA
 10
0.0
 20
0.0
 30
0.0
 70
   128
 71
     8
 72
     1
 73
    -4
  0
VERTEX
  5
1278
  8
MADLA
 10
0.0
 20
0.0
 30
0.0
 70
   128
 71
     7
 72
    -8
 73
     4
  0
VERTEX
  5
1279
  8
MADLA
 10
0.0
 20
0.0
 30
0.0
 70
   128
 71
     6
 72
     8
 73
    -7
  0
VERTEX
  5
127A
  8
MADLA
 10
0.0
 20
0.0
 30
0.0
 70
   128
 71
     5
 72
    -6
 73
     7
  0
VERTEX
  5
127B
  8
MADLA
 10
0.0
 20
0.0
 30
0.0
 70
   128
 71
    10
 72
     6
 73
    -5
  0
VERTEX
  5
127C
  8
MADLA
 10
0.0
 20
0.0
 30
0.0
 70
   128
 71
     9
 72
   -10
 73
     5
  0
VERTEX
  5
127D
  8
MADLA
 10
0.0
 20
0.0
 30
0.0
 70
   128
 71
     2
 72
    10
 73
    -9
  0
VERTEX
  5
127E
  8
MADLA
 10
0.0
 20
0.0
 30
0.0
 70
   128
 71
     3
 72
    -2
 73
     9
  0
SEQEND
  5
154F
  8
MADLA
  0
POLYLINE
  5
127F
  8
MADLA
 66
     1
 10
0.0
 20
0.0
 30
0.0
 70
    64
 71
    10
 72
     8
  0
VERTEX
  5
1280
  8
MADLA
 10
203.5000000000002
 20
-79.99999999999996
 30
531.0000000000027
 70
   192
  0
VERTEX
  5
1281
  8
MADLA
 10
203.5000000000002
 20
-79.99999999999996
 30
536.0000000000027
 70
   192
  0
VERTEX
  5
1282
  8
MADLA
 10
201.5000000000002
 20
-79.99999999999996
 30
536.0000000000027
 70
   192
  0
VERTEX
  5
1283
  8
MADLA
 10
201.5000000000002
 20
-79.99999999999996
 30
531.0000000000027
 70
   192
  0
VERTEX
  5
1284
  8
MADLA
 10
201.5000000000002
 20
-82.49999999999996
 30
533.5000000000027
 70
   192
  0
VERTEX
  5
1285
  8
MADLA
 10
203.5000000000002
 20
-82.49999999999996
 30
533.5000000000027
 70
   192
  0
VERTEX
  5
1286
  8
MADLA
 10
201.5000000000002
 20
-81.76776695296633
 30
531.7322330470364
 70
   192
  0
VERTEX
  5
1287
  8
MADLA
 10
203.5000000000002
 20
-81.76776695296633
 30
531.7322330470364
 70
   192
  0
VERTEX
  5
1288
  8
MADLA
 10
201.5000000000002
 20
-81.76776695296633
 30
535.267766952969
 70
   192
  0
VERTEX
  5
1289
  8
MADLA
 10
203.5000000000002
 20
-81.76776695296633
 30
535.267766952969
 70
   192
  0
VERTEX
  5
128A
  8
MADLA
 10
0.0
 20
0.0
 30
0.0
 70
   128
 71
     8
 72
     1
 73
    -4
  0
VERTEX
  5
128B
  8
MADLA
 10
0.0
 20
0.0
 30
0.0
 70
   128
 71
     7
 72
    -8
 73
     4
  0
VERTEX
  5
128C
  8
MADLA
 10
0.0
 20
0.0
 30
0.0
 70
   128
 71
     6
 72
     8
 73
    -7
  0
VERTEX
  5
128D
  8
MADLA
 10
0.0
 20
0.0
 30
0.0
 70
   128
 71
     5
 72
    -6
 73
     7
  0
VERTEX
  5
128E
  8
MADLA
 10
0.0
 20
0.0
 30
0.0
 70
   128
 71
    10
 72
     6
 73
    -5
  0
VERTEX
  5
128F
  8
MADLA
 10
0.0
 20
0.0
 30
0.0
 70
   128
 71
     9
 72
   -10
 73
     5
  0
VERTEX
  5
1290
  8
MADLA
 10
0.0
 20
0.0
 30
0.0
 70
   128
 71
     2
 72
    10
 73
    -9
  0
VERTEX
  5
1291
  8
MADLA
 10
0.0
 20
0.0
 30
0.0
 70
   128
 71
     3
 72
    -2
 73
     9
  0
SEQEND
  5
1550
  8
MADLA
  0
POLYLINE
  5
1292
  8
MADLA
 66
     1
 10
0.0
 20
0.0
 30
0.0
 70
    64
 71
     4
 72
     2
  0
VERTEX
  5
1293
  8
MADLA
 10
222.0000000000001
 20
-100.0000000000001
 30
539.9999999999998
 70
   192
  0
VERTEX
  5
1294
  8
MADLA
 10
222.0000000000001
 20
100.0000000000006
 30
539.9999999999998
 70
   192
  0
VERTEX
  5
1295
  8
MADLA
 10
203.5000000000001
 20
100.0000000000006
 30
539.9999999999998
 70
   192
  0
VERTEX
  5
1296
  8
MADLA
 10
203.4999999999997
 20
-100.0000000000001
 30
539.9999999999998
 70
   192
  0
VERTEX
  5
1297
  8
MADLA
 10
0.0
 20
0.0
 30
0.0
 70
   128
 71
     1
 72
     4
 73
    -3
  0
VERTEX
  5
1298
  8
MADLA
 10
0.0
 20
0.0
 30
0.0
 70
   128
 71
    -1
 72
     3
 73
     2
  0
SEQEND
  5
1551
  8
MADLA
  0
POLYLINE
  5
1299
  8
MADLA
 66
     1
 10
0.0
 20
0.0
 30
0.0
 70
    64
 71
    20
 72
    22
  0
VERTEX
  5
129A
  8
MADLA
 10
203.5000000000002
 20
-100.0000000000001
 30
539.9999999999998
 70
   192
  0
VERTEX
  5
129B
  8
MADLA
 10
203.5000000000001
 20
100.0000000000006
 30
539.9999999999998
 70
   192
  0
VERTEX
  5
129C
  8
MADLA
 10
203.5000000000001
 20
100.0000000000006
 30
524.9999999999998
 70
   192
  0
VERTEX
  5
129D
  8
MADLA
 10
203.4999999999997
 20
-100.0000000000001
 30
524.9999999999998
 70
   192
  0
VERTEX
  5
129E
  8
MADLA
 10
203.5000000000002
 20
-79.99999999999996
 30
531.0000000000027
 70
   192
  0
VERTEX
  5
129F
  8
MADLA
 10
203.5000000000002
 20
-78.23223304703359
 30
531.7322330470364
 70
   192
  0
VERTEX
  5
12A0
  8
MADLA
 10
203.5000000000002
 20
-77.49999999999996
 30
533.5000000000027
 70
   192
  0
VERTEX
  5
12A1
  8
MADLA
 10
203.5000000000002
 20
-78.23223304703359
 30
535.267766952969
 70
   192
  0
VERTEX
  5
12A2
  8
MADLA
 10
203.5000000000002
 20
-79.99999999999996
 30
536.0000000000027
 70
   192
  0
VERTEX
  5
12A3
  8
MADLA
 10
203.5000000000002
 20
-81.76776695296633
 30
535.267766952969
 70
   192
  0
VERTEX
  5
12A4
  8
MADLA
 10
203.5000000000002
 20
-82.49999999999996
 30
533.5000000000027
 70
   192
  0
VERTEX
  5
12A5
  8
MADLA
 10
203.5000000000002
 20
-81.76776695296633
 30
531.7322330470364
 70
   192
  0
VERTEX
  5
12A6
  8
MADLA
 10
203.4999999999997
 20
80.00000000000004
 30
531.0000000000027
 70
   192
  0
VERTEX
  5
12A7
  8
MADLA
 10
203.4999999999997
 20
81.76776695296641
 30
531.7322330470364
 70
   192
  0
VERTEX
  5
12A8
  8
MADLA
 10
203.4999999999997
 20
82.50000000000004
 30
533.5000000000027
 70
   192
  0
VERTEX
  5
12A9
  8
MADLA
 10
203.4999999999997
 20
81.76776695296641
 30
535.267766952969
 70
   192
  0
VERTEX
  5
12AA
  8
MADLA
 10
203.4999999999997
 20
80.00000000000004
 30
536.0000000000027
 70
   192
  0
VERTEX
  5
12AB
  8
MADLA
 10
203.4999999999997
 20
78.23223304703367
 30
535.267766952969
 70
   192
  0
VERTEX
  5
12AC
  8
MADLA
 10
203.4999999999997
 20
77.50000000000004
 30
533.5000000000027
 70
   192
  0
VERTEX
  5
12AD
  8
MADLA
 10
203.4999999999997
 20
78.23223304703367
 30
531.7322330470364
 70
   192
  0
VERTEX
  5
12AE
  8
MADLA
 10
0.0
 20
0.0
 30
0.0
 70
   128
 71
    -5
 72
     4
 73
    -3
  0
VERTEX
  5
12AF
  8
MADLA
 10
0.0
 20
0.0
 30
0.0
 70
   128
 71
    -3
 72
     6
 73
    -5
  0
VERTEX
  5
12B0
  8
MADLA
 10
0.0
 20
0.0
 30
0.0
 70
   128
 71
    20
 72
   -19
 73
    -7
  0
VERTEX
  5
12B1
  8
MADLA
 10
0.0
 20
0.0
 30
0.0
 70
   128
 71
   -20
 72
     7
 73
    -6
  0
VERTEX
  5
12B2
  8
MADLA
 10
0.0
 20
0.0
 30
0.0
 70
   128
 71
    -6
 72
    13
 73
   -20
  0
VERTEX
  5
12B3
  8
MADLA
 10
0.0
 20
0.0
 30
0.0
 70
   128
 71
    -6
 72
    -3
 73
   -13
  0
VERTEX
  5
12B4
  8
MADLA
 10
0.0
 20
0.0
 30
0.0
 70
   128
 71
    14
 72
   -13
 73
    -3
  0
VERTEX
  5
12B5
  8
MADLA
 10
0.0
 20
0.0
 30
0.0
 70
   128
 71
     3
 72
    -2
 73
   -15
  0
VERTEX
  5
12B6
  8
MADLA
 10
0.0
 20
0.0
 30
0.0
 70
   128
 71
    -3
 72
    15
 73
   -14
  0
VERTEX
  5
12B7
  8
MADLA
 10
0.0
 20
0.0
 30
0.0
 70
   128
 71
    -2
 72
    16
 73
   -15
  0
VERTEX
  5
12B8
  8
MADLA
 10
0.0
 20
0.0
 30
0.0
 70
   128
 71
    -2
 72
    17
 73
   -16
  0
VERTEX
  5
12B9
  8
MADLA
 10
0.0
 20
0.0
 30
0.0
 70
   128
 71
   -17
 72
    -2
 73
    -8
  0
VERTEX
  5
12BA
  8
MADLA
 10
0.0
 20
0.0
 30
0.0
 70
   128
 71
    -8
 72
    18
 73
   -17
  0
VERTEX
  5
12BB
  8
MADLA
 10
0.0
 20
0.0
 30
0.0
 70
   128
 71
     8
 72
    -7
 73
   -19
  0
VERTEX
  5
12BC
  8
MADLA
 10
0.0
 20
0.0
 30
0.0
 70
   128
 71
    -8
 72
    19
 73
   -18
  0
VERTEX
  5
12BD
  8
MADLA
 10
0.0
 20
0.0
 30
0.0
 70
   128
 71
    -2
 72
     9
 73
    -8
  0
VERTEX
  5
12BE
  8
MADLA
 10
0.0
 20
0.0
 30
0.0
 70
   128
 71
     2
 72
    -1
 73
    -9
  0
VERTEX
  5
12BF
  8
MADLA
 10
0.0
 20
0.0
 30
0.0
 70
   128
 71
    -1
 72
    10
 73
    -9
  0
VERTEX
  5
12C0
  8
MADLA
 10
0.0
 20
0.0
 30
0.0
 70
   128
 71
    -1
 72
    11
 73
   -10
  0
VERTEX
  5
12C1
  8
MADLA
 10
0.0
 20
0.0
 30
0.0
 70
   128
 71
     1
 72
    -4
 73
   -12
  0
VERTEX
  5
12C2
  8
MADLA
 10
0.0
 20
0.0
 30
0.0
 70
   128
 71
    -1
 72
    12
 73
   -11
  0
VERTEX
  5
12C3
  8
MADLA
 10
0.0
 20
0.0
 30
0.0
 70
   128
 71
    -4
 72
     5
 73
   -12
  0
SEQEND
  5
1552
  8
MADLA
  0
POLYLINE
  5
12C4
  8
MADLA
 66
     1
 10
0.0
 20
0.0
 30
0.0
 70
    64
 71
     4
 72
     2
  0
VERTEX
  5
12C5
  8
MADLA
 10
203.5000000000002
 20
-100.0000000000001
 30
524.9999999999998
 70
   192
  0
VERTEX
  5
12C6
  8
MADLA
 10
203.5000000000001
 20
100.0000000000006
 30
524.9999999999998
 70
   192
  0
VERTEX
  5
12C7
  8
MADLA
 10
201.5000000000001
 20
100.0000000000006
 30
524.9999999999998
 70
   192
  0
VERTEX
  5
12C8
  8
MADLA
 10
201.4999999999997
 20
-100.0000000000001
 30
524.9999999999998
 70
   192
  0
VERTEX
  5
12C9
  8
MADLA
 10
0.0
 20
0.0
 30
0.0
 70
   128
 71
     1
 72
     4
 73
    -3
  0
VERTEX
  5
12CA
  8
MADLA
 10
0.0
 20
0.0
 30
0.0
 70
   128
 71
    -1
 72
     3
 73
     2
  0
SEQEND
  5
1553
  8
MADLA
  0
POLYLINE
  5
12CB
  8
MADLA
 66
     1
 10
0.0
 20
0.0
 30
0.0
 70
    64
 71
    20
 72
    22
  0
VERTEX
  5
12CC
  8
MADLA
 10
201.5000000000002
 20
-100.0000000000001
 30
524.9999999999998
 70
   192
  0
VERTEX
  5
12CD
  8
MADLA
 10
201.5000000000001
 20
100.0000000000006
 30
524.9999999999998
 70
   192
  0
VERTEX
  5
12CE
  8
MADLA
 10
201.5000000000001
 20
100.0000000000006
 30
542.0000000000049
 70
   192
  0
VERTEX
  5
12CF
  8
MADLA
 10
201.4999999999997
 20
-100.0000000000001
 30
542.0000000000049
 70
   192
  0
VERTEX
  5
12D0
  8
MADLA
 10
201.5000000000002
 20
-79.99999999999996
 30
531.0000000000027
 70
   192
  0
VERTEX
  5
12D1
  8
MADLA
 10
201.5000000000002
 20
-81.76776695296633
 30
531.7322330470364
 70
   192
  0
VERTEX
  5
12D2
  8
MADLA
 10
201.5000000000002
 20
-82.49999999999996
 30
533.5000000000027
 70
   192
  0
VERTEX
  5
12D3
  8
MADLA
 10
201.5000000000002
 20
-81.76776695296633
 30
535.267766952969
 70
   192
  0
VERTEX
  5
12D4
  8
MADLA
 10
201.5000000000002
 20
-79.99999999999996
 30
536.0000000000027
 70
   192
  0
VERTEX
  5
12D5
  8
MADLA
 10
201.5000000000002
 20
-78.23223304703359
 30
535.267766952969
 70
   192
  0
VERTEX
  5
12D6
  8
MADLA
 10
201.5000000000002
 20
-77.49999999999996
 30
533.5000000000027
 70
   192
  0
VERTEX
  5
12D7
  8
MADLA
 10
201.5000000000002
 20
-78.23223304703359
 30
531.7322330470364
 70
   192
  0
VERTEX
  5
12D8
  8
MADLA
 10
201.4999999999997
 20
80.00000000000004
 30
531.0000000000027
 70
   192
  0
VERTEX
  5
12D9
  8
MADLA
 10
201.4999999999997
 20
78.23223304703367
 30
531.7322330470364
 70
   192
  0
VERTEX
  5
12DA
  8
MADLA
 10
201.4999999999997
 20
77.50000000000004
 30
533.5000000000027
 70
   192
  0
VERTEX
  5
12DB
  8
MADLA
 10
201.4999999999997
 20
78.23223304703367
 30
535.267766952969
 70
   192
  0
VERTEX
  5
12DC
  8
MADLA
 10
201.4999999999997
 20
80.00000000000004
 30
536.0000000000027
 70
   192
  0
VERTEX
  5
12DD
  8
MADLA
 10
201.4999999999997
 20
81.76776695296641
 30
535.267766952969
 70
   192
  0
VERTEX
  5
12DE
  8
MADLA
 10
201.4999999999997
 20
82.50000000000004
 30
533.5000000000027
 70
   192
  0
VERTEX
  5
12DF
  8
MADLA
 10
201.4999999999997
 20
81.76776695296641
 30
531.7322330470364
 70
   192
  0
VERTEX
  5
12E0
  8
MADLA
 10
0.0
 20
0.0
 30
0.0
 70
   128
 71
     6
 72
    -5
 73
    -1
  0
VERTEX
  5
12E1
  8
MADLA
 10
0.0
 20
0.0
 30
0.0
 70
   128
 71
     1
 72
    -4
 73
    -7
  0
VERTEX
  5
12E2
  8
MADLA
 10
0.0
 20
0.0
 30
0.0
 70
   128
 71
    -1
 72
     7
 73
    -6
  0
VERTEX
  5
12E3
  8
MADLA
 10
0.0
 20
0.0
 30
0.0
 70
   128
 71
    -4
 72
     8
 73
    -7
  0
VERTEX
  5
12E4
  8
MADLA
 10
0.0
 20
0.0
 30
0.0
 70
   128
 71
    -4
 72
     9
 73
    -8
  0
VERTEX
  5
12E5
  8
MADLA
 10
0.0
 20
0.0
 30
0.0
 70
   128
 71
    -9
 72
     4
 73
    -3
  0
VERTEX
  5
12E6
  8
MADLA
 10
0.0
 20
0.0
 30
0.0
 70
   128
 71
    -3
 72
    10
 73
    -9
  0
VERTEX
  5
12E7
  8
MADLA
 10
0.0
 20
0.0
 30
0.0
 70
   128
 71
    16
 72
   -15
 73
   -11
  0
VERTEX
  5
12E8
  8
MADLA
 10
0.0
 20
0.0
 30
0.0
 70
   128
 71
   -16
 72
    11
 73
   -10
  0
VERTEX
  5
12E9
  8
MADLA
 10
0.0
 20
0.0
 30
0.0
 70
   128
 71
   -10
 72
    17
 73
   -16
  0
VERTEX
  5
12EA
  8
MADLA
 10
0.0
 20
0.0
 30
0.0
 70
   128
 71
   -10
 72
    -3
 73
   -17
  0
VERTEX
  5
12EB
  8
MADLA
 10
0.0
 20
0.0
 30
0.0
 70
   128
 71
    -3
 72
    18
 73
   -17
  0
VERTEX
  5
12EC
  8
MADLA
 10
0.0
 20
0.0
 30
0.0
 70
   128
 71
    -3
 72
    19
 73
   -18
  0
VERTEX
  5
12ED
  8
MADLA
 10
0.0
 20
0.0
 30
0.0
 70
   128
 71
     3
 72
    -2
 73
   -20
  0
VERTEX
  5
12EE
  8
MADLA
 10
0.0
 20
0.0
 30
0.0
 70
   128
 71
    -3
 72
    20
 73
   -19
  0
VERTEX
  5
12EF
  8
MADLA
 10
0.0
 20
0.0
 30
0.0
 70
   128
 71
    -2
 72
    13
 73
   -20
  0
VERTEX
  5
12F0
  8
MADLA
 10
0.0
 20
0.0
 30
0.0
 70
   128
 71
   -13
 72
    -2
 73
   -12
  0
VERTEX
  5
12F1
  8
MADLA
 10
0.0
 20
0.0
 30
0.0
 70
   128
 71
   -12
 72
    14
 73
   -13
  0
VERTEX
  5
12F2
  8
MADLA
 10
0.0
 20
0.0
 30
0.0
 70
   128
 71
    12
 72
   -11
 73
   -15
  0
VERTEX
  5
12F3
  8
MADLA
 10
0.0
 20
0.0
 30
0.0
 70
   128
 71
   -12
 72
    15
 73
   -14
  0
VERTEX
  5
12F4
  8
MADLA
 10
0.0
 20
0.0
 30
0.0
 70
   128
 71
    -2
 72
     5
 73
   -12
  0
VERTEX
  5
12F5
  8
MADLA
 10
0.0
 20
0.0
 30
0.0
 70
   128
 71
     2
 72
    -1
 73
    -5
  0
SEQEND
  5
1554
  8
MADLA
  0
POLYLINE
  5
12F6
  8
MADLA
 66
     1
 10
0.0
 20
0.0
 30
0.0
 70
    64
 71
     4
 72
     2
  0
VERTEX
  5
12F7
  8
MADLA
 10
201.5000000000002
 20
-100.0000000000001
 30
542.0000000000049
 70
   192
  0
VERTEX
  5
12F8
  8
MADLA
 10
201.5000000000001
 20
100.0000000000006
 30
542.0000000000049
 70
   192
  0
VERTEX
  5
12F9
  8
MADLA
 10
228.6499999999914
 20
100.0000000000006
 30
542.0000000000049
 70
   192
  0
VERTEX
  5
12FA
  8
MADLA
 10
228.649999999991
 20
-100.0000000000001
 30
542.0000000000049
 70
   192
  0
VERTEX
  5
12FB
  8
MADLA
 10
0.0
 20
0.0
 30
0.0
 70
   128
 71
     1
 72
     4
 73
    -3
  0
VERTEX
  5
12FC
  8
MADLA
 10
0.0
 20
0.0
 30
0.0
 70
   128
 71
    -1
 72
     3
 73
     2
  0
SEQEND
  5
1555
  8
MADLA
  0
POLYLINE
  5
12FD
  8
MADLA
 66
     1
 10
0.0
 20
0.0
 30
0.0
 70
    64
 71
     8
 72
     6
  0
VERTEX
  5
12FE
  8
MADLA
 10
239.1927461144238
 20
-100.0000000000001
 30
536.6059519040547
 70
   192
  0
VERTEX
  5
12FF
  8
MADLA
 10
239.1927461144242
 20
100.0000000000006
 30
536.6059519040547
 70
   192
  0
VERTEX
  5
1300
  8
MADLA
 10
234.571259378173
 20
100.0000000000006
 30
540.5731882978044
 70
   192
  0
VERTEX
  5
1301
  8
MADLA
 10
234.5712593781726
 20
-100.0000000000001
 30
540.5731882978044
 70
   192
  0
VERTEX
  5
1302
  8
MADLA
 10
241.4999999999998
 20
-100.0000000000001
 30
530.9691368667545
 70
   192
  0
VERTEX
  5
1303
  8
MADLA
 10
241.5000000000002
 20
100.0000000000006
 30
530.9691368667545
 70
   192
  0
VERTEX
  5
1304
  8
MADLA
 10
228.6499999999914
 20
100.0000000000006
 30
542.0000000000049
 70
   192
  0
VERTEX
  5
1305
  8
MADLA
 10
228.6499999999915
 20
-100.0000000000001
 30
542.0000000000049
 70
   192
  0
VERTEX
  5
1306
  8
MADLA
 10
0.0
 20
0.0
 30
0.0
 70
   128
 71
     1
 72
     2
 73
    -3
  0
VERTEX
  5
1307
  8
MADLA
 10
0.0
 20
0.0
 30
0.0
 70
   128
 71
    -1
 72
     3
 73
     4
  0
VERTEX
  5
1308
  8
MADLA
 10
0.0
 20
0.0
 30
0.0
 70
   128
 71
     5
 72
     6
 73
    -2
  0
VERTEX
  5
1309
  8
MADLA
 10
0.0
 20
0.0
 30
0.0
 70
   128
 71
    -5
 72
     2
 73
     1
  0
VERTEX
  5
130A
  8
MADLA
 10
0.0
 20
0.0
 30
0.0
 70
   128
 71
     4
 72
     3
 73
    -7
  0
VERTEX
  5
130B
  8
MADLA
 10
0.0
 20
0.0
 30
0.0
 70
   128
 71
    -4
 72
     7
 73
     8
  0
SEQEND
  5
1556
  8
MADLA
  0
POLYLINE
  5
130C
  8
MADLA
 66
     1
 10
0.0
 20
0.0
 30
0.0
 70
    64
 71
     4
 72
     2
  0
VERTEX
  5
130D
  8
MADLA
 10
241.5000000000002
 20
-100.0000000000003
 30
530.9691368667545
 70
   192
  0
VERTEX
  5
130E
  8
MADLA
 10
241.5000000000002
 20
100.0000000000006
 30
530.9691368667545
 70
   192
  0
VERTEX
  5
130F
  8
MADLA
 10
237.4173578529671
 20
100.0000000000006
 30
530.249256903655
 70
   192
  0
VERTEX
  5
1310
  8
MADLA
 10
237.4173578529667
 20
-100.0000000000003
 30
530.249256903655
 70
   192
  0
VERTEX
  5
1311
  8
MADLA
 10
0.0
 20
0.0
 30
0.0
 70
   128
 71
     1
 72
     4
 73
    -3
  0
VERTEX
  5
1312
  8
MADLA
 10
0.0
 20
0.0
 30
0.0
 70
   128
 71
    -1
 72
     3
 73
     2
  0
SEQEND
  5
1557
  8
MADLA
  0
POLYLINE
  5
1313
  8
MADLA
 66
     1
 10
0.0
 20
0.0
 30
0.0
 70
    64
 71
     8
 72
     6
  0
VERTEX
  5
1314
  8
MADLA
 10
235.7672649981199
 20
-100.0000000000003
 30
530.7014004063604
 70
   192
  0
VERTEX
  5
1315
  8
MADLA
 10
235.7672649981203
 20
100.0000000000006
 30
530.7014004063604
 70
   192
  0
VERTEX
  5
1316
  8
MADLA
 10
236.5415224090681
 20
100.0000000000006
 30
530.2899746851075
 70
   192
  0
VERTEX
  5
1317
  8
MADLA
 10
236.5415224090677
 20
-100.0000000000003
 30
530.2899746851075
 70
   192
  0
VERTEX
  5
1318
  8
MADLA
 10
235.2433873767075
 20
-100.0000000000003
 30
531.4044636327486
 70
   192
  0
VERTEX
  5
1319
  8
MADLA
 10
235.243387376708
 20
100.0000000000006
 30
531.4044636327486
 70
   192
  0
VERTEX
  5
131A
  8
MADLA
 10
237.4173578529671
 20
100.0000000000006
 30
530.249256903655
 70
   192
  0
VERTEX
  5
131B
  8
MADLA
 10
237.4173578529671
 20
-100.0000000000003
 30
530.249256903655
 70
   192
  0
VERTEX
  5
131C
  8
MADLA
 10
0.0
 20
0.0
 30
0.0
 70
   128
 71
     1
 72
     2
 73
    -3
  0
VERTEX
  5
131D
  8
MADLA
 10
0.0
 20
0.0
 30
0.0
 70
   128
 71
    -1
 72
     3
 73
     4
  0
VERTEX
  5
131E
  8
MADLA
 10
0.0
 20
0.0
 30
0.0
 70
   128
 71
     5
 72
     6
 73
    -2
  0
VERTEX
  5
131F
  8
MADLA
 10
0.0
 20
0.0
 30
0.0
 70
   128
 71
    -5
 72
     2
 73
     1
  0
VERTEX
  5
1320
  8
MADLA
 10
0.0
 20
0.0
 30
0.0
 70
   128
 71
     4
 72
     3
 73
    -7
  0
VERTEX
  5
1321
  8
MADLA
 10
0.0
 20
0.0
 30
0.0
 70
   128
 71
    -4
 72
     7
 73
     8
  0
SEQEND
  5
1558
  8
MADLA
  0
POLYLINE
  5
1322
  8
MADLA
 66
     1
 10
0.0
 20
0.0
 30
0.0
 70
    64
 71
     8
 72
     6
  0
VERTEX
  5
1323
  8
MADLA
 10
227.4295007431231
 20
100.0000000000006
 30
538.9450928475939
 70
   192
  0
VERTEX
  5
1324
  8
MADLA
 10
232.0689850492925
 20
100.0000000000006
 30
535.9338650593689
 70
   192
  0
VERTEX
  5
1325
  8
MADLA
 10
232.0689850492921
 20
-100.0000000000001
 30
535.9338650593689
 70
   192
  0
VERTEX
  5
1326
  8
MADLA
 10
227.4295007431227
 20
-100.0000000000001
 30
538.9450928475939
 70
   192
  0
VERTEX
  5
1327
  8
MADLA
 10
235.2433873767079
 20
100.0000000000006
 30
531.4044636327486
 70
   192
  0
VERTEX
  5
1328
  8
MADLA
 10
235.2433873767075
 20
-100.0000000000001
 30
531.4044636327486
 70
   192
  0
VERTEX
  5
1329
  8
MADLA
 10
222.0000000000001
 20
100.0000000000006
 30
539.9999999999998
 70
   192
  0
VERTEX
  5
132A
  8
MADLA
 10
221.9999999999997
 20
-100.0000000000001
 30
539.9999999999998
 70
   192
  0
VERTEX
  5
132B
  8
MADLA
 10
0.0
 20
0.0
 30
0.0
 70
   128
 71
     1
 72
     2
 73
    -3
  0
VERTEX
  5
132C
  8
MADLA
 10
0.0
 20
0.0
 30
0.0
 70
   128
 71
     4
 72
    -1
 73
     3
  0
VERTEX
  5
132D
  8
MADLA
 10
0.0
 20
0.0
 30
0.0
 70
   128
 71
     2
 72
     5
 73
    -6
  0
VERTEX
  5
132E
  8
MADLA
 10
0.0
 20
0.0
 30
0.0
 70
   128
 71
     3
 72
    -2
 73
     6
  0
VERTEX
  5
132F
  8
MADLA
 10
0.0
 20
0.0
 30
0.0
 70
   128
 71
     7
 72
     1
 73
    -4
  0
VERTEX
  5
1330
  8
MADLA
 10
0.0
 20
0.0
 30
0.0
 70
   128
 71
     8
 72
    -7
 73
     4
  0
SEQEND
  5
1559
  8
MADLA
  0
POLYLINE
  5
1331
  8
MADLA
 66
     1
 10
0.0
 20
0.0
 30
0.0
 70
    64
 71
    15
 72
    13
  0
VERTEX
  5
1332
  8
MADLA
 10
222.0000000000001
 20
100.0000000000006
 30
539.9999999999998
 70
   192
  0
VERTEX
  5
1333
  8
MADLA
 10
203.5000000000001
 20
100.0000000000006
 30
539.9999999999998
 70
   192
  0
VERTEX
  5
1334
  8
MADLA
 10
203.5000000000001
 20
100.0000000000006
 30
524.9999999999998
 70
   192
  0
VERTEX
  5
1335
  8
MADLA
 10
201.5000000000001
 20
100.0000000000006
 30
524.9999999999998
 70
   192
  0
VERTEX
  5
1336
  8
MADLA
 10
201.5000000000001
 20
100.0000000000006
 30
542.0000000000049
 70
   192
  0
VERTEX
  5
1337
  8
MADLA
 10
228.6499999999914
 20
100.0000000000006
 30
542.0000000000049
 70
   192
  0
VERTEX
  5
1338
  8
MADLA
 10
234.571259378173
 20
100.0000000000006
 30
540.5731882978044
 70
   192
  0
VERTEX
  5
1339
  8
MADLA
 10
239.1927461144242
 20
100.0000000000006
 30
536.6059519040547
 70
   192
  0
VERTEX
  5
133A
  8
MADLA
 10
241.5000000000002
 20
100.0000000000006
 30
530.9691368667545
 70
   192
  0
VERTEX
  5
133B
  8
MADLA
 10
237.4173578529671
 20
100.0000000000006
 30
530.249256903655
 70
   192
  0
VERTEX
  5
133C
  8
MADLA
 10
236.5415224090681
 20
100.0000000000006
 30
530.2899746851075
 70
   192
  0
VERTEX
  5
133D
  8
MADLA
 10
235.7672649981203
 20
100.0000000000006
 30
530.7014004063604
 70
   192
  0
VERTEX
  5
133E
  8
MADLA
 10
235.2433873767079
 20
100.0000000000006
 30
531.4044636327486
 70
   192
  0
VERTEX
  5
133F
  8
MADLA
 10
232.0689850492925
 20
100.0000000000006
 30
535.9338650593689
 70
   192
  0
VERTEX
  5
1340
  8
MADLA
 10
227.4295007431231
 20
100.0000000000006
 30
538.9450928475939
 70
   192
  0
VERTEX
  5
1341
  8
MADLA
 10
0.0
 20
0.0
 30
0.0
 70
   128
 71
    11
 72
    12
 73
   -13
  0
VERTEX
  5
1342
  8
MADLA
 10
0.0
 20
0.0
 30
0.0
 70
   128
 71
    10
 72
   -11
 73
   -13
  0
VERTEX
  5
1343
  8
MADLA
 10
0.0
 20
0.0
 30
0.0
 70
   128
 71
     9
 72
   -10
 73
   -13
  0
VERTEX
  5
1344
  8
MADLA
 10
0.0
 20
0.0
 30
0.0
 70
   128
 71
     7
 72
     8
 73
    -9
  0
VERTEX
  5
1345
  8
MADLA
 10
0.0
 20
0.0
 30
0.0
 70
   128
 71
   -14
 72
    -7
 73
    -9
  0
VERTEX
  5
1346
  8
MADLA
 10
0.0
 20
0.0
 30
0.0
 70
   128
 71
    13
 72
   -14
 73
    -9
  0
VERTEX
  5
1347
  8
MADLA
 10
0.0
 20
0.0
 30
0.0
 70
   128
 71
   -15
 72
     6
 73
    -7
  0
VERTEX
  5
1348
  8
MADLA
 10
0.0
 20
0.0
 30
0.0
 70
   128
 71
    14
 72
   -15
 73
    -7
  0
VERTEX
  5
1349
  8
MADLA
 10
0.0
 20
0.0
 30
0.0
 70
   128
 71
    15
 72
    -1
 73
    -6
  0
VERTEX
  5
134A
  8
MADLA
 10
0.0
 20
0.0
 30
0.0
 70
   128
 71
    -6
 72
     1
 73
    -2
  0
VERTEX
  5
134B
  8
MADLA
 10
0.0
 20
0.0
 30
0.0
 70
   128
 71
     5
 72
    -6
 73
    -2
  0
VERTEX
  5
134C
  8
MADLA
 10
0.0
 20
0.0
 30
0.0
 70
   128
 71
     3
 72
     4
 73
    -5
  0
VERTEX
  5
134D
  8
MADLA
 10
0.0
 20
0.0
 30
0.0
 70
   128
 71
     2
 72
    -3
 73
    -5
  0
SEQEND
  5
155A
  8
MADLA
  0
POLYLINE
  5
134E
  8
MADLA
 66
     1
 10
0.0
 20
0.0
 30
0.0
 70
    64
 71
    15
 72
    13
  0
VERTEX
  5
134F
  8
MADLA
 10
203.4999999999997
 20
-100.0000000000001
 30
539.9999999999998
 70
   192
  0
VERTEX
  5
1350
  8
MADLA
 10
203.4999999999997
 20
-100.0000000000001
 30
524.9999999999998
 70
   192
  0
VERTEX
  5
1351
  8
MADLA
 10
201.4999999999997
 20
-100.0000000000001
 30
524.9999999999998
 70
   192
  0
VERTEX
  5
1352
  8
MADLA
 10
201.4999999999997
 20
-100.0000000000001
 30
542.0000000000049
 70
   192
  0
VERTEX
  5
1353
  8
MADLA
 10
228.649999999991
 20
-100.0000000000001
 30
542.0000000000049
 70
   192
  0
VERTEX
  5
1354
  8
MADLA
 10
234.5712593781726
 20
-100.0000000000001
 30
540.5731882978044
 70
   192
  0
VERTEX
  5
1355
  8
MADLA
 10
239.1927461144238
 20
-100.0000000000001
 30
536.6059519040547
 70
   192
  0
VERTEX
  5
1356
  8
MADLA
 10
241.4999999999998
 20
-100.0000000000003
 30
530.9691368667545
 70
   192
  0
VERTEX
  5
1357
  8
MADLA
 10
237.4173578529667
 20
-100.0000000000003
 30
530.249256903655
 70
   192
  0
VERTEX
  5
1358
  8
MADLA
 10
236.5415224090677
 20
-100.0000000000003
 30
530.2899746851075
 70
   192
  0
VERTEX
  5
1359
  8
MADLA
 10
235.7672649981199
 20
-100.0000000000003
 30
530.7014004063604
 70
   192
  0
VERTEX
  5
135A
  8
MADLA
 10
235.2433873767075
 20
-100.0000000000001
 30
531.4044636327486
 70
   192
  0
VERTEX
  5
135B
  8
MADLA
 10
232.0689850492921
 20
-100.0000000000001
 30
535.9338650593689
 70
   192
  0
VERTEX
  5
135C
  8
MADLA
 10
227.4295007431227
 20
-100.0000000000001
 30
538.9450928475939
 70
   192
  0
VERTEX
  5
135D
  8
MADLA
 10
221.9999999999997
 20
-100.0000000000001
 30
539.9999999999998
 70
   192
  0
VERTEX
  5
135E
  8
MADLA
 10
0.0
 20
0.0
 30
0.0
 70
   128
 71
    12
 72
    11
 73
   -10
  0
VERTEX
  5
135F
  8
MADLA
 10
0.0
 20
0.0
 30
0.0
 70
   128
 71
   -12
 72
    10
 73
    -9
  0
VERTEX
  5
1360
  8
MADLA
 10
0.0
 20
0.0
 30
0.0
 70
   128
 71
   -12
 72
     9
 73
    -8
  0
VERTEX
  5
1361
  8
MADLA
 10
0.0
 20
0.0
 30
0.0
 70
   128
 71
     8
 72
     7
 73
    -6
  0
VERTEX
  5
1362
  8
MADLA
 10
0.0
 20
0.0
 30
0.0
 70
   128
 71
    -8
 72
    -6
 73
   -13
  0
VERTEX
  5
1363
  8
MADLA
 10
0.0
 20
0.0
 30
0.0
 70
   128
 71
    -8
 72
    13
 73
   -12
  0
VERTEX
  5
1364
  8
MADLA
 10
0.0
 20
0.0
 30
0.0
 70
   128
 71
     6
 72
    -5
 73
   -14
  0
VERTEX
  5
1365
  8
MADLA
 10
0.0
 20
0.0
 30
0.0
 70
   128
 71
    -6
 72
    14
 73
   -13
  0
VERTEX
  5
1366
  8
MADLA
 10
0.0
 20
0.0
 30
0.0
 70
   128
 71
    -5
 72
    15
 73
   -14
  0
VERTEX
  5
1367
  8
MADLA
 10
0.0
 20
0.0
 30
0.0
 70
   128
 71
     5
 72
    -4
 73
    -1
  0
VERTEX
  5
1368
  8
MADLA
 10
0.0
 20
0.0
 30
0.0
 70
   128
 71
    -5
 72
     1
 73
   -15
  0
VERTEX
  5
1369
  8
MADLA
 10
0.0
 20
0.0
 30
0.0
 70
   128
 71
     4
 72
     3
 73
    -2
  0
VERTEX
  5
136A
  8
MADLA
 10
0.0
 20
0.0
 30
0.0
 70
   128
 71
    -4
 72
     2
 73
    -1
  0
SEQEND
  5
155B
  8
MADLA
  0
POLYLINE
  5
136B
  8
MADLA
 66
     1
 10
0.0
 20
0.0
 30
0.0
 70
    64
 71
    10
 72
     8
  0
VERTEX
  5
136C
  8
MADLA
 10
203.5000000000002
 20
-79.99999999999996
 30
536.0000000000027
 70
   192
  0
VERTEX
  5
136D
  8
MADLA
 10
203.5000000000002
 20
-79.99999999999996
 30
531.0000000000027
 70
   192
  0
VERTEX
  5
136E
  8
MADLA
 10
201.5000000000002
 20
-79.99999999999996
 30
531.0000000000027
 70
   192
  0
VERTEX
  5
136F
  8
MADLA
 10
201.5000000000002
 20
-79.99999999999996
 30
536.0000000000027
 70
   192
  0
VERTEX
  5
1370
  8
MADLA
 10
201.5000000000002
 20
-77.49999999999996
 30
533.5000000000027
 70
   192
  0
VERTEX
  5
1371
  8
MADLA
 10
203.5000000000002
 20
-77.49999999999996
 30
533.5000000000027
 70
   192
  0
VERTEX
  5
1372
  8
MADLA
 10
201.5000000000002
 20
-78.23223304703359
 30
535.267766952969
 70
   192
  0
VERTEX
  5
1373
  8
MADLA
 10
203.5000000000002
 20
-78.23223304703359
 30
535.267766952969
 70
   192
  0
VERTEX
  5
1374
  8
MADLA
 10
201.5000000000002
 20
-78.23223304703359
 30
531.7322330470364
 70
   192
  0
VERTEX
  5
1375
  8
MADLA
 10
203.5000000000002
 20
-78.23223304703359
 30
531.7322330470364
 70
   192
  0
VERTEX
  5
1376
  8
MADLA
 10
0.0
 20
0.0
 30
0.0
 70
   128
 71
     8
 72
     1
 73
    -4
  0
VERTEX
  5
1377
  8
MADLA
 10
0.0
 20
0.0
 30
0.0
 70
   128
 71
     7
 72
    -8
 73
     4
  0
VERTEX
  5
1378
  8
MADLA
 10
0.0
 20
0.0
 30
0.0
 70
   128
 71
     6
 72
     8
 73
    -7
  0
VERTEX
  5
1379
  8
MADLA
 10
0.0
 20
0.0
 30
0.0
 70
   128
 71
     5
 72
    -6
 73
     7
  0
VERTEX
  5
137A
  8
MADLA
 10
0.0
 20
0.0
 30
0.0
 70
   128
 71
    10
 72
     6
 73
    -5
  0
VERTEX
  5
137B
  8
MADLA
 10
0.0
 20
0.0
 30
0.0
 70
   128
 71
     9
 72
   -10
 73
     5
  0
VERTEX
  5
137C
  8
MADLA
 10
0.0
 20
0.0
 30
0.0
 70
   128
 71
     3
 72
     2
 73
   -10
  0
VERTEX
  5
137D
  8
MADLA
 10
0.0
 20
0.0
 30
0.0
 70
   128
 71
     9
 72
    -3
 73
    10
  0
SEQEND
  5
155C
  8
MADLA
  0
POLYLINE
  5
137E
  8
MADLA
 66
     1
 10
0.0
 20
0.0
 30
0.0
 70
    64
 71
    10
 72
     8
  0
VERTEX
  5
137F
  8
MADLA
 10
203.4999999999997
 20
80.00000000000004
 30
536.0000000000027
 70
   192
  0
VERTEX
  5
1380
  8
MADLA
 10
203.4999999999997
 20
80.00000000000004
 30
531.0000000000027
 70
   192
  0
VERTEX
  5
1381
  8
MADLA
 10
201.4999999999997
 20
80.00000000000004
 30
531.0000000000027
 70
   192
  0
VERTEX
  5
1382
  8
MADLA
 10
201.4999999999997
 20
80.00000000000004
 30
536.0000000000027
 70
   192
  0
VERTEX
  5
1383
  8
MADLA
 10
201.4999999999997
 20
82.50000000000004
 30
533.5000000000027
 70
   192
  0
VERTEX
  5
1384
  8
MADLA
 10
203.4999999999997
 20
82.50000000000004
 30
533.5000000000027
 70
   192
  0
VERTEX
  5
1385
  8
MADLA
 10
201.4999999999997
 20
81.76776695296641
 30
535.267766952969
 70
   192
  0
VERTEX
  5
1386
  8
MADLA
 10
203.4999999999997
 20
81.76776695296641
 30
535.267766952969
 70
   192
  0
VERTEX
  5
1387
  8
MADLA
 10
201.4999999999997
 20
81.76776695296641
 30
531.7322330470364
 70
   192
  0
VERTEX
  5
1388
  8
MADLA
 10
203.4999999999997
 20
81.76776695296641
 30
531.7322330470364
 70
   192
  0
VERTEX
  5
1389
  8
MADLA
 10
0.0
 20
0.0
 30
0.0
 70
   128
 71
     8
 72
     1
 73
    -4
  0
VERTEX
  5
138A
  8
MADLA
 10
0.0
 20
0.0
 30
0.0
 70
   128
 71
     7
 72
    -8
 73
     4
  0
VERTEX
  5
138B
  8
MADLA
 10
0.0
 20
0.0
 30
0.0
 70
   128
 71
     6
 72
     8
 73
    -7
  0
VERTEX
  5
138C
  8
MADLA
 10
0.0
 20
0.0
 30
0.0
 70
   128
 71
     5
 72
    -6
 73
     7
  0
VERTEX
  5
138D
  8
MADLA
 10
0.0
 20
0.0
 30
0.0
 70
   128
 71
    10
 72
     6
 73
    -5
  0
VERTEX
  5
138E
  8
MADLA
 10
0.0
 20
0.0
 30
0.0
 70
   128
 71
     9
 72
   -10
 73
     5
  0
VERTEX
  5
138F
  8
MADLA
 10
0.0
 20
0.0
 30
0.0
 70
   128
 71
     3
 72
     2
 73
   -10
  0
VERTEX
  5
1390
  8
MADLA
 10
0.0
 20
0.0
 30
0.0
 70
   128
 71
     9
 72
    -3
 73
    10
  0
SEQEND
  5
155D
  8
MADLA
  0
ENDBLK
  5
154E
  8
0
  0
BLOCK
  8
0
  2
*X11
 70
     1
 10
0.0
 20
0.0
 30
0.0
  3
*X11
  1

  0
POLYLINE
  5
1392
  8
MADLA
 66
     1
 10
0.0
 20
0.0
 30
0.0
 70
    64
 71
    10
 72
     8
  0
VERTEX
  5
1393
  8
MADLA
 10
203.4999999999998
 20
80.00000000000003
 30
291.0000000000029
 70
   192
  0
VERTEX
  5
1394
  8
MADLA
 10
203.4999999999998
 20
80.00000000000003
 30
296.0000000000029
 70
   192
  0
VERTEX
  5
1395
  8
MADLA
 10
201.4999999999998
 20
80.00000000000003
 30
296.0000000000029
 70
   192
  0
VERTEX
  5
1396
  8
MADLA
 10
201.4999999999998
 20
80.00000000000003
 30
291.0000000000029
 70
   192
  0
VERTEX
  5
1397
  8
MADLA
 10
201.4999999999998
 20
77.50000000000003
 30
293.5000000000029
 70
   192
  0
VERTEX
  5
1398
  8
MADLA
 10
203.4999999999998
 20
77.50000000000003
 30
293.5000000000029
 70
   192
  0
VERTEX
  5
1399
  8
MADLA
 10
201.4999999999998
 20
78.23223304703366
 30
291.7322330470365
 70
   192
  0
VERTEX
  5
139A
  8
MADLA
 10
203.4999999999998
 20
78.23223304703366
 30
291.7322330470365
 70
   192
  0
VERTEX
  5
139B
  8
MADLA
 10
201.4999999999998
 20
78.23223304703366
 30
295.2677669529693
 70
   192
  0
VERTEX
  5
139C
  8
MADLA
 10
203.4999999999998
 20
78.23223304703366
 30
295.2677669529693
 70
   192
  0
VERTEX
  5
139D
  8
MADLA
 10
0.0
 20
0.0
 30
0.0
 70
   128
 71
     8
 72
     1
 73
    -4
  0
VERTEX
  5
139E
  8
MADLA
 10
0.0
 20
0.0
 30
0.0
 70
   128
 71
     7
 72
    -8
 73
     4
  0
VERTEX
  5
139F
  8
MADLA
 10
0.0
 20
0.0
 30
0.0
 70
   128
 71
     6
 72
     8
 73
    -7
  0
VERTEX
  5
13A0
  8
MADLA
 10
0.0
 20
0.0
 30
0.0
 70
   128
 71
     5
 72
    -6
 73
     7
  0
VERTEX
  5
13A1
  8
MADLA
 10
0.0
 20
0.0
 30
0.0
 70
   128
 71
    10
 72
     6
 73
    -5
  0
VERTEX
  5
13A2
  8
MADLA
 10
0.0
 20
0.0
 30
0.0
 70
   128
 71
     9
 72
   -10
 73
     5
  0
VERTEX
  5
13A3
  8
MADLA
 10
0.0
 20
0.0
 30
0.0
 70
   128
 71
     2
 72
    10
 73
    -9
  0
VERTEX
  5
13A4
  8
MADLA
 10
0.0
 20
0.0
 30
0.0
 70
   128
 71
     3
 72
    -2
 73
     9
  0
SEQEND
  5
1560
  8
MADLA
  0
POLYLINE
  5
13A5
  8
MADLA
 66
     1
 10
0.0
 20
0.0
 30
0.0
 70
    64
 71
    10
 72
     8
  0
VERTEX
  5
13A6
  8
MADLA
 10
203.5000000000003
 20
-79.99999999999991
 30
291.0000000000029
 70
   192
  0
VERTEX
  5
13A7
  8
MADLA
 10
203.5000000000003
 20
-79.99999999999991
 30
296.0000000000029
 70
   192
  0
VERTEX
  5
13A8
  8
MADLA
 10
201.5000000000003
 20
-79.99999999999991
 30
296.0000000000029
 70
   192
  0
VERTEX
  5
13A9
  8
MADLA
 10
201.5000000000003
 20
-79.99999999999991
 30
291.0000000000029
 70
   192
  0
VERTEX
  5
13AA
  8
MADLA
 10
201.5000000000003
 20
-82.49999999999991
 30
293.5000000000029
 70
   192
  0
VERTEX
  5
13AB
  8
MADLA
 10
203.5000000000003
 20
-82.49999999999991
 30
293.5000000000029
 70
   192
  0
VERTEX
  5
13AC
  8
MADLA
 10
201.5000000000003
 20
-81.76776695296628
 30
291.7322330470365
 70
   192
  0
VERTEX
  5
13AD
  8
MADLA
 10
203.5000000000003
 20
-81.76776695296628
 30
291.7322330470365
 70
   192
  0
VERTEX
  5
13AE
  8
MADLA
 10
201.5000000000003
 20
-81.76776695296628
 30
295.2677669529693
 70
   192
  0
VERTEX
  5
13AF
  8
MADLA
 10
203.5000000000003
 20
-81.76776695296628
 30
295.2677669529693
 70
   192
  0
VERTEX
  5
13B0
  8
MADLA
 10
0.0
 20
0.0
 30
0.0
 70
   128
 71
     8
 72
     1
 73
    -4
  0
VERTEX
  5
13B1
  8
MADLA
 10
0.0
 20
0.0
 30
0.0
 70
   128
 71
     7
 72
    -8
 73
     4
  0
VERTEX
  5
13B2
  8
MADLA
 10
0.0
 20
0.0
 30
0.0
 70
   128
 71
     6
 72
     8
 73
    -7
  0
VERTEX
  5
13B3
  8
MADLA
 10
0.0
 20
0.0
 30
0.0
 70
   128
 71
     5
 72
    -6
 73
     7
  0
VERTEX
  5
13B4
  8
MADLA
 10
0.0
 20
0.0
 30
0.0
 70
   128
 71
    10
 72
     6
 73
    -5
  0
VERTEX
  5
13B5
  8
MADLA
 10
0.0
 20
0.0
 30
0.0
 70
   128
 71
     9
 72
   -10
 73
     5
  0
VERTEX
  5
13B6
  8
MADLA
 10
0.0
 20
0.0
 30
0.0
 70
   128
 71
     2
 72
    10
 73
    -9
  0
VERTEX
  5
13B7
  8
MADLA
 10
0.0
 20
0.0
 30
0.0
 70
   128
 71
     3
 72
    -2
 73
     9
  0
SEQEND
  5
1561
  8
MADLA
  0
POLYLINE
  5
13B8
  8
MADLA
 66
     1
 10
0.0
 20
0.0
 30
0.0
 70
    64
 71
     4
 72
     2
  0
VERTEX
  5
13B9
  8
MADLA
 10
222.0000000000003
 20
-100.0000000000001
 30
299.9999999999999
 70
   192
  0
VERTEX
  5
13BA
  8
MADLA
 10
222.0000000000002
 20
100.0000000000005
 30
299.9999999999999
 70
   192
  0
VERTEX
  5
13BB
  8
MADLA
 10
203.5000000000003
 20
100.0000000000005
 30
299.9999999999999
 70
   192
  0
VERTEX
  5
13BC
  8
MADLA
 10
203.4999999999998
 20
-100.0000000000001
 30
299.9999999999999
 70
   192
  0
VERTEX
  5
13BD
  8
MADLA
 10
0.0
 20
0.0
 30
0.0
 70
   128
 71
     1
 72
     4
 73
    -3
  0
VERTEX
  5
13BE
  8
MADLA
 10
0.0
 20
0.0
 30
0.0
 70
   128
 71
    -1
 72
     3
 73
     2
  0
SEQEND
  5
1562
  8
MADLA
  0
POLYLINE
  5
13BF
  8
MADLA
 66
     1
 10
0.0
 20
0.0
 30
0.0
 70
    64
 71
    20
 72
    22
  0
VERTEX
  5
13C0
  8
MADLA
 10
203.5000000000003
 20
-100.0000000000001
 30
299.9999999999999
 70
   192
  0
VERTEX
  5
13C1
  8
MADLA
 10
203.5000000000003
 20
100.0000000000005
 30
299.9999999999999
 70
   192
  0
VERTEX
  5
13C2
  8
MADLA
 10
203.5000000000003
 20
100.0000000000005
 30
284.9999999999999
 70
   192
  0
VERTEX
  5
13C3
  8
MADLA
 10
203.4999999999998
 20
-100.0000000000001
 30
284.9999999999999
 70
   192
  0
VERTEX
  5
13C4
  8
MADLA
 10
203.5000000000003
 20
-79.99999999999991
 30
291.0000000000029
 70
   192
  0
VERTEX
  5
13C5
  8
MADLA
 10
203.5000000000003
 20
-78.23223304703355
 30
291.7322330470365
 70
   192
  0
VERTEX
  5
13C6
  8
MADLA
 10
203.5000000000003
 20
-77.49999999999991
 30
293.5000000000029
 70
   192
  0
VERTEX
  5
13C7
  8
MADLA
 10
203.5000000000003
 20
-78.23223304703355
 30
295.2677669529693
 70
   192
  0
VERTEX
  5
13C8
  8
MADLA
 10
203.5000000000003
 20
-79.99999999999991
 30
296.0000000000029
 70
   192
  0
VERTEX
  5
13C9
  8
MADLA
 10
203.5000000000003
 20
-81.76776695296628
 30
295.2677669529693
 70
   192
  0
VERTEX
  5
13CA
  8
MADLA
 10
203.5000000000003
 20
-82.49999999999991
 30
293.5000000000029
 70
   192
  0
VERTEX
  5
13CB
  8
MADLA
 10
203.5000000000003
 20
-81.76776695296628
 30
291.7322330470365
 70
   192
  0
VERTEX
  5
13CC
  8
MADLA
 10
203.4999999999998
 20
80.00000000000003
 30
291.0000000000029
 70
   192
  0
VERTEX
  5
13CD
  8
MADLA
 10
203.4999999999998
 20
81.7677669529664
 30
291.7322330470365
 70
   192
  0
VERTEX
  5
13CE
  8
MADLA
 10
203.4999999999998
 20
82.50000000000003
 30
293.5000000000029
 70
   192
  0
VERTEX
  5
13CF
  8
MADLA
 10
203.4999999999998
 20
81.7677669529664
 30
295.2677669529693
 70
   192
  0
VERTEX
  5
13D0
  8
MADLA
 10
203.4999999999998
 20
80.00000000000003
 30
296.0000000000029
 70
   192
  0
VERTEX
  5
13D1
  8
MADLA
 10
203.4999999999998
 20
78.23223304703366
 30
295.2677669529693
 70
   192
  0
VERTEX
  5
13D2
  8
MADLA
 10
203.4999999999998
 20
77.50000000000003
 30
293.5000000000029
 70
   192
  0
VERTEX
  5
13D3
  8
MADLA
 10
203.4999999999998
 20
78.23223304703366
 30
291.7322330470365
 70
   192
  0
VERTEX
  5
13D4
  8
MADLA
 10
0.0
 20
0.0
 30
0.0
 70
   128
 71
    -5
 72
     4
 73
    -3
  0
VERTEX
  5
13D5
  8
MADLA
 10
0.0
 20
0.0
 30
0.0
 70
   128
 71
    -3
 72
     6
 73
    -5
  0
VERTEX
  5
13D6
  8
MADLA
 10
0.0
 20
0.0
 30
0.0
 70
   128
 71
    20
 72
   -19
 73
    -7
  0
VERTEX
  5
13D7
  8
MADLA
 10
0.0
 20
0.0
 30
0.0
 70
   128
 71
   -20
 72
     7
 73
    -6
  0
VERTEX
  5
13D8
  8
MADLA
 10
0.0
 20
0.0
 30
0.0
 70
   128
 71
    -6
 72
    13
 73
   -20
  0
VERTEX
  5
13D9
  8
MADLA
 10
0.0
 20
0.0
 30
0.0
 70
   128
 71
    -6
 72
    -3
 73
   -13
  0
VERTEX
  5
13DA
  8
MADLA
 10
0.0
 20
0.0
 30
0.0
 70
   128
 71
    14
 72
   -13
 73
    -3
  0
VERTEX
  5
13DB
  8
MADLA
 10
0.0
 20
0.0
 30
0.0
 70
   128
 71
     3
 72
    -2
 73
   -15
  0
VERTEX
  5
13DC
  8
MADLA
 10
0.0
 20
0.0
 30
0.0
 70
   128
 71
    -3
 72
    15
 73
   -14
  0
VERTEX
  5
13DD
  8
MADLA
 10
0.0
 20
0.0
 30
0.0
 70
   128
 71
    -2
 72
    16
 73
   -15
  0
VERTEX
  5
13DE
  8
MADLA
 10
0.0
 20
0.0
 30
0.0
 70
   128
 71
    -2
 72
    17
 73
   -16
  0
VERTEX
  5
13DF
  8
MADLA
 10
0.0
 20
0.0
 30
0.0
 70
   128
 71
   -17
 72
    -2
 73
    -8
  0
VERTEX
  5
13E0
  8
MADLA
 10
0.0
 20
0.0
 30
0.0
 70
   128
 71
    -8
 72
    18
 73
   -17
  0
VERTEX
  5
13E1
  8
MADLA
 10
0.0
 20
0.0
 30
0.0
 70
   128
 71
     8
 72
    -7
 73
   -19
  0
VERTEX
  5
13E2
  8
MADLA
 10
0.0
 20
0.0
 30
0.0
 70
   128
 71
    -8
 72
    19
 73
   -18
  0
VERTEX
  5
13E3
  8
MADLA
 10
0.0
 20
0.0
 30
0.0
 70
   128
 71
    -2
 72
     9
 73
    -8
  0
VERTEX
  5
13E4
  8
MADLA
 10
0.0
 20
0.0
 30
0.0
 70
   128
 71
     2
 72
    -1
 73
    -9
  0
VERTEX
  5
13E5
  8
MADLA
 10
0.0
 20
0.0
 30
0.0
 70
   128
 71
    -1
 72
    10
 73
    -9
  0
VERTEX
  5
13E6
  8
MADLA
 10
0.0
 20
0.0
 30
0.0
 70
   128
 71
    -1
 72
    11
 73
   -10
  0
VERTEX
  5
13E7
  8
MADLA
 10
0.0
 20
0.0
 30
0.0
 70
   128
 71
     1
 72
    -4
 73
   -12
  0
VERTEX
  5
13E8
  8
MADLA
 10
0.0
 20
0.0
 30
0.0
 70
   128
 71
    -1
 72
    12
 73
   -11
  0
VERTEX
  5
13E9
  8
MADLA
 10
0.0
 20
0.0
 30
0.0
 70
   128
 71
    -4
 72
     5
 73
   -12
  0
SEQEND
  5
1563
  8
MADLA
  0
POLYLINE
  5
13EA
  8
MADLA
 66
     1
 10
0.0
 20
0.0
 30
0.0
 70
    64
 71
     4
 72
     2
  0
VERTEX
  5
13EB
  8
MADLA
 10
203.5000000000003
 20
-100.0000000000001
 30
284.9999999999999
 70
   192
  0
VERTEX
  5
13EC
  8
MADLA
 10
203.5000000000003
 20
100.0000000000005
 30
284.9999999999999
 70
   192
  0
VERTEX
  5
13ED
  8
MADLA
 10
201.5000000000003
 20
100.0000000000005
 30
284.9999999999999
 70
   192
  0
VERTEX
  5
13EE
  8
MADLA
 10
201.4999999999998
 20
-100.0000000000001
 30
284.9999999999999
 70
   192
  0
VERTEX
  5
13EF
  8
MADLA
 10
0.0
 20
0.0
 30
0.0
 70
   128
 71
     1
 72
     4
 73
    -3
  0
VERTEX
  5
13F0
  8
MADLA
 10
0.0
 20
0.0
 30
0.0
 70
   128
 71
    -1
 72
     3
 73
     2
  0
SEQEND
  5
1564
  8
MADLA
  0
POLYLINE
  5
13F1
  8
MADLA
 66
     1
 10
0.0
 20
0.0
 30
0.0
 70
    64
 71
    20
 72
    22
  0
VERTEX
  5
13F2
  8
MADLA
 10
201.5000000000003
 20
-100.0000000000001
 30
284.9999999999999
 70
   192
  0
VERTEX
  5
13F3
  8
MADLA
 10
201.5000000000003
 20
100.0000000000005
 30
284.9999999999999
 70
   192
  0
VERTEX
  5
13F4
  8
MADLA
 10
201.5000000000003
 20
100.0000000000005
 30
302.0000000000051
 70
   192
  0
VERTEX
  5
13F5
  8
MADLA
 10
201.4999999999998
 20
-100.0000000000001
 30
302.0000000000051
 70
   192
  0
VERTEX
  5
13F6
  8
MADLA
 10
201.5000000000003
 20
-79.99999999999991
 30
291.0000000000029
 70
   192
  0
VERTEX
  5
13F7
  8
MADLA
 10
201.5000000000003
 20
-81.76776695296628
 30
291.7322330470365
 70
   192
  0
VERTEX
  5
13F8
  8
MADLA
 10
201.5000000000003
 20
-82.49999999999991
 30
293.5000000000029
 70
   192
  0
VERTEX
  5
13F9
  8
MADLA
 10
201.5000000000003
 20
-81.76776695296628
 30
295.2677669529693
 70
   192
  0
VERTEX
  5
13FA
  8
MADLA
 10
201.5000000000003
 20
-79.99999999999991
 30
296.0000000000029
 70
   192
  0
VERTEX
  5
13FB
  8
MADLA
 10
201.5000000000003
 20
-78.23223304703355
 30
295.2677669529693
 70
   192
  0
VERTEX
  5
13FC
  8
MADLA
 10
201.5000000000003
 20
-77.49999999999991
 30
293.5000000000029
 70
   192
  0
VERTEX
  5
13FD
  8
MADLA
 10
201.5000000000003
 20
-78.23223304703355
 30
291.7322330470365
 70
   192
  0
VERTEX
  5
13FE
  8
MADLA
 10
201.4999999999998
 20
80.00000000000003
 30
291.0000000000029
 70
   192
  0
VERTEX
  5
13FF
  8
MADLA
 10
201.4999999999998
 20
78.23223304703366
 30
291.7322330470365
 70
   192
  0
VERTEX
  5
1400
  8
MADLA
 10
201.4999999999998
 20
77.50000000000003
 30
293.5000000000029
 70
   192
  0
VERTEX
  5
1401
  8
MADLA
 10
201.4999999999998
 20
78.23223304703366
 30
295.2677669529693
 70
   192
  0
VERTEX
  5
1402
  8
MADLA
 10
201.4999999999998
 20
80.00000000000003
 30
296.0000000000029
 70
   192
  0
VERTEX
  5
1403
  8
MADLA
 10
201.4999999999998
 20
81.7677669529664
 30
295.2677669529693
 70
   192
  0
VERTEX
  5
1404
  8
MADLA
 10
201.4999999999998
 20
82.50000000000003
 30
293.5000000000029
 70
   192
  0
VERTEX
  5
1405
  8
MADLA
 10
201.4999999999998
 20
81.7677669529664
 30
291.7322330470365
 70
   192
  0
VERTEX
  5
1406
  8
MADLA
 10
0.0
 20
0.0
 30
0.0
 70
   128
 71
     6
 72
    -5
 73
    -1
  0
VERTEX
  5
1407
  8
MADLA
 10
0.0
 20
0.0
 30
0.0
 70
   128
 71
     1
 72
    -4
 73
    -7
  0
VERTEX
  5
1408
  8
MADLA
 10
0.0
 20
0.0
 30
0.0
 70
   128
 71
    -1
 72
     7
 73
    -6
  0
VERTEX
  5
1409
  8
MADLA
 10
0.0
 20
0.0
 30
0.0
 70
   128
 71
    -4
 72
     8
 73
    -7
  0
VERTEX
  5
140A
  8
MADLA
 10
0.0
 20
0.0
 30
0.0
 70
   128
 71
    -4
 72
     9
 73
    -8
  0
VERTEX
  5
140B
  8
MADLA
 10
0.0
 20
0.0
 30
0.0
 70
   128
 71
    -9
 72
     4
 73
    -3
  0
VERTEX
  5
140C
  8
MADLA
 10
0.0
 20
0.0
 30
0.0
 70
   128
 71
    -3
 72
    10
 73
    -9
  0
VERTEX
  5
140D
  8
MADLA
 10
0.0
 20
0.0
 30
0.0
 70
   128
 71
    16
 72
   -15
 73
   -11
  0
VERTEX
  5
140E
  8
MADLA
 10
0.0
 20
0.0
 30
0.0
 70
   128
 71
   -16
 72
    11
 73
   -10
  0
VERTEX
  5
140F
  8
MADLA
 10
0.0
 20
0.0
 30
0.0
 70
   128
 71
   -10
 72
    17
 73
   -16
  0
VERTEX
  5
1410
  8
MADLA
 10
0.0
 20
0.0
 30
0.0
 70
   128
 71
   -10
 72
    -3
 73
   -17
  0
VERTEX
  5
1411
  8
MADLA
 10
0.0
 20
0.0
 30
0.0
 70
   128
 71
    -3
 72
    18
 73
   -17
  0
VERTEX
  5
1412
  8
MADLA
 10
0.0
 20
0.0
 30
0.0
 70
   128
 71
    -3
 72
    19
 73
   -18
  0
VERTEX
  5
1413
  8
MADLA
 10
0.0
 20
0.0
 30
0.0
 70
   128
 71
     3
 72
    -2
 73
   -20
  0
VERTEX
  5
1414
  8
MADLA
 10
0.0
 20
0.0
 30
0.0
 70
   128
 71
    -3
 72
    20
 73
   -19
  0
VERTEX
  5
1415
  8
MADLA
 10
0.0
 20
0.0
 30
0.0
 70
   128
 71
    -2
 72
    13
 73
   -20
  0
VERTEX
  5
1416
  8
MADLA
 10
0.0
 20
0.0
 30
0.0
 70
   128
 71
   -13
 72
    -2
 73
   -12
  0
VERTEX
  5
1417
  8
MADLA
 10
0.0
 20
0.0
 30
0.0
 70
   128
 71
   -12
 72
    14
 73
   -13
  0
VERTEX
  5
1418
  8
MADLA
 10
0.0
 20
0.0
 30
0.0
 70
   128
 71
    12
 72
   -11
 73
   -15
  0
VERTEX
  5
1419
  8
MADLA
 10
0.0
 20
0.0
 30
0.0
 70
   128
 71
   -12
 72
    15
 73
   -14
  0
VERTEX
  5
141A
  8
MADLA
 10
0.0
 20
0.0
 30
0.0
 70
   128
 71
    -2
 72
     5
 73
   -12
  0
VERTEX
  5
141B
  8
MADLA
 10
0.0
 20
0.0
 30
0.0
 70
   128
 71
     2
 72
    -1
 73
    -5
  0
SEQEND
  5
1565
  8
MADLA
  0
POLYLINE
  5
141C
  8
MADLA
 66
     1
 10
0.0
 20
0.0
 30
0.0
 70
    64
 71
     4
 72
     2
  0
VERTEX
  5
141D
  8
MADLA
 10
201.5000000000003
 20
-100.0000000000001
 30
302.0000000000051
 70
   192
  0
VERTEX
  5
141E
  8
MADLA
 10
201.5000000000003
 20
100.0000000000005
 30
302.0000000000051
 70
   192
  0
VERTEX
  5
141F
  8
MADLA
 10
228.6499999999915
 20
100.0000000000005
 30
302.0000000000051
 70
   192
  0
VERTEX
  5
1420
  8
MADLA
 10
228.6499999999911
 20
-100.0000000000001
 30
302.0000000000051
 70
   192
  0
VERTEX
  5
1421
  8
MADLA
 10
0.0
 20
0.0
 30
0.0
 70
   128
 71
     1
 72
     4
 73
    -3
  0
VERTEX
  5
1422
  8
MADLA
 10
0.0
 20
0.0
 30
0.0
 70
   128
 71
    -1
 72
     3
 73
     2
  0
SEQEND
  5
1566
  8
MADLA
  0
POLYLINE
  5
1423
  8
MADLA
 66
     1
 10
0.0
 20
0.0
 30
0.0
 70
    64
 71
     8
 72
     6
  0
VERTEX
  5
1424
  8
MADLA
 10
239.1927461144239
 20
-100.0000000000001
 30
296.6059519040548
 70
   192
  0
VERTEX
  5
1425
  8
MADLA
 10
239.1927461144243
 20
100.0000000000005
 30
296.6059519040548
 70
   192
  0
VERTEX
  5
1426
  8
MADLA
 10
234.5712593781731
 20
100.0000000000005
 30
300.5731882978046
 70
   192
  0
VERTEX
  5
1427
  8
MADLA
 10
234.5712593781726
 20
-100.0000000000001
 30
300.5731882978046
 70
   192
  0
VERTEX
  5
1428
  8
MADLA
 10
241.4999999999999
 20
-100.0000000000001
 30
290.9691368667546
 70
   192
  0
VERTEX
  5
1429
  8
MADLA
 10
241.5000000000003
 20
100.0000000000005
 30
290.9691368667546
 70
   192
  0
VERTEX
  5
142A
  8
MADLA
 10
228.6499999999915
 20
100.0000000000005
 30
302.000000000005
 70
   192
  0
VERTEX
  5
142B
  8
MADLA
 10
228.6499999999916
 20
-100.0000000000001
 30
302.0000000000051
 70
   192
  0
VERTEX
  5
142C
  8
MADLA
 10
0.0
 20
0.0
 30
0.0
 70
   128
 71
     1
 72
     2
 73
    -3
  0
VERTEX
  5
142D
  8
MADLA
 10
0.0
 20
0.0
 30
0.0
 70
   128
 71
    -1
 72
     3
 73
     4
  0
VERTEX
  5
142E
  8
MADLA
 10
0.0
 20
0.0
 30
0.0
 70
   128
 71
     5
 72
     6
 73
    -2
  0
VERTEX
  5
142F
  8
MADLA
 10
0.0
 20
0.0
 30
0.0
 70
   128
 71
    -5
 72
     2
 73
     1
  0
VERTEX
  5
1430
  8
MADLA
 10
0.0
 20
0.0
 30
0.0
 70
   128
 71
     4
 72
     3
 73
    -7
  0
VERTEX
  5
1431
  8
MADLA
 10
0.0
 20
0.0
 30
0.0
 70
   128
 71
    -4
 72
     7
 73
     8
  0
SEQEND
  5
1567
  8
MADLA
  0
POLYLINE
  5
1432
  8
MADLA
 66
     1
 10
0.0
 20
0.0
 30
0.0
 70
    64
 71
     4
 72
     2
  0
VERTEX
  5
1433
  8
MADLA
 10
241.5000000000003
 20
-100.0000000000003
 30
290.9691368667546
 70
   192
  0
VERTEX
  5
1434
  8
MADLA
 10
241.5000000000003
 20
100.0000000000005
 30
290.9691368667546
 70
   192
  0
VERTEX
  5
1435
  8
MADLA
 10
237.4173578529672
 20
100.0000000000005
 30
290.2492569036551
 70
   192
  0
VERTEX
  5
1436
  8
MADLA
 10
237.4173578529667
 20
-100.0000000000003
 30
290.2492569036551
 70
   192
  0
VERTEX
  5
1437
  8
MADLA
 10
0.0
 20
0.0
 30
0.0
 70
   128
 71
     1
 72
     4
 73
    -3
  0
VERTEX
  5
1438
  8
MADLA
 10
0.0
 20
0.0
 30
0.0
 70
   128
 71
    -1
 72
     3
 73
     2
  0
SEQEND
  5
1568
  8
MADLA
  0
POLYLINE
  5
1439
  8
MADLA
 66
     1
 10
0.0
 20
0.0
 30
0.0
 70
    64
 71
     8
 72
     6
  0
VERTEX
  5
143A
  8
MADLA
 10
235.76726499812
 20
-100.0000000000003
 30
290.7014004063606
 70
   192
  0
VERTEX
  5
143B
  8
MADLA
 10
235.7672649981204
 20
100.0000000000005
 30
290.7014004063606
 70
   192
  0
VERTEX
  5
143C
  8
MADLA
 10
236.5415224090682
 20
100.0000000000005
 30
290.2899746851077
 70
   192
  0
VERTEX
  5
143D
  8
MADLA
 10
236.5415224090678
 20
-100.0000000000003
 30
290.2899746851077
 70
   192
  0
VERTEX
  5
143E
  8
MADLA
 10
235.2433873767076
 20
-100.0000000000003
 30
291.4044636327488
 70
   192
  0
VERTEX
  5
143F
  8
MADLA
 10
235.2433873767081
 20
100.0000000000005
 30
291.4044636327488
 70
   192
  0
VERTEX
  5
1440
  8
MADLA
 10
237.4173578529672
 20
100.0000000000005
 30
290.2492569036552
 70
   192
  0
VERTEX
  5
1441
  8
MADLA
 10
237.4173578529672
 20
-100.0000000000003
 30
290.2492569036551
 70
   192
  0
VERTEX
  5
1442
  8
MADLA
 10
0.0
 20
0.0
 30
0.0
 70
   128
 71
     1
 72
     2
 73
    -3
  0
VERTEX
  5
1443
  8
MADLA
 10
0.0
 20
0.0
 30
0.0
 70
   128
 71
    -1
 72
     3
 73
     4
  0
VERTEX
  5
1444
  8
MADLA
 10
0.0
 20
0.0
 30
0.0
 70
   128
 71
     5
 72
     6
 73
    -2
  0
VERTEX
  5
1445
  8
MADLA
 10
0.0
 20
0.0
 30
0.0
 70
   128
 71
    -5
 72
     2
 73
     1
  0
VERTEX
  5
1446
  8
MADLA
 10
0.0
 20
0.0
 30
0.0
 70
   128
 71
     4
 72
     3
 73
    -7
  0
VERTEX
  5
1447
  8
MADLA
 10
0.0
 20
0.0
 30
0.0
 70
   128
 71
    -4
 72
     7
 73
     8
  0
SEQEND
  5
1569
  8
MADLA
  0
POLYLINE
  5
1448
  8
MADLA
 66
     1
 10
0.0
 20
0.0
 30
0.0
 70
    64
 71
     8
 72
     6
  0
VERTEX
  5
1449
  8
MADLA
 10
227.4295007431232
 20
100.0000000000005
 30
298.9450928475941
 70
   192
  0
VERTEX
  5
144A
  8
MADLA
 10
232.0689850492926
 20
100.0000000000005
 30
295.9338650593691
 70
   192
  0
VERTEX
  5
144B
  8
MADLA
 10
232.0689850492923
 20
-100.0000000000001
 30
295.9338650593691
 70
   192
  0
VERTEX
  5
144C
  8
MADLA
 10
227.4295007431228
 20
-100.0000000000001
 30
298.9450928475941
 70
   192
  0
VERTEX
  5
144D
  8
MADLA
 10
235.2433873767081
 20
100.0000000000005
 30
291.4044636327488
 70
   192
  0
VERTEX
  5
144E
  8
MADLA
 10
235.2433873767076
 20
-100.0000000000001
 30
291.4044636327488
 70
   192
  0
VERTEX
  5
144F
  8
MADLA
 10
222.0000000000002
 20
100.0000000000005
 30
299.9999999999999
 70
   192
  0
VERTEX
  5
1450
  8
MADLA
 10
221.9999999999998
 20
-100.0000000000001
 30
299.9999999999999
 70
   192
  0
VERTEX
  5
1451
  8
MADLA
 10
0.0
 20
0.0
 30
0.0
 70
   128
 71
     1
 72
     2
 73
    -3
  0
VERTEX
  5
1452
  8
MADLA
 10
0.0
 20
0.0
 30
0.0
 70
   128
 71
     4
 72
    -1
 73
     3
  0
VERTEX
  5
1453
  8
MADLA
 10
0.0
 20
0.0
 30
0.0
 70
   128
 71
     2
 72
     5
 73
    -6
  0
VERTEX
  5
1454
  8
MADLA
 10
0.0
 20
0.0
 30
0.0
 70
   128
 71
     3
 72
    -2
 73
     6
  0
VERTEX
  5
1455
  8
MADLA
 10
0.0
 20
0.0
 30
0.0
 70
   128
 71
     7
 72
     1
 73
    -4
  0
VERTEX
  5
1456
  8
MADLA
 10
0.0
 20
0.0
 30
0.0
 70
   128
 71
     8
 72
    -7
 73
     4
  0
SEQEND
  5
156A
  8
MADLA
  0
POLYLINE
  5
1457
  8
MADLA
 66
     1
 10
0.0
 20
0.0
 30
0.0
 70
    64
 71
    15
 72
    13
  0
VERTEX
  5
1458
  8
MADLA
 10
222.0000000000002
 20
100.0000000000005
 30
299.9999999999999
 70
   192
  0
VERTEX
  5
1459
  8
MADLA
 10
203.5000000000003
 20
100.0000000000005
 30
299.9999999999999
 70
   192
  0
VERTEX
  5
145A
  8
MADLA
 10
203.5000000000003
 20
100.0000000000005
 30
284.9999999999999
 70
   192
  0
VERTEX
  5
145B
  8
MADLA
 10
201.5000000000003
 20
100.0000000000005
 30
284.9999999999999
 70
   192
  0
VERTEX
  5
145C
  8
MADLA
 10
201.5000000000003
 20
100.0000000000005
 30
302.0000000000051
 70
   192
  0
VERTEX
  5
145D
  8
MADLA
 10
228.6499999999915
 20
100.0000000000005
 30
302.0000000000051
 70
   192
  0
VERTEX
  5
145E
  8
MADLA
 10
234.5712593781731
 20
100.0000000000005
 30
300.5731882978046
 70
   192
  0
VERTEX
  5
145F
  8
MADLA
 10
239.1927461144243
 20
100.0000000000005
 30
296.6059519040548
 70
   192
  0
VERTEX
  5
1460
  8
MADLA
 10
241.5000000000003
 20
100.0000000000005
 30
290.9691368667546
 70
   192
  0
VERTEX
  5
1461
  8
MADLA
 10
237.4173578529672
 20
100.0000000000005
 30
290.2492569036551
 70
   192
  0
VERTEX
  5
1462
  8
MADLA
 10
236.5415224090682
 20
100.0000000000005
 30
290.2899746851077
 70
   192
  0
VERTEX
  5
1463
  8
MADLA
 10
235.7672649981204
 20
100.0000000000005
 30
290.7014004063606
 70
   192
  0
VERTEX
  5
1464
  8
MADLA
 10
235.2433873767081
 20
100.0000000000005
 30
291.4044636327488
 70
   192
  0
VERTEX
  5
1465
  8
MADLA
 10
232.0689850492926
 20
100.0000000000005
 30
295.9338650593691
 70
   192
  0
VERTEX
  5
1466
  8
MADLA
 10
227.4295007431232
 20
100.0000000000005
 30
298.9450928475941
 70
   192
  0
VERTEX
  5
1467
  8
MADLA
 10
0.0
 20
0.0
 30
0.0
 70
   128
 71
    11
 72
    12
 73
   -13
  0
VERTEX
  5
1468
  8
MADLA
 10
0.0
 20
0.0
 30
0.0
 70
   128
 71
    10
 72
   -11
 73
   -13
  0
VERTEX
  5
1469
  8
MADLA
 10
0.0
 20
0.0
 30
0.0
 70
   128
 71
     9
 72
   -10
 73
   -13
  0
VERTEX
  5
146A
  8
MADLA
 10
0.0
 20
0.0
 30
0.0
 70
   128
 71
     7
 72
     8
 73
    -9
  0
VERTEX
  5
146B
  8
MADLA
 10
0.0
 20
0.0
 30
0.0
 70
   128
 71
   -14
 72
    -7
 73
    -9
  0
VERTEX
  5
146C
  8
MADLA
 10
0.0
 20
0.0
 30
0.0
 70
   128
 71
    13
 72
   -14
 73
    -9
  0
VERTEX
  5
146D
  8
MADLA
 10
0.0
 20
0.0
 30
0.0
 70
   128
 71
   -15
 72
     6
 73
    -7
  0
VERTEX
  5
146E
  8
MADLA
 10
0.0
 20
0.0
 30
0.0
 70
   128
 71
    14
 72
   -15
 73
    -7
  0
VERTEX
  5
146F
  8
MADLA
 10
0.0
 20
0.0
 30
0.0
 70
   128
 71
    15
 72
    -1
 73
    -6
  0
VERTEX
  5
1470
  8
MADLA
 10
0.0
 20
0.0
 30
0.0
 70
   128
 71
    -6
 72
     1
 73
    -2
  0
VERTEX
  5
1471
  8
MADLA
 10
0.0
 20
0.0
 30
0.0
 70
   128
 71
     5
 72
    -6
 73
    -2
  0
VERTEX
  5
1472
  8
MADLA
 10
0.0
 20
0.0
 30
0.0
 70
   128
 71
     3
 72
     4
 73
    -5
  0
VERTEX
  5
1473
  8
MADLA
 10
0.0
 20
0.0
 30
0.0
 70
   128
 71
     2
 72
    -3
 73
    -5
  0
SEQEND
  5
156B
  8
MADLA
  0
POLYLINE
  5
1474
  8
MADLA
 66
     1
 10
0.0
 20
0.0
 30
0.0
 70
    64
 71
    15
 72
    13
  0
VERTEX
  5
1475
  8
MADLA
 10
203.4999999999998
 20
-100.0000000000001
 30
299.9999999999999
 70
   192
  0
VERTEX
  5
1476
  8
MADLA
 10
203.4999999999998
 20
-100.0000000000001
 30
284.9999999999999
 70
   192
  0
VERTEX
  5
1477
  8
MADLA
 10
201.4999999999998
 20
-100.0000000000001
 30
284.9999999999999
 70
   192
  0
VERTEX
  5
1478
  8
MADLA
 10
201.4999999999998
 20
-100.0000000000001
 30
302.0000000000051
 70
   192
  0
VERTEX
  5
1479
  8
MADLA
 10
228.6499999999911
 20
-100.0000000000001
 30
302.000000000005
 70
   192
  0
VERTEX
  5
147A
  8
MADLA
 10
234.5712593781726
 20
-100.0000000000001
 30
300.5731882978046
 70
   192
  0
VERTEX
  5
147B
  8
MADLA
 10
239.1927461144239
 20
-100.0000000000001
 30
296.6059519040548
 70
   192
  0
VERTEX
  5
147C
  8
MADLA
 10
241.4999999999999
 20
-100.0000000000003
 30
290.9691368667546
 70
   192
  0
VERTEX
  5
147D
  8
MADLA
 10
237.4173578529667
 20
-100.0000000000003
 30
290.2492569036552
 70
   192
  0
VERTEX
  5
147E
  8
MADLA
 10
236.5415224090678
 20
-100.0000000000003
 30
290.2899746851077
 70
   192
  0
VERTEX
  5
147F
  8
MADLA
 10
235.76726499812
 20
-100.0000000000003
 30
290.7014004063606
 70
   192
  0
VERTEX
  5
1480
  8
MADLA
 10
235.2433873767076
 20
-100.0000000000001
 30
291.4044636327488
 70
   192
  0
VERTEX
  5
1481
  8
MADLA
 10
232.0689850492923
 20
-100.0000000000001
 30
295.9338650593691
 70
   192
  0
VERTEX
  5
1482
  8
MADLA
 10
227.4295007431228
 20
-100.0000000000001
 30
298.9450928475941
 70
   192
  0
VERTEX
  5
1483
  8
MADLA
 10
221.9999999999998
 20
-100.0000000000001
 30
299.9999999999999
 70
   192
  0
VERTEX
  5
1484
  8
MADLA
 10
0.0
 20
0.0
 30
0.0
 70
   128
 71
    12
 72
    11
 73
   -10
  0
VERTEX
  5
1485
  8
MADLA
 10
0.0
 20
0.0
 30
0.0
 70
   128
 71
   -12
 72
    10
 73
    -9
  0
VERTEX
  5
1486
  8
MADLA
 10
0.0
 20
0.0
 30
0.0
 70
   128
 71
   -12
 72
     9
 73
    -8
  0
VERTEX
  5
1487
  8
MADLA
 10
0.0
 20
0.0
 30
0.0
 70
   128
 71
     8
 72
     7
 73
    -6
  0
VERTEX
  5
1488
  8
MADLA
 10
0.0
 20
0.0
 30
0.0
 70
   128
 71
    -8
 72
    -6
 73
   -13
  0
VERTEX
  5
1489
  8
MADLA
 10
0.0
 20
0.0
 30
0.0
 70
   128
 71
    -8
 72
    13
 73
   -12
  0
VERTEX
  5
148A
  8
MADLA
 10
0.0
 20
0.0
 30
0.0
 70
   128
 71
     6
 72
    -5
 73
   -14
  0
VERTEX
  5
148B
  8
MADLA
 10
0.0
 20
0.0
 30
0.0
 70
   128
 71
    -6
 72
    14
 73
   -13
  0
VERTEX
  5
148C
  8
MADLA
 10
0.0
 20
0.0
 30
0.0
 70
   128
 71
    -5
 72
    15
 73
   -14
  0
VERTEX
  5
148D
  8
MADLA
 10
0.0
 20
0.0
 30
0.0
 70
   128
 71
     5
 72
    -4
 73
    -1
  0
VERTEX
  5
148E
  8
MADLA
 10
0.0
 20
0.0
 30
0.0
 70
   128
 71
    -5
 72
     1
 73
   -15
  0
VERTEX
  5
148F
  8
MADLA
 10
0.0
 20
0.0
 30
0.0
 70
   128
 71
     4
 72
     3
 73
    -2
  0
VERTEX
  5
1490
  8
MADLA
 10
0.0
 20
0.0
 30
0.0
 70
   128
 71
    -4
 72
     2
 73
    -1
  0
SEQEND
  5
156C
  8
MADLA
  0
POLYLINE
  5
1491
  8
MADLA
 66
     1
 10
0.0
 20
0.0
 30
0.0
 70
    64
 71
    10
 72
     8
  0
VERTEX
  5
1492
  8
MADLA
 10
203.5000000000003
 20
-79.99999999999991
 30
296.0000000000029
 70
   192
  0
VERTEX
  5
1493
  8
MADLA
 10
203.5000000000003
 20
-79.99999999999991
 30
291.0000000000029
 70
   192
  0
VERTEX
  5
1494
  8
MADLA
 10
201.5000000000003
 20
-79.99999999999991
 30
291.0000000000029
 70
   192
  0
VERTEX
  5
1495
  8
MADLA
 10
201.5000000000003
 20
-79.99999999999991
 30
296.0000000000029
 70
   192
  0
VERTEX
  5
1496
  8
MADLA
 10
201.5000000000003
 20
-77.49999999999991
 30
293.5000000000029
 70
   192
  0
VERTEX
  5
1497
  8
MADLA
 10
203.5000000000003
 20
-77.49999999999991
 30
293.5000000000029
 70
   192
  0
VERTEX
  5
1498
  8
MADLA
 10
201.5000000000003
 20
-78.23223304703355
 30
295.2677669529693
 70
   192
  0
VERTEX
  5
1499
  8
MADLA
 10
203.5000000000003
 20
-78.23223304703355
 30
295.2677669529693
 70
   192
  0
VERTEX
  5
149A
  8
MADLA
 10
201.5000000000003
 20
-78.23223304703355
 30
291.7322330470365
 70
   192
  0
VERTEX
  5
149B
  8
MADLA
 10
203.5000000000003
 20
-78.23223304703355
 30
291.7322330470365
 70
   192
  0
VERTEX
  5
149C
  8
MADLA
 10
0.0
 20
0.0
 30
0.0
 70
   128
 71
     8
 72
     1
 73
    -4
  0
VERTEX
  5
149D
  8
MADLA
 10
0.0
 20
0.0
 30
0.0
 70
   128
 71
     7
 72
    -8
 73
     4
  0
VERTEX
  5
149E
  8
MADLA
 10
0.0
 20
0.0
 30
0.0
 70
   128
 71
     6
 72
     8
 73
    -7
  0
VERTEX
  5
149F
  8
MADLA
 10
0.0
 20
0.0
 30
0.0
 70
   128
 71
     5
 72
    -6
 73
     7
  0
VERTEX
  5
14A0
  8
MADLA
 10
0.0
 20
0.0
 30
0.0
 70
   128
 71
    10
 72
     6
 73
    -5
  0
VERTEX
  5
14A1
  8
MADLA
 10
0.0
 20
0.0
 30
0.0
 70
   128
 71
     9
 72
   -10
 73
     5
  0
VERTEX
  5
14A2
  8
MADLA
 10
0.0
 20
0.0
 30
0.0
 70
   128
 71
     3
 72
     2
 73
   -10
  0
VERTEX
  5
14A3
  8
MADLA
 10
0.0
 20
0.0
 30
0.0
 70
   128
 71
     9
 72
    -3
 73
    10
  0
SEQEND
  5
156D
  8
MADLA
  0
POLYLINE
  5
14A4
  8
MADLA
 66
     1
 10
0.0
 20
0.0
 30
0.0
 70
    64
 71
    10
 72
     8
  0
VERTEX
  5
14A5
  8
MADLA
 10
203.4999999999998
 20
80.00000000000003
 30
296.0000000000029
 70
   192
  0
VERTEX
  5
14A6
  8
MADLA
 10
203.4999999999998
 20
80.00000000000003
 30
291.0000000000029
 70
   192
  0
VERTEX
  5
14A7
  8
MADLA
 10
201.4999999999998
 20
80.00000000000003
 30
291.0000000000029
 70
   192
  0
VERTEX
  5
14A8
  8
MADLA
 10
201.4999999999998
 20
80.00000000000003
 30
296.0000000000029
 70
   192
  0
VERTEX
  5
14A9
  8
MADLA
 10
201.4999999999998
 20
82.50000000000003
 30
293.5000000000029
 70
   192
  0
VERTEX
  5
14AA
  8
MADLA
 10
203.4999999999998
 20
82.50000000000003
 30
293.5000000000029
 70
   192
  0
VERTEX
  5
14AB
  8
MADLA
 10
201.4999999999998
 20
81.7677669529664
 30
295.2677669529693
 70
   192
  0
VERTEX
  5
14AC
  8
MADLA
 10
203.4999999999998
 20
81.7677669529664
 30
295.2677669529693
 70
   192
  0
VERTEX
  5
14AD
  8
MADLA
 10
201.4999999999998
 20
81.7677669529664
 30
291.7322330470365
 70
   192
  0
VERTEX
  5
14AE
  8
MADLA
 10
203.4999999999998
 20
81.7677669529664
 30
291.7322330470365
 70
   192
  0
VERTEX
  5
14AF
  8
MADLA
 10
0.0
 20
0.0
 30
0.0
 70
   128
 71
     8
 72
     1
 73
    -4
  0
VERTEX
  5
14B0
  8
MADLA
 10
0.0
 20
0.0
 30
0.0
 70
   128
 71
     7
 72
    -8
 73
     4
  0
VERTEX
  5
14B1
  8
MADLA
 10
0.0
 20
0.0
 30
0.0
 70
   128
 71
     6
 72
     8
 73
    -7
  0
VERTEX
  5
14B2
  8
MADLA
 10
0.0
 20
0.0
 30
0.0
 70
   128
 71
     5
 72
    -6
 73
     7
  0
VERTEX
  5
14B3
  8
MADLA
 10
0.0
 20
0.0
 30
0.0
 70
   128
 71
    10
 72
     6
 73
    -5
  0
VERTEX
  5
14B4
  8
MADLA
 10
0.0
 20
0.0
 30
0.0
 70
   128
 71
     9
 72
   -10
 73
     5
  0
VERTEX
  5
14B5
  8
MADLA
 10
0.0
 20
0.0
 30
0.0
 70
   128
 71
     3
 72
     2
 73
   -10
  0
VERTEX
  5
14B6
  8
MADLA
 10
0.0
 20
0.0
 30
0.0
 70
   128
 71
     9
 72
    -3
 73
    10
  0
SEQEND
  5
156E
  8
MADLA
  0
ENDBLK
  5
155F
  8
0
  0
ENDSEC
  0
SECTION
  2
ENTITIES
  0
INSERT
  5
BE
  8
SKOŘEPINA
  2
*X1
 10
0.0
 20
0.0
 30
0.0
  0
INSERT
  5
BF
  8
SKOŘEPINA
  2
*X2
 10
0.0
 20
0.0
 30
0.0
  0
INSERT
  5
C0
  8
SKOŘEPINA
  2
*X3
 10
0.0
 20
0.0
 30
0.0
  0
INSERT
  5
C1
  8
SKOŘEPINA
  2
*X4
 10
0.0
 20
0.0
 30
0.0
  0
INSERT
  5
C2
  8
ŠUPLÍKY
  2
*X5
 10
0.0
 20
0.0
 30
0.0
  0
INSERT
  5
C3
  8
ŠUPLÍKY
  2
*X6
 10
0.0
 20
0.0
 30
0.0
  0
INSERT
  5
C4
  8
ŠUPLÍKY
  2
*X7
 10
0.0
 20
0.0
 30
0.0
  0
INSERT
  5
C5
  8
ŠUPLÍKY
  2
*X8
 10
0.0
 20
0.0
 30
0.0
  0
INSERT
  5
C6
  8
UMYVADLO
  2
*X9
 10
0.0
 20
0.0
 30
0.0
  0
INSERT
  5
C7
  8
MADLA
  2
*X10
 10
0.0
 20
0.0
 30
0.0
  0
INSERT
  5
C8
  8
MADLA
  2
*X11
 10
0.0
 20
0.0
 30
0.0
  0
ENDSEC
  0
EOF
