  0
SECTION
  2
HEADER
  9
$ACADVER
  1
AC1009
  9
$DWGCODEPAGE
  3
ansi_1250
  9
$INSBASE
 10
0.0
 20
0.0
 30
0.0
  9
$EXTMIN
 10
-220.0160611798207
 20
-95.10279873642685
 30
-220.0114800589139
  9
$EXTMAX
 10
220.0068984265542
 20
95.01926022485796
 30
220.0114800589138
  9
$LIMMIN
 10
0.0
 20
0.0
  9
$LIMMAX
 10
420.0
 20
297.0
  9
$ORTHOMODE
 70
     0
  9
$REGENMODE
 70
     1
  9
$FILLMODE
 70
     1
  9
$QTEXTMODE
 70
     0
  9
$MIRRTEXT
 70
     0
  9
$DRAGMODE
 70
     2
  9
$LTSCALE
 40
1.0
  9
$OSMODE
 70
   511
  9
$ATTMODE
 70
     1
  9
$TEXTSIZE
 40
2.5
  9
$TRACEWID
 40
1.0
  9
$TEXTSTYLE
  7
STANDARD
  9
$CLAYER
  8
0
  9
$CELTYPE
  6
BYLAYER
  9
$CECOLOR
 62
   256
  9
$DIMSCALE
 40
1.0
  9
$DIMASZ
 40
2.5
  9
$DIMEXO
 40
0.625
  9
$DIMDLI
 40
3.75
  9
$DIMRND
 40
0.0
  9
$DIMDLE
 40
0.0
  9
$DIMEXE
 40
1.25
  9
$DIMTP
 40
0.0
  9
$DIMTM
 40
0.0
  9
$DIMTXT
 40
2.5
  9
$DIMCEN
 40
-2.5
  9
$DIMTSZ
 40
0.0
  9
$DIMTOL
 70
     0
  9
$DIMLIM
 70
     0
  9
$DIMTIH
 70
     0
  9
$DIMTOH
 70
     0
  9
$DIMSE1
 70
     0
  9
$DIMSE2
 70
     0
  9
$DIMTAD
 70
     1
  9
$DIMZIN
 70
     8
  9
$DIMBLK
  1

  9
$DIMASO
 70
     1
  9
$DIMSHO
 70
     1
  9
$DIMPOST
  1

  9
$DIMAPOST
  1

  9
$DIMALT
 70
     0
  9
$DIMALTD
 70
     3
  9
$DIMALTF
 40
0.03937007874016
  9
$DIMLFAC
 40
1.0
  9
$DIMTOFL
 70
     1
  9
$DIMTVP
 40
0.0
  9
$DIMTIX
 70
     0
  9
$DIMSOXD
 70
     0
  9
$DIMSAH
 70
     0
  9
$DIMBLK1
  1

  9
$DIMBLK2
  1

  9
$DIMSTYLE
  2
ISO-25
  9
$DIMCLRD
 70
     0
  9
$DIMCLRE
 70
     0
  9
$DIMCLRT
 70
     0
  9
$DIMTFAC
 40
1.0
  9
$DIMGAP
 40
0.625
  9
$LUNITS
 70
     2
  9
$LUPREC
 70
     3
  9
$SKETCHINC
 40
1.0
  9
$FILLETRAD
 40
10.0
  9
$AUNITS
 70
     0
  9
$AUPREC
 70
     0
  9
$MENU
  1
.
  9
$ELEVATION
 40
0.0
  9
$PELEVATION
 40
0.0
  9
$THICKNESS
 40
0.0
  9
$LIMCHECK
 70
     0
  9
$CHAMFERA
 40
10.0
  9
$CHAMFERB
 40
10.0
  9
$SKPOLY
 70
     0
  9
$TDCREATE
 40
2455022.720692848
  9
$TDUPDATE
 40
2460447.411838808
  9
$TDINDWG
 40
0.0032960648
  9
$TDUSRTIMER
 40
0.0032960648
  9
$USRTIMER
 70
     1
  9
$ANGBASE
 50
0.0
  9
$ANGDIR
 70
     0
  9
$PDMODE
 70
     0
  9
$PDSIZE
 40
0.0
  9
$PLINEWID
 40
0.0
  9
$COORDS
 70
     1
  9
$SPLFRAME
 70
     0
  9
$SPLINETYPE
 70
     6
  9
$SPLINESEGS
 70
     8
  9
$ATTDIA
 70
     0
  9
$ATTREQ
 70
     1
  9
$HANDLING
 70
     1
  9
$HANDSEED
  5
1AB5
  9
$SURFTAB1
 70
     6
  9
$SURFTAB2
 70
     6
  9
$SURFTYPE
 70
     6
  9
$SURFU
 70
     6
  9
$SURFV
 70
     6
  9
$UCSNAME
  2

  9
$UCSORG
 10
0.0
 20
0.0
 30
0.0
  9
$UCSXDIR
 10
1.0
 20
0.0
 30
0.0
  9
$UCSYDIR
 10
0.0
 20
1.0
 30
0.0
  9
$PUCSNAME
  2

  9
$PUCSORG
 10
0.0
 20
0.0
 30
0.0
  9
$PUCSXDIR
 10
1.0
 20
0.0
 30
0.0
  9
$PUCSYDIR
 10
0.0
 20
1.0
 30
0.0
  9
$USERI1
 70
     0
  9
$USERI2
 70
     0
  9
$USERI3
 70
     0
  9
$USERI4
 70
     0
  9
$USERI5
 70
     0
  9
$USERR1
 40
0.0
  9
$USERR2
 40
0.0
  9
$USERR3
 40
0.0
  9
$USERR4
 40
0.0
  9
$USERR5
 40
0.0
  9
$WORLDVIEW
 70
     1
  9
$SHADEDGE
 70
     3
  9
$SHADEDIF
 70
    70
  9
$TILEMODE
 70
     1
  9
$MAXACTVP
 70
    64
  9
$PLIMCHECK
 70
     0
  9
$PEXTMIN
 10
1.000000000000000E+20
 20
1.000000000000000E+20
 30
1.000000000000000E+20
  9
$PEXTMAX
 10
-1.000000000000000E+20
 20
-1.000000000000000E+20
 30
-1.000000000000000E+20
  9
$PLIMMIN
 10
0.0
 20
0.0
  9
$PLIMMAX
 10
0.0
 20
0.0
  9
$UNITMODE
 70
     0
  9
$VISRETAIN
 70
     1
  9
$PLINEGEN
 70
     0
  9
$PSLTSCALE
 70
     1
  0
ENDSEC
  0
SECTION
  2
TABLES
  0
TABLE
  2
VPORT
 70
     1
  0
VPORT
  2
*ACTIVE
 70
     0
 10
0.0
 20
0.0
 11
1.0
 21
1.0
 12
-94.91077397233363
 22
-54.76265644738677
 13
0.0
 23
0.0
 14
10.0
 24
10.0
 15
10.0
 25
10.0
 16
0.5773502691896226
 26
0.5773502691896226
 36
0.5773502691896226
 17
-134.1869158878504
 27
-0.0000000000000178
 37
0.0000000000000071
 40
628.8635264212792
 41
1.89041095890411
 42
50.0
 43
0.0
 44
0.0
 50
0.0
 51
0.0
 71
    16
 72
  1000
 73
     1
 74
     3
 75
     0
 76
     0
 77
     0
 78
     0
  0
ENDTAB
  0
TABLE
  2
LTYPE
 70
     1
  0
LTYPE
  2
CONTINUOUS
 70
     0
  3
Solid line
 72
    65
 73
     0
 40
0.0
  0
ENDTAB
  0
TABLE
  2
LAYER
 70
     1
  0
LAYER
  2
0
 70
     0
 62
     7
  6
CONTINUOUS
  0
ENDTAB
  0
TABLE
  2
STYLE
 70
     2
  0
STYLE
  2
STANDARD
 70
     0
 40
0.0
 41
1.0
 50
0.0
 71
     0
 42
2.5
  3
arial.ttf
  4

  0
STYLE
  2
ANNOTATIVE
 70
     0
 40
0.0
 41
1.0
 50
0.0
 71
     0
 42
2.5
  3
arial.ttf
  4

  0
ENDTAB
  0
TABLE
  2
VIEW
 70
     0
  0
ENDTAB
  0
TABLE
  2
UCS
 70
     0
  0
ENDTAB
  0
TABLE
  2
APPID
 70
     2
  0
APPID
  2
ACAD
 70
     0
  0
APPID
  2
ACADANNOTATIVE
 70
     0
  0
ENDTAB
  0
TABLE
  2
DIMSTYLE
 70
     2
  0
DIMSTYLE
  2
ISO-25
 70
     0
  3

  4

  5

  6

  7

 40
1.0
 41
2.5
 42
0.625
 43
3.75
 44
1.25
 45
0.0
 46
0.0
 47
0.0
 48
0.0
140
2.5
141
-2.5
142
0.0
143
0.03937007874016
144
1.0
145
0.0
146
1.0
147
0.625
 71
     0
 72
     0
 73
     0
 74
     0
 75
     0
 76
     0
 77
     1
 78
     8
170
     0
171
     3
172
     1
173
     0
174
     0
175
     0
176
     0
177
     0
178
     0
  0
DIMSTYLE
  2
ANNOTATIVE
 70
     0
  3

  4

  5

  6

  7

 40
0.0
 41
2.5
 42
0.625
 43
3.75
 44
1.25
 45
0.0
 46
0.0
 47
0.0
 48
0.0
140
2.5
141
-2.5
142
0.0
143
0.03937007874016
144
1.0
145
0.0
146
1.0
147
0.625
 71
     0
 72
     0
 73
     0
 74
     0
 75
     0
 76
     0
 77
     1
 78
     8
170
     0
171
     3
172
     1
173
     0
174
     0
175
     0
176
     0
177
     0
178
     0
  0
ENDTAB
  0
ENDSEC
  0
SECTION
  2
BLOCKS
  0
BLOCK
  8
0
  2
$MODEL_SPACE
 70
     0
 10
0.0
 20
0.0
 30
0.0
  3
$MODEL_SPACE
  1

  0
ENDBLK
  5
21
  8
0
  0
BLOCK
 67
     1
  8
0
  2
$PAPER_SPACE
 70
     0
 10
0.0
 20
0.0
 30
0.0
  3
$PAPER_SPACE
  1

  0
ENDBLK
  5
1D
 67
     1
  8
0
  0
BLOCK
  8
0
  2
*X1
 70
     1
 10
0.0
 20
0.0
 30
0.0
  3
*X1
  1

  0
POLYLINE
  5
DC3
  8
0
 66
     1
 10
0.0
 20
0.0
 30
0.0
 70
    64
 71
     8
 72
     6
  0
VERTEX
  5
DC4
  8
0
 10
194.6785877245517
 20
62.61740666553056
 30
-15.0
 70
   192
  0
VERTEX
  5
DC5
  8
0
 10
194.6785877245517
 20
62.61740666553056
 30
-10.0
 70
   192
  0
VERTEX
  5
DC6
  8
0
 10
206.3026904901893
 20
63.60562622226112
 30
-10.0
 70
   192
  0
VERTEX
  5
DC7
  8
0
 10
206.3026904901894
 20
63.60562622226114
 30
10.0
 70
   192
  0
VERTEX
  5
DC8
  8
0
 10
194.6785877245518
 20
62.61740666553056
 30
10.0
 70
   192
  0
VERTEX
  5
DC9
  8
0
 10
194.6785877245517
 20
62.61740666553056
 30
15.0
 70
   192
  0
VERTEX
  5
DCA
  8
0
 10
215.8135069227791
 20
64.4141853849471
 30
15.0
 70
   192
  0
VERTEX
  5
DCB
  8
0
 10
215.8135069227791
 20
64.4141853849471
 30
-15.0
 70
   192
  0
VERTEX
  5
DCC
  8
0
 10
0.0
 20
0.0
 30
0.0
 70
   128
 71
     1
 72
     2
 73
    -3
  0
VERTEX
  5
DCD
  8
0
 10
0.0
 20
0.0
 30
0.0
 70
   128
 71
     8
 72
    -1
 73
    -3
  0
VERTEX
  5
DCE
  8
0
 10
0.0
 20
0.0
 30
0.0
 70
   128
 71
    -4
 72
     7
 73
    -8
  0
VERTEX
  5
DCF
  8
0
 10
0.0
 20
0.0
 30
0.0
 70
   128
 71
     3
 72
    -4
 73
    -8
  0
VERTEX
  5
DD0
  8
0
 10
0.0
 20
0.0
 30
0.0
 70
   128
 71
     5
 72
     6
 73
    -7
  0
VERTEX
  5
DD1
  8
0
 10
0.0
 20
0.0
 30
0.0
 70
   128
 71
     4
 72
    -5
 73
    -7
  0
SEQEND
  5
1A3D
  8
0
  0
POLYLINE
  5
DD2
  8
0
 66
     1
 10
0.0
 20
0.0
 30
0.0
 70
    64
 71
     8
 72
     6
  0
VERTEX
  5
DD3
  8
0
 10
191.1938390889798
 20
60.7275396323489
 30
-15.0
 70
   192
  0
VERTEX
  5
DD4
  8
0
 10
191.1938390889798
 20
60.7275396323489
 30
-10.0
 70
   192
  0
VERTEX
  5
DD5
  8
0
 10
192.7386964012447
 20
62.03667713970034
 30
-10.0
 70
   192
  0
VERTEX
  5
DD6
  8
0
 10
192.7386964012447
 20
62.03667713970034
 30
-15.0
 70
   192
  0
VERTEX
  5
DD7
  8
0
 10
190.3027073701691
 20
58.90921364723444
 30
-15.0
 70
   192
  0
VERTEX
  5
DD8
  8
0
 10
190.3027073701691
 20
58.90921364723443
 30
-10.0
 70
   192
  0
VERTEX
  5
DD9
  8
0
 10
194.6785877245517
 20
62.61740666553055
 30
-10.0
 70
   192
  0
VERTEX
  5
DDA
  8
0
 10
194.6785877245517
 20
62.61740666553056
 30
-15.0
 70
   192
  0
VERTEX
  5
DDB
  8
0
 10
0.0
 20
0.0
 30
0.0
 70
   128
 71
     1
 72
     2
 73
    -3
  0
VERTEX
  5
DDC
  8
0
 10
0.0
 20
0.0
 30
0.0
 70
   128
 71
    -1
 72
     3
 73
     4
  0
VERTEX
  5
DDD
  8
0
 10
0.0
 20
0.0
 30
0.0
 70
   128
 71
     5
 72
     6
 73
    -2
  0
VERTEX
  5
DDE
  8
0
 10
0.0
 20
0.0
 30
0.0
 70
   128
 71
    -5
 72
     2
 73
     1
  0
VERTEX
  5
DDF
  8
0
 10
0.0
 20
0.0
 30
0.0
 70
   128
 71
     4
 72
     3
 73
    -7
  0
VERTEX
  5
DE0
  8
0
 10
0.0
 20
0.0
 30
0.0
 70
   128
 71
    -4
 72
     7
 73
     8
  0
SEQEND
  5
1A3E
  8
0
  0
POLYLINE
  5
DE1
  8
0
 66
     1
 10
0.0
 20
0.0
 30
0.0
 70
    64
 71
     8
 72
     6
  0
VERTEX
  5
DE2
  8
0
 10
179.8184285357695
 20
21.86246155541669
 30
-10.0
 70
   192
  0
VERTEX
  5
DE3
  8
0
 10
185.9506349418831
 20
40.13394749042075
 30
-10.0
 70
   192
  0
VERTEX
  5
DE4
  8
0
 10
185.9506349418831
 20
40.13394749042075
 30
-15.0
 70
   192
  0
VERTEX
  5
DE5
  8
0
 10
179.8184285357695
 20
21.86246155541669
 30
-15.0
 70
   192
  0
VERTEX
  5
DE6
  8
0
 10
190.3027073701691
 20
58.90921364723442
 30
-10.0
 70
   192
  0
VERTEX
  5
DE7
  8
0
 10
190.3027073701691
 20
58.90921364723443
 30
-15.0
 70
   192
  0
VERTEX
  5
DE8
  8
0
 10
171.9625922919675
 20
4.263115243953647
 30
-10.0
 70
   192
  0
VERTEX
  5
DE9
  8
0
 10
171.9625922919675
 20
4.263115243953647
 30
-15.0
 70
   192
  0
VERTEX
  5
DEA
  8
0
 10
0.0
 20
0.0
 30
0.0
 70
   128
 71
     1
 72
     2
 73
    -3
  0
VERTEX
  5
DEB
  8
0
 10
0.0
 20
0.0
 30
0.0
 70
   128
 71
     4
 72
    -1
 73
     3
  0
VERTEX
  5
DEC
  8
0
 10
0.0
 20
0.0
 30
0.0
 70
   128
 71
     2
 72
     5
 73
    -6
  0
VERTEX
  5
DED
  8
0
 10
0.0
 20
0.0
 30
0.0
 70
   128
 71
     3
 72
    -2
 73
     6
  0
VERTEX
  5
DEE
  8
0
 10
0.0
 20
0.0
 30
0.0
 70
   128
 71
     7
 72
     1
 73
    -4
  0
VERTEX
  5
DEF
  8
0
 10
0.0
 20
0.0
 30
0.0
 70
   128
 71
     8
 72
    -7
 73
     4
  0
SEQEND
  5
1A3F
  8
0
  0
POLYLINE
  5
DF0
  8
0
 66
     1
 10
0.0
 20
0.0
 30
0.0
 70
    64
 71
     8
 72
     6
  0
VERTEX
  5
DF1
  8
0
 10
139.8699839840267
 20
-33.483908607073
 30
-10.0
 70
   192
  0
VERTEX
  5
DF2
  8
0
 10
158.1610833594831
 20
-16.51892684963349
 30
-10.0
 70
   192
  0
VERTEX
  5
DF3
  8
0
 10
158.1610833594831
 20
-16.51892684963349
 30
-15.0
 70
   192
  0
VERTEX
  5
DF4
  8
0
 10
139.8699839840267
 20
-33.483908607073
 30
-15.0
 70
   192
  0
VERTEX
  5
DF5
  8
0
 10
171.9625922919675
 20
4.2631152439536
 30
-10.0
 70
   192
  0
VERTEX
  5
DF6
  8
0
 10
171.9625922919675
 20
4.263115243953647
 30
-15.0
 70
   192
  0
VERTEX
  5
DF7
  8
0
 10
118.1098743617658
 20
-45.68524261693689
 30
-10.0
 70
   192
  0
VERTEX
  5
DF8
  8
0
 10
118.1098743617658
 20
-45.68524261693689
 30
-15.0
 70
   192
  0
VERTEX
  5
DF9
  8
0
 10
0.0
 20
0.0
 30
0.0
 70
   128
 71
     1
 72
     2
 73
    -3
  0
VERTEX
  5
DFA
  8
0
 10
0.0
 20
0.0
 30
0.0
 70
   128
 71
     4
 72
    -1
 73
     3
  0
VERTEX
  5
DFB
  8
0
 10
0.0
 20
0.0
 30
0.0
 70
   128
 71
     2
 72
     5
 73
    -6
  0
VERTEX
  5
DFC
  8
0
 10
0.0
 20
0.0
 30
0.0
 70
   128
 71
     3
 72
    -2
 73
     6
  0
VERTEX
  5
DFD
  8
0
 10
0.0
 20
0.0
 30
0.0
 70
   128
 71
     7
 72
     1
 73
    -4
  0
VERTEX
  5
DFE
  8
0
 10
0.0
 20
0.0
 30
0.0
 70
   128
 71
     8
 72
    -7
 73
     4
  0
SEQEND
  5
1A40
  8
0
  0
POLYLINE
  5
DFF
  8
0
 66
     1
 10
0.0
 20
0.0
 30
0.0
 70
    64
 71
     8
 72
     6
  0
VERTEX
  5
E00
  8
0
 10
97.48718766240464
 20
-52.63954558917763
 30
-10.0
 70
   192
  0
VERTEX
  5
E01
  8
0
 10
107.9157774364039
 20
-49.51008333733338
 30
-10.0
 70
   192
  0
VERTEX
  5
E02
  8
0
 10
107.9157774364039
 20
-49.51008333733338
 30
-15.0
 70
   192
  0
VERTEX
  5
E03
  8
0
 10
97.48718766240464
 20
-52.63954558917763
 30
-15.0
 70
   192
  0
VERTEX
  5
E04
  8
0
 10
118.1098743617658
 20
-45.68524261693693
 30
-10.0
 70
   192
  0
VERTEX
  5
E05
  8
0
 10
118.1098743617658
 20
-45.68524261693689
 30
-15.0
 70
   192
  0
VERTEX
  5
E06
  8
0
 10
86.8714794769123
 20
-55.05941301954394
 30
-10.0
 70
   192
  0
VERTEX
  5
E07
  8
0
 10
86.8714794769123
 20
-55.05941301954394
 30
-15.0
 70
   192
  0
VERTEX
  5
E08
  8
0
 10
0.0
 20
0.0
 30
0.0
 70
   128
 71
     1
 72
     2
 73
    -3
  0
VERTEX
  5
E09
  8
0
 10
0.0
 20
0.0
 30
0.0
 70
   128
 71
     4
 72
    -1
 73
     3
  0
VERTEX
  5
E0A
  8
0
 10
0.0
 20
0.0
 30
0.0
 70
   128
 71
     2
 72
     5
 73
    -6
  0
VERTEX
  5
E0B
  8
0
 10
0.0
 20
0.0
 30
0.0
 70
   128
 71
     3
 72
    -2
 73
     6
  0
VERTEX
  5
E0C
  8
0
 10
0.0
 20
0.0
 30
0.0
 70
   128
 71
     7
 72
     1
 73
    -4
  0
VERTEX
  5
E0D
  8
0
 10
0.0
 20
0.0
 30
0.0
 70
   128
 71
     8
 72
    -7
 73
     4
  0
SEQEND
  5
1A41
  8
0
  0
POLYLINE
  5
E0E
  8
0
 66
     1
 10
0.0
 20
0.0
 30
0.0
 70
    64
 71
     8
 72
     6
  0
VERTEX
  5
E0F
  8
0
 10
54.93897261723826
 20
-59.60594279394894
 30
-10.0
 70
   192
  0
VERTEX
  5
E10
  8
0
 10
70.9609172739694
 20
-57.72382468749242
 30
-10.0
 70
   192
  0
VERTEX
  5
E11
  8
0
 10
70.9609172739694
 20
-57.72382468749242
 30
-15.0
 70
   192
  0
VERTEX
  5
E12
  8
0
 10
54.93897261723826
 20
-59.60594279394894
 30
-15.0
 70
   192
  0
VERTEX
  5
E13
  8
0
 10
86.87147947691231
 20
-55.05941301954391
 30
-10.0
 70
   192
  0
VERTEX
  5
E14
  8
0
 10
86.8714794769123
 20
-55.05941301954394
 30
-15.0
 70
   192
  0
VERTEX
  5
E15
  8
0
 10
38.84408592725842
 20
-60.7012516940858
 30
-10.0
 70
   192
  0
VERTEX
  5
E16
  8
0
 10
38.84408592725842
 20
-60.7012516940858
 30
-15.0
 70
   192
  0
VERTEX
  5
E17
  8
0
 10
0.0
 20
0.0
 30
0.0
 70
   128
 71
     1
 72
     2
 73
    -3
  0
VERTEX
  5
E18
  8
0
 10
0.0
 20
0.0
 30
0.0
 70
   128
 71
     4
 72
    -1
 73
     3
  0
VERTEX
  5
E19
  8
0
 10
0.0
 20
0.0
 30
0.0
 70
   128
 71
     2
 72
     5
 73
    -6
  0
VERTEX
  5
E1A
  8
0
 10
0.0
 20
0.0
 30
0.0
 70
   128
 71
     3
 72
    -2
 73
     6
  0
VERTEX
  5
E1B
  8
0
 10
0.0
 20
0.0
 30
0.0
 70
   128
 71
     7
 72
     1
 73
    -4
  0
VERTEX
  5
E1C
  8
0
 10
0.0
 20
0.0
 30
0.0
 70
   128
 71
     8
 72
    -7
 73
     4
  0
SEQEND
  5
1A42
  8
0
  0
POLYLINE
  5
E1D
  8
0
 66
     1
 10
0.0
 20
0.0
 30
0.0
 70
    64
 71
     8
 72
     6
  0
VERTEX
  5
E1E
  8
0
 10
34.75948732172751
 20
-63.20599101622848
 30
-15.0
 70
   192
  0
VERTEX
  5
E1F
  8
0
 10
34.75948732172751
 20
-63.20599101622848
 30
-10.0
 70
   192
  0
VERTEX
  5
E20
  8
0
 10
36.47758132732777
 20
-61.42492421969082
 30
-10.0
 70
   192
  0
VERTEX
  5
E21
  8
0
 10
36.47758132732777
 20
-61.42492421969082
 30
-15.0
 70
   192
  0
VERTEX
  5
E22
  8
0
 10
34.12143362011886
 20
-65.59700197807537
 30
-15.0
 70
   192
  0
VERTEX
  5
E23
  8
0
 10
34.12143362011886
 20
-65.59700197807537
 30
-10.0
 70
   192
  0
VERTEX
  5
E24
  8
0
 10
38.84408592725842
 20
-60.70125169408581
 30
-10.0
 70
   192
  0
VERTEX
  5
E25
  8
0
 10
38.84408592725842
 20
-60.7012516940858
 30
-15.0
 70
   192
  0
VERTEX
  5
E26
  8
0
 10
0.0
 20
0.0
 30
0.0
 70
   128
 71
     1
 72
     2
 73
    -3
  0
VERTEX
  5
E27
  8
0
 10
0.0
 20
0.0
 30
0.0
 70
   128
 71
    -1
 72
     3
 73
     4
  0
VERTEX
  5
E28
  8
0
 10
0.0
 20
0.0
 30
0.0
 70
   128
 71
     5
 72
     6
 73
    -2
  0
VERTEX
  5
E29
  8
0
 10
0.0
 20
0.0
 30
0.0
 70
   128
 71
    -5
 72
     2
 73
     1
  0
VERTEX
  5
E2A
  8
0
 10
0.0
 20
0.0
 30
0.0
 70
   128
 71
     4
 72
     3
 73
    -7
  0
VERTEX
  5
E2B
  8
0
 10
0.0
 20
0.0
 30
0.0
 70
   128
 71
    -4
 72
     7
 73
     8
  0
SEQEND
  5
1A43
  8
0
  0
POLYLINE
  5
E2C
  8
0
 66
     1
 10
0.0
 20
0.0
 30
0.0
 70
    64
 71
     4
 72
     2
  0
VERTEX
  5
E2D
  8
0
 10
24.12171231069495
 20
-65.52234453468802
 30
-10.0
 70
   192
  0
VERTEX
  5
E2E
  8
0
 10
24.12171231069495
 20
-65.522344534688
 30
-15.0
 70
   192
  0
VERTEX
  5
E2F
  8
0
 10
34.12143362011886
 20
-65.59700197807537
 30
-15.0
 70
   192
  0
VERTEX
  5
E30
  8
0
 10
34.12143362011886
 20
-65.59700197807537
 30
-10.0
 70
   192
  0
VERTEX
  5
E31
  8
0
 10
0.0
 20
0.0
 30
0.0
 70
   128
 71
     1
 72
     4
 73
    -3
  0
VERTEX
  5
E32
  8
0
 10
0.0
 20
0.0
 30
0.0
 70
   128
 71
    -1
 72
     3
 73
     2
  0
SEQEND
  5
1A44
  8
0
  0
POLYLINE
  5
E33
  8
0
 66
     1
 10
0.0
 20
0.0
 30
0.0
 70
    64
 71
     4
 72
     2
  0
VERTEX
  5
E34
  8
0
 10
23.96345519252815
 20
-86.71952200418896
 30
-15.0
 70
   192
  0
VERTEX
  5
E35
  8
0
 10
23.96345519252815
 20
-86.71952200418896
 30
-10.0
 70
   192
  0
VERTEX
  5
E36
  8
0
 10
24.12171231069495
 20
-65.522344534688
 30
-10.0
 70
   192
  0
VERTEX
  5
E37
  8
0
 10
24.12171231069495
 20
-65.52234453468802
 30
-15.0
 70
   192
  0
VERTEX
  5
E38
  8
0
 10
0.0
 20
0.0
 30
0.0
 70
   128
 71
     3
 72
     4
 73
    -1
  0
VERTEX
  5
E39
  8
0
 10
0.0
 20
0.0
 30
0.0
 70
   128
 71
     2
 72
    -3
 73
     1
  0
SEQEND
  5
1A45
  8
0
  0
POLYLINE
  5
E3A
  8
0
 66
     1
 10
0.0
 20
0.0
 30
0.0
 70
    64
 71
     4
 72
     2
  0
VERTEX
  5
E3B
  8
0
 10
33.9637338908713
 20
-86.71952200418895
 30
-15.0
 70
   192
  0
VERTEX
  5
E3C
  8
0
 10
33.9637338908713
 20
-86.71952200418895
 30
-10.0
 70
   192
  0
VERTEX
  5
E3D
  8
0
 10
23.96345519252815
 20
-86.71952200418896
 30
-10.0
 70
   192
  0
VERTEX
  5
E3E
  8
0
 10
23.96345519252815
 20
-86.71952200418896
 30
-15.0
 70
   192
  0
VERTEX
  5
E3F
  8
0
 10
0.0
 20
0.0
 30
0.0
 70
   128
 71
     3
 72
     4
 73
    -1
  0
VERTEX
  5
E40
  8
0
 10
0.0
 20
0.0
 30
0.0
 70
   128
 71
     2
 72
    -3
 73
     1
  0
SEQEND
  5
1A46
  8
0
  0
POLYLINE
  5
E41
  8
0
 66
     1
 10
0.0
 20
0.0
 30
0.0
 70
    64
 71
     8
 72
     6
  0
VERTEX
  5
E42
  8
0
 10
216.6628830881351
 20
64.61394024519012
 30
15.0
 70
   192
  0
VERTEX
  5
E43
  8
0
 10
217.4188438104123
 20
65.04967555571677
 30
15.0
 70
   192
  0
VERTEX
  5
E44
  8
0
 10
217.4188438104123
 20
65.04967555571677
 30
-15.0
 70
   192
  0
VERTEX
  5
E45
  8
0
 10
216.6628830881351
 20
64.61394024519012
 30
-15.0
 70
   192
  0
VERTEX
  5
E46
  8
0
 10
218.0174311432827
 20
65.6845259943184
 30
15.0
 70
   192
  0
VERTEX
  5
E47
  8
0
 10
218.0174311432827
 20
65.6845259943184
 30
-15.0
 70
   192
  0
VERTEX
  5
E48
  8
0
 10
215.8135069227791
 20
64.4141853849471
 30
15.0
 70
   192
  0
VERTEX
  5
E49
  8
0
 10
215.8135069227791
 20
64.41418538494712
 30
-15.0
 70
   192
  0
VERTEX
  5
E4A
  8
0
 10
0.0
 20
0.0
 30
0.0
 70
   128
 71
     1
 72
     2
 73
    -3
  0
VERTEX
  5
E4B
  8
0
 10
0.0
 20
0.0
 30
0.0
 70
   128
 71
     4
 72
    -1
 73
     3
  0
VERTEX
  5
E4C
  8
0
 10
0.0
 20
0.0
 30
0.0
 70
   128
 71
     2
 72
     5
 73
    -6
  0
VERTEX
  5
E4D
  8
0
 10
0.0
 20
0.0
 30
0.0
 70
   128
 71
     3
 72
    -2
 73
     6
  0
VERTEX
  5
E4E
  8
0
 10
0.0
 20
0.0
 30
0.0
 70
   128
 71
     7
 72
     1
 73
    -4
  0
VERTEX
  5
E4F
  8
0
 10
0.0
 20
0.0
 30
0.0
 70
   128
 71
     8
 72
    -7
 73
     4
  0
SEQEND
  5
1A47
  8
0
  0
POLYLINE
  5
E50
  8
0
 66
     1
 10
0.0
 20
0.0
 30
0.0
 70
    64
 71
     8
 72
     6
  0
VERTEX
  5
E51
  8
0
 10
191.1938390889798
 20
60.7275396323489
 30
10.0
 70
   192
  0
VERTEX
  5
E52
  8
0
 10
191.1938390889798
 20
60.7275396323489
 30
15.0
 70
   192
  0
VERTEX
  5
E53
  8
0
 10
192.7386964012447
 20
62.03667713970034
 30
15.0
 70
   192
  0
VERTEX
  5
E54
  8
0
 10
192.7386964012447
 20
62.03667713970034
 30
10.0
 70
   192
  0
VERTEX
  5
E55
  8
0
 10
190.3027073701691
 20
58.90921364723444
 30
10.0
 70
   192
  0
VERTEX
  5
E56
  8
0
 10
190.3027073701691
 20
58.90921364723443
 30
15.0
 70
   192
  0
VERTEX
  5
E57
  8
0
 10
194.6785877245517
 20
62.61740666553055
 30
15.0
 70
   192
  0
VERTEX
  5
E58
  8
0
 10
194.6785877245517
 20
62.61740666553056
 30
10.0
 70
   192
  0
VERTEX
  5
E59
  8
0
 10
0.0
 20
0.0
 30
0.0
 70
   128
 71
     1
 72
     2
 73
    -3
  0
VERTEX
  5
E5A
  8
0
 10
0.0
 20
0.0
 30
0.0
 70
   128
 71
    -1
 72
     3
 73
     4
  0
VERTEX
  5
E5B
  8
0
 10
0.0
 20
0.0
 30
0.0
 70
   128
 71
     5
 72
     6
 73
    -2
  0
VERTEX
  5
E5C
  8
0
 10
0.0
 20
0.0
 30
0.0
 70
   128
 71
    -5
 72
     2
 73
     1
  0
VERTEX
  5
E5D
  8
0
 10
0.0
 20
0.0
 30
0.0
 70
   128
 71
     4
 72
     3
 73
    -7
  0
VERTEX
  5
E5E
  8
0
 10
0.0
 20
0.0
 30
0.0
 70
   128
 71
    -4
 72
     7
 73
     8
  0
SEQEND
  5
1A48
  8
0
  0
POLYLINE
  5
E5F
  8
0
 66
     1
 10
0.0
 20
0.0
 30
0.0
 70
    64
 71
     8
 72
     6
  0
VERTEX
  5
E60
  8
0
 10
179.8184285357695
 20
21.86246155541669
 30
15.0
 70
   192
  0
VERTEX
  5
E61
  8
0
 10
185.9506349418831
 20
40.13394749042075
 30
15.0
 70
   192
  0
VERTEX
  5
E62
  8
0
 10
185.9506349418831
 20
40.13394749042075
 30
10.0
 70
   192
  0
VERTEX
  5
E63
  8
0
 10
179.8184285357695
 20
21.86246155541669
 30
10.0
 70
   192
  0
VERTEX
  5
E64
  8
0
 10
190.3027073701691
 20
58.90921364723442
 30
15.0
 70
   192
  0
VERTEX
  5
E65
  8
0
 10
190.3027073701691
 20
58.90921364723442
 30
10.0
 70
   192
  0
VERTEX
  5
E66
  8
0
 10
171.9625922919675
 20
4.263115243953647
 30
15.0
 70
   192
  0
VERTEX
  5
E67
  8
0
 10
171.9625922919675
 20
4.263115243953663
 30
10.0
 70
   192
  0
VERTEX
  5
E68
  8
0
 10
0.0
 20
0.0
 30
0.0
 70
   128
 71
     1
 72
     2
 73
    -3
  0
VERTEX
  5
E69
  8
0
 10
0.0
 20
0.0
 30
0.0
 70
   128
 71
     4
 72
    -1
 73
     3
  0
VERTEX
  5
E6A
  8
0
 10
0.0
 20
0.0
 30
0.0
 70
   128
 71
     2
 72
     5
 73
    -6
  0
VERTEX
  5
E6B
  8
0
 10
0.0
 20
0.0
 30
0.0
 70
   128
 71
     3
 72
    -2
 73
     6
  0
VERTEX
  5
E6C
  8
0
 10
0.0
 20
0.0
 30
0.0
 70
   128
 71
     7
 72
     1
 73
    -4
  0
VERTEX
  5
E6D
  8
0
 10
0.0
 20
0.0
 30
0.0
 70
   128
 71
     8
 72
    -7
 73
     4
  0
SEQEND
  5
1A49
  8
0
  0
POLYLINE
  5
E6E
  8
0
 66
     1
 10
0.0
 20
0.0
 30
0.0
 70
    64
 71
     8
 72
     6
  0
VERTEX
  5
E6F
  8
0
 10
139.8699839840267
 20
-33.483908607073
 30
15.0
 70
   192
  0
VERTEX
  5
E70
  8
0
 10
158.1610833594831
 20
-16.51892684963349
 30
15.0
 70
   192
  0
VERTEX
  5
E71
  8
0
 10
158.1610833594831
 20
-16.51892684963349
 30
10.0
 70
   192
  0
VERTEX
  5
E72
  8
0
 10
139.8699839840267
 20
-33.483908607073
 30
10.0
 70
   192
  0
VERTEX
  5
E73
  8
0
 10
171.9625922919675
 20
4.2631152439536
 30
15.0
 70
   192
  0
VERTEX
  5
E74
  8
0
 10
171.9625922919675
 20
4.2631152439536
 30
10.0
 70
   192
  0
VERTEX
  5
E75
  8
0
 10
118.1098743617658
 20
-45.68524261693689
 30
15.0
 70
   192
  0
VERTEX
  5
E76
  8
0
 10
118.1098743617658
 20
-45.68524261693691
 30
10.0
 70
   192
  0
VERTEX
  5
E77
  8
0
 10
0.0
 20
0.0
 30
0.0
 70
   128
 71
     1
 72
     2
 73
    -3
  0
VERTEX
  5
E78
  8
0
 10
0.0
 20
0.0
 30
0.0
 70
   128
 71
     4
 72
    -1
 73
     3
  0
VERTEX
  5
E79
  8
0
 10
0.0
 20
0.0
 30
0.0
 70
   128
 71
     2
 72
     5
 73
    -6
  0
VERTEX
  5
E7A
  8
0
 10
0.0
 20
0.0
 30
0.0
 70
   128
 71
     3
 72
    -2
 73
     6
  0
VERTEX
  5
E7B
  8
0
 10
0.0
 20
0.0
 30
0.0
 70
   128
 71
     7
 72
     1
 73
    -4
  0
VERTEX
  5
E7C
  8
0
 10
0.0
 20
0.0
 30
0.0
 70
   128
 71
     8
 72
    -7
 73
     4
  0
SEQEND
  5
1A4A
  8
0
  0
POLYLINE
  5
E7D
  8
0
 66
     1
 10
0.0
 20
0.0
 30
0.0
 70
    64
 71
     8
 72
     6
  0
VERTEX
  5
E7E
  8
0
 10
97.48718766240464
 20
-52.63954558917763
 30
15.0
 70
   192
  0
VERTEX
  5
E7F
  8
0
 10
107.9157774364039
 20
-49.51008333733338
 30
15.0
 70
   192
  0
VERTEX
  5
E80
  8
0
 10
107.9157774364039
 20
-49.51008333733338
 30
10.0
 70
   192
  0
VERTEX
  5
E81
  8
0
 10
97.48718766240464
 20
-52.63954558917763
 30
10.0
 70
   192
  0
VERTEX
  5
E82
  8
0
 10
118.1098743617658
 20
-45.68524261693693
 30
15.0
 70
   192
  0
VERTEX
  5
E83
  8
0
 10
118.1098743617658
 20
-45.68524261693693
 30
10.0
 70
   192
  0
VERTEX
  5
E84
  8
0
 10
86.8714794769123
 20
-55.05941301954394
 30
15.0
 70
   192
  0
VERTEX
  5
E85
  8
0
 10
86.8714794769123
 20
-55.05941301954394
 30
10.0
 70
   192
  0
VERTEX
  5
E86
  8
0
 10
0.0
 20
0.0
 30
0.0
 70
   128
 71
     1
 72
     2
 73
    -3
  0
VERTEX
  5
E87
  8
0
 10
0.0
 20
0.0
 30
0.0
 70
   128
 71
     4
 72
    -1
 73
     3
  0
VERTEX
  5
E88
  8
0
 10
0.0
 20
0.0
 30
0.0
 70
   128
 71
     2
 72
     5
 73
    -6
  0
VERTEX
  5
E89
  8
0
 10
0.0
 20
0.0
 30
0.0
 70
   128
 71
     3
 72
    -2
 73
     6
  0
VERTEX
  5
E8A
  8
0
 10
0.0
 20
0.0
 30
0.0
 70
   128
 71
     7
 72
     1
 73
    -4
  0
VERTEX
  5
E8B
  8
0
 10
0.0
 20
0.0
 30
0.0
 70
   128
 71
     8
 72
    -7
 73
     4
  0
SEQEND
  5
1A4B
  8
0
  0
POLYLINE
  5
E8C
  8
0
 66
     1
 10
0.0
 20
0.0
 30
0.0
 70
    64
 71
     8
 72
     6
  0
VERTEX
  5
E8D
  8
0
 10
54.93897261723826
 20
-59.60594279394894
 30
15.0
 70
   192
  0
VERTEX
  5
E8E
  8
0
 10
70.9609172739694
 20
-57.72382468749242
 30
15.0
 70
   192
  0
VERTEX
  5
E8F
  8
0
 10
70.9609172739694
 20
-57.72382468749242
 30
10.0
 70
   192
  0
VERTEX
  5
E90
  8
0
 10
54.93897261723826
 20
-59.60594279394894
 30
10.0
 70
   192
  0
VERTEX
  5
E91
  8
0
 10
86.87147947691231
 20
-55.05941301954391
 30
15.0
 70
   192
  0
VERTEX
  5
E92
  8
0
 10
86.87147947691231
 20
-55.05941301954391
 30
10.0
 70
   192
  0
VERTEX
  5
E93
  8
0
 10
38.84408592725842
 20
-60.7012516940858
 30
15.0
 70
   192
  0
VERTEX
  5
E94
  8
0
 10
38.84408592725821
 20
-60.70125169408584
 30
10.0
 70
   192
  0
VERTEX
  5
E95
  8
0
 10
0.0
 20
0.0
 30
0.0
 70
   128
 71
     1
 72
     2
 73
    -3
  0
VERTEX
  5
E96
  8
0
 10
0.0
 20
0.0
 30
0.0
 70
   128
 71
     4
 72
    -1
 73
     3
  0
VERTEX
  5
E97
  8
0
 10
0.0
 20
0.0
 30
0.0
 70
   128
 71
     2
 72
     5
 73
    -6
  0
VERTEX
  5
E98
  8
0
 10
0.0
 20
0.0
 30
0.0
 70
   128
 71
     3
 72
    -2
 73
     6
  0
VERTEX
  5
E99
  8
0
 10
0.0
 20
0.0
 30
0.0
 70
   128
 71
     7
 72
     1
 73
    -4
  0
VERTEX
  5
E9A
  8
0
 10
0.0
 20
0.0
 30
0.0
 70
   128
 71
     8
 72
    -7
 73
     4
  0
SEQEND
  5
1A4C
  8
0
  0
POLYLINE
  5
E9B
  8
0
 66
     1
 10
0.0
 20
0.0
 30
0.0
 70
    64
 71
     8
 72
     6
  0
VERTEX
  5
E9C
  8
0
 10
34.75948732172751
 20
-63.20599101622848
 30
10.0
 70
   192
  0
VERTEX
  5
E9D
  8
0
 10
34.75948732172751
 20
-63.20599101622848
 30
15.0
 70
   192
  0
VERTEX
  5
E9E
  8
0
 10
36.47758132732777
 20
-61.42492421969082
 30
15.0
 70
   192
  0
VERTEX
  5
E9F
  8
0
 10
36.47758132732777
 20
-61.42492421969082
 30
10.0
 70
   192
  0
VERTEX
  5
EA0
  8
0
 10
34.12143362011886
 20
-65.59700197807537
 30
10.0
 70
   192
  0
VERTEX
  5
EA1
  8
0
 10
34.12143362011886
 20
-65.59700197807537
 30
15.0
 70
   192
  0
VERTEX
  5
EA2
  8
0
 10
38.84408592725842
 20
-60.70125169408581
 30
15.0
 70
   192
  0
VERTEX
  5
EA3
  8
0
 10
38.84408592725842
 20
-60.7012516940858
 30
10.0
 70
   192
  0
VERTEX
  5
EA4
  8
0
 10
0.0
 20
0.0
 30
0.0
 70
   128
 71
     1
 72
     2
 73
    -3
  0
VERTEX
  5
EA5
  8
0
 10
0.0
 20
0.0
 30
0.0
 70
   128
 71
    -1
 72
     3
 73
     4
  0
VERTEX
  5
EA6
  8
0
 10
0.0
 20
0.0
 30
0.0
 70
   128
 71
     5
 72
     6
 73
    -2
  0
VERTEX
  5
EA7
  8
0
 10
0.0
 20
0.0
 30
0.0
 70
   128
 71
    -5
 72
     2
 73
     1
  0
VERTEX
  5
EA8
  8
0
 10
0.0
 20
0.0
 30
0.0
 70
   128
 71
     4
 72
     3
 73
    -7
  0
VERTEX
  5
EA9
  8
0
 10
0.0
 20
0.0
 30
0.0
 70
   128
 71
    -4
 72
     7
 73
     8
  0
SEQEND
  5
1A4D
  8
0
  0
POLYLINE
  5
EAA
  8
0
 66
     1
 10
0.0
 20
0.0
 30
0.0
 70
    64
 71
     4
 72
     2
  0
VERTEX
  5
EAB
  8
0
 10
34.12143362011886
 20
-65.59700197807537
 30
15.0
 70
   192
  0
VERTEX
  5
EAC
  8
0
 10
24.12171231069495
 20
-65.52234453468802
 30
15.0
 70
   192
  0
VERTEX
  5
EAD
  8
0
 10
24.12171231069495
 20
-65.522344534688
 30
10.0
 70
   192
  0
VERTEX
  5
EAE
  8
0
 10
34.12143362011886
 20
-65.59700197807537
 30
10.0
 70
   192
  0
VERTEX
  5
EAF
  8
0
 10
0.0
 20
0.0
 30
0.0
 70
   128
 71
     1
 72
     4
 73
    -3
  0
VERTEX
  5
EB0
  8
0
 10
0.0
 20
0.0
 30
0.0
 70
   128
 71
    -1
 72
     3
 73
     2
  0
SEQEND
  5
1A4E
  8
0
  0
POLYLINE
  5
EB1
  8
0
 66
     1
 10
0.0
 20
0.0
 30
0.0
 70
    64
 71
     4
 72
     2
  0
VERTEX
  5
EB2
  8
0
 10
24.12171231069495
 20
-65.522344534688
 30
10.0
 70
   192
  0
VERTEX
  5
EB3
  8
0
 10
23.96345519252815
 20
-86.71952200418896
 30
10.0
 70
   192
  0
VERTEX
  5
EB4
  8
0
 10
23.96345519252815
 20
-86.71952200418896
 30
15.0
 70
   192
  0
VERTEX
  5
EB5
  8
0
 10
24.12171231069495
 20
-65.52234453468802
 30
15.0
 70
   192
  0
VERTEX
  5
EB6
  8
0
 10
0.0
 20
0.0
 30
0.0
 70
   128
 71
     3
 72
     4
 73
    -1
  0
VERTEX
  5
EB7
  8
0
 10
0.0
 20
0.0
 30
0.0
 70
   128
 71
     2
 72
    -3
 73
     1
  0
SEQEND
  5
1A4F
  8
0
  0
POLYLINE
  5
EB8
  8
0
 66
     1
 10
0.0
 20
0.0
 30
0.0
 70
    64
 71
     4
 72
     2
  0
VERTEX
  5
EB9
  8
0
 10
23.96345519252815
 20
-86.71952200418896
 30
10.0
 70
   192
  0
VERTEX
  5
EBA
  8
0
 10
33.9637338908713
 20
-86.71952200418896
 30
10.0
 70
   192
  0
VERTEX
  5
EBB
  8
0
 10
33.9637338908713
 20
-86.71952200418895
 30
15.0
 70
   192
  0
VERTEX
  5
EBC
  8
0
 10
23.96345519252815
 20
-86.71952200418896
 30
15.0
 70
   192
  0
VERTEX
  5
EBD
  8
0
 10
0.0
 20
0.0
 30
0.0
 70
   128
 71
     3
 72
     4
 73
    -1
  0
VERTEX
  5
EBE
  8
0
 10
0.0
 20
0.0
 30
0.0
 70
   128
 71
     2
 72
    -3
 73
     1
  0
SEQEND
  5
1A50
  8
0
  0
POLYLINE
  5
EBF
  8
0
 66
     1
 10
0.0
 20
0.0
 30
0.0
 70
    64
 71
     6
 72
     4
  0
VERTEX
  5
EC0
  8
0
 10
33.9637338908713
 20
-86.71952200418895
 30
-15.0
 70
   192
  0
VERTEX
  5
EC1
  8
0
 10
33.90195126124364
 20
-94.994772937102
 30
-15.0
 70
   192
  0
VERTEX
  5
EC2
  8
0
 10
33.90195126124364
 20
-94.99477293710198
 30
15.0
 70
   192
  0
VERTEX
  5
EC3
  8
0
 10
33.9637338908713
 20
-86.71952200418895
 30
15.0
 70
   192
  0
VERTEX
  5
EC4
  8
0
 10
33.9637338908713
 20
-86.71952200418895
 30
10.0
 70
   192
  0
VERTEX
  5
EC5
  8
0
 10
33.9637338908713
 20
-86.71952200418895
 30
-9.999999999999998
 70
   192
  0
VERTEX
  5
EC6
  8
0
 10
0.0
 20
0.0
 30
0.0
 70
   128
 71
     3
 72
     4
 73
    -5
  0
VERTEX
  5
EC7
  8
0
 10
0.0
 20
0.0
 30
0.0
 70
   128
 71
    -6
 72
     2
 73
    -3
  0
VERTEX
  5
EC8
  8
0
 10
0.0
 20
0.0
 30
0.0
 70
   128
 71
     5
 72
    -6
 73
    -3
  0
VERTEX
  5
EC9
  8
0
 10
0.0
 20
0.0
 30
0.0
 70
   128
 71
     6
 72
     1
 73
    -2
  0
SEQEND
  5
1A51
  8
0
  0
POLYLINE
  5
ECA
  8
0
 66
     1
 10
0.0
 20
0.0
 30
0.0
 70
    64
 71
     4
 72
     2
  0
VERTEX
  5
ECB
  8
0
 10
33.90195126124364
 20
-94.99477293710197
 30
-15.0
 70
   192
  0
VERTEX
  5
ECC
  8
0
 10
48.37107635399565
 20
-95.10279873642683
 30
-15.0
 70
   192
  0
VERTEX
  5
ECD
  8
0
 10
48.37107635399566
 20
-95.10279873642683
 30
15.0
 70
   192
  0
VERTEX
  5
ECE
  8
0
 10
33.90195126124364
 20
-94.99477293710197
 30
15.0
 70
   192
  0
VERTEX
  5
ECF
  8
0
 10
0.0
 20
0.0
 30
0.0
 70
   128
 71
     3
 72
     4
 73
    -1
  0
VERTEX
  5
ED0
  8
0
 10
0.0
 20
0.0
 30
0.0
 70
   128
 71
     2
 72
    -3
 73
     1
  0
SEQEND
  5
1A52
  8
0
  0
POLYLINE
  5
ED1
  8
0
 66
     1
 10
0.0
 20
0.0
 30
0.0
 70
    64
 71
     4
 72
     2
  0
VERTEX
  5
ED2
  8
0
 10
48.37107635399566
 20
-95.10279873642683
 30
-15.0
 70
   192
  0
VERTEX
  5
ED3
  8
0
 10
48.37107635399567
 20
-95.10279873642685
 30
15.0
 70
   192
  0
VERTEX
  5
ED4
  8
0
 10
48.441224147532
 20
-85.70710617038016
 30
15.0
 70
   192
  0
VERTEX
  5
ED5
  8
0
 10
48.441224147532
 20
-85.70710617038014
 30
-15.0
 70
   192
  0
VERTEX
  5
ED6
  8
0
 10
0.0
 20
0.0
 30
0.0
 70
   128
 71
     1
 72
     4
 73
    -3
  0
VERTEX
  5
ED7
  8
0
 10
0.0
 20
0.0
 30
0.0
 70
   128
 71
    -1
 72
     3
 73
     2
  0
SEQEND
  5
1A53
  8
0
  0
POLYLINE
  5
ED8
  8
0
 66
     1
 10
0.0
 20
0.0
 30
0.0
 70
    64
 71
     4
 72
     2
  0
VERTEX
  5
ED9
  8
0
 10
48.441224147532
 20
-85.70710617038016
 30
-15.0
 70
   192
  0
VERTEX
  5
EDA
  8
0
 10
49.29095294118908
 20
-85.64768434588638
 30
-15.0
 70
   192
  0
VERTEX
  5
EDB
  8
0
 10
49.29095294118908
 20
-85.64768434588638
 30
15.0
 70
   192
  0
VERTEX
  5
EDC
  8
0
 10
48.441224147532
 20
-85.70710617038016
 30
15.0
 70
   192
  0
VERTEX
  5
EDD
  8
0
 10
0.0
 20
0.0
 30
0.0
 70
   128
 71
     3
 72
     4
 73
    -1
  0
VERTEX
  5
EDE
  8
0
 10
0.0
 20
0.0
 30
0.0
 70
   128
 71
     2
 72
    -3
 73
     1
  0
SEQEND
  5
1A54
  8
0
  0
POLYLINE
  5
EDF
  8
0
 66
     1
 10
0.0
 20
0.0
 30
0.0
 70
    64
 71
     8
 72
     6
  0
VERTEX
  5
EE0
  8
0
 10
77.64036470840621
 20
-82.51614103941182
 30
-15.0
 70
   192
  0
VERTEX
  5
EE1
  8
0
 10
77.64036470840621
 20
-82.51614103941182
 30
15.0
 70
   192
  0
VERTEX
  5
EE2
  8
0
 10
63.49713481331862
 20
-84.36686029580721
 30
15.0
 70
   192
  0
VERTEX
  5
EE3
  8
0
 10
63.49713481331862
 20
-84.36686029580721
 30
-15.0
 70
   192
  0
VERTEX
  5
EE4
  8
0
 10
91.69779005751128
 20
-80.09851696077158
 30
-15.0
 70
   192
  0
VERTEX
  5
EE5
  8
0
 10
91.6977900575113
 20
-80.09851696077158
 30
15.0
 70
   192
  0
VERTEX
  5
EE6
  8
0
 10
49.29095294118909
 20
-85.64768434588638
 30
15.0
 70
   192
  0
VERTEX
  5
EE7
  8
0
 10
49.29095294118908
 20
-85.64768434588638
 30
-15.0
 70
   192
  0
VERTEX
  5
EE8
  8
0
 10
0.0
 20
0.0
 30
0.0
 70
   128
 71
     1
 72
     2
 73
    -3
  0
VERTEX
  5
EE9
  8
0
 10
0.0
 20
0.0
 30
0.0
 70
   128
 71
    -1
 72
     3
 73
     4
  0
VERTEX
  5
EEA
  8
0
 10
0.0
 20
0.0
 30
0.0
 70
   128
 71
     5
 72
     6
 73
    -2
  0
VERTEX
  5
EEB
  8
0
 10
0.0
 20
0.0
 30
0.0
 70
   128
 71
    -5
 72
     2
 73
     1
  0
VERTEX
  5
EEC
  8
0
 10
0.0
 20
0.0
 30
0.0
 70
   128
 71
     4
 72
     3
 73
    -7
  0
VERTEX
  5
EED
  8
0
 10
0.0
 20
0.0
 30
0.0
 70
   128
 71
    -4
 72
     7
 73
     8
  0
SEQEND
  5
1A55
  8
0
  0
POLYLINE
  5
EEE
  8
0
 66
     1
 10
0.0
 20
0.0
 30
0.0
 70
    64
 71
     8
 72
     6
  0
VERTEX
  5
EEF
  8
0
 10
116.0639752118803
 20
-73.67321378460207
 30
-15.0
 70
   192
  0
VERTEX
  5
EF0
  8
0
 10
116.0639752118803
 20
-73.67321378460207
 30
15.0
 70
   192
  0
VERTEX
  5
EF1
  8
0
 10
103.9892103600732
 20
-77.29666830937768
 30
15.0
 70
   192
  0
VERTEX
  5
EF2
  8
0
 10
103.9892103600732
 20
-77.29666830937768
 30
-15.0
 70
   192
  0
VERTEX
  5
EF3
  8
0
 10
127.867232020118
 20
-69.24461382091852
 30
-15.0
 70
   192
  0
VERTEX
  5
EF4
  8
0
 10
127.867232020118
 20
-69.24461382091853
 30
15.0
 70
   192
  0
VERTEX
  5
EF5
  8
0
 10
91.69779005751127
 20
-80.09851696077155
 30
15.0
 70
   192
  0
VERTEX
  5
EF6
  8
0
 10
91.6977900575113
 20
-80.09851696077158
 30
-15.0
 70
   192
  0
VERTEX
  5
EF7
  8
0
 10
0.0
 20
0.0
 30
0.0
 70
   128
 71
     1
 72
     2
 73
    -3
  0
VERTEX
  5
EF8
  8
0
 10
0.0
 20
0.0
 30
0.0
 70
   128
 71
    -1
 72
     3
 73
     4
  0
VERTEX
  5
EF9
  8
0
 10
0.0
 20
0.0
 30
0.0
 70
   128
 71
     5
 72
     6
 73
    -2
  0
VERTEX
  5
EFA
  8
0
 10
0.0
 20
0.0
 30
0.0
 70
   128
 71
    -5
 72
     2
 73
     1
  0
VERTEX
  5
EFB
  8
0
 10
0.0
 20
0.0
 30
0.0
 70
   128
 71
     4
 72
     3
 73
    -7
  0
VERTEX
  5
EFC
  8
0
 10
0.0
 20
0.0
 30
0.0
 70
   128
 71
    -4
 72
     7
 73
     8
  0
SEQEND
  5
1A56
  8
0
  0
POLYLINE
  5
EFD
  8
0
 66
     1
 10
0.0
 20
0.0
 30
0.0
 70
    64
 71
     8
 72
     6
  0
VERTEX
  5
EFE
  8
0
 10
177.5885959441471
 20
-33.03624366480421
 30
-15.0
 70
   192
  0
VERTEX
  5
EFF
  8
0
 10
177.5885959441471
 20
-33.03624366480421
 30
15.0
 70
   192
  0
VERTEX
  5
F00
  8
0
 10
154.8812062953232
 20
-54.09733153294426
 30
15.0
 70
   192
  0
VERTEX
  5
F01
  8
0
 10
154.8812062953232
 20
-54.09733153294426
 30
-15.0
 70
   192
  0
VERTEX
  5
F02
  8
0
 10
194.72240702016
 20
-7.23648620732947
 30
-15.0
 70
   192
  0
VERTEX
  5
F03
  8
0
 10
194.72240702016
 20
-7.236486207329467
 30
15.0
 70
   192
  0
VERTEX
  5
F04
  8
0
 10
127.867232020118
 20
-69.24461382091849
 30
15.0
 70
   192
  0
VERTEX
  5
F05
  8
0
 10
127.867232020118
 20
-69.24461382091853
 30
-15.0
 70
   192
  0
VERTEX
  5
F06
  8
0
 10
0.0
 20
0.0
 30
0.0
 70
   128
 71
     1
 72
     2
 73
    -3
  0
VERTEX
  5
F07
  8
0
 10
0.0
 20
0.0
 30
0.0
 70
   128
 71
    -1
 72
     3
 73
     4
  0
VERTEX
  5
F08
  8
0
 10
0.0
 20
0.0
 30
0.0
 70
   128
 71
     5
 72
     6
 73
    -2
  0
VERTEX
  5
F09
  8
0
 10
0.0
 20
0.0
 30
0.0
 70
   128
 71
    -5
 72
     2
 73
     1
  0
VERTEX
  5
F0A
  8
0
 10
0.0
 20
0.0
 30
0.0
 70
   128
 71
     4
 72
     3
 73
    -7
  0
VERTEX
  5
F0B
  8
0
 10
0.0
 20
0.0
 30
0.0
 70
   128
 71
    -4
 72
     7
 73
     8
  0
SEQEND
  5
1A57
  8
0
  0
POLYLINE
  5
F0C
  8
0
 66
     1
 10
0.0
 20
0.0
 30
0.0
 70
    64
 71
     8
 72
     6
  0
VERTEX
  5
F0D
  8
0
 10
208.9648207583083
 20
28.04502717042931
 30
-15.0
 70
   192
  0
VERTEX
  5
F0E
  8
0
 10
208.9648207583083
 20
28.04502717042931
 30
15.0
 70
   192
  0
VERTEX
  5
F0F
  8
0
 10
202.586480300824
 20
10.10439074927314
 30
15.0
 70
   192
  0
VERTEX
  5
F10
  8
0
 10
202.586480300824
 20
10.10439074927314
 30
-15.0
 70
   192
  0
VERTEX
  5
F11
  8
0
 10
213.8122651358148
 20
46.45839039376984
 30
-15.0
 70
   192
  0
VERTEX
  5
F12
  8
0
 10
213.8122651358148
 20
46.45839039376986
 30
15.0
 70
   192
  0
VERTEX
  5
F13
  8
0
 10
194.72240702016
 20
-7.236486207329619
 30
15.0
 70
   192
  0
VERTEX
  5
F14
  8
0
 10
194.72240702016
 20
-7.236486207329467
 30
-15.0
 70
   192
  0
VERTEX
  5
F15
  8
0
 10
0.0
 20
0.0
 30
0.0
 70
   128
 71
     1
 72
     2
 73
    -3
  0
VERTEX
  5
F16
  8
0
 10
0.0
 20
0.0
 30
0.0
 70
   128
 71
    -1
 72
     3
 73
     4
  0
VERTEX
  5
F17
  8
0
 10
0.0
 20
0.0
 30
0.0
 70
   128
 71
     5
 72
     6
 73
    -2
  0
VERTEX
  5
F18
  8
0
 10
0.0
 20
0.0
 30
0.0
 70
   128
 71
    -5
 72
     2
 73
     1
  0
VERTEX
  5
F19
  8
0
 10
0.0
 20
0.0
 30
0.0
 70
   128
 71
     4
 72
     3
 73
    -7
  0
VERTEX
  5
F1A
  8
0
 10
0.0
 20
0.0
 30
0.0
 70
   128
 71
    -4
 72
     7
 73
     8
  0
SEQEND
  5
1A58
  8
0
  0
POLYLINE
  5
F1B
  8
0
 66
     1
 10
0.0
 20
0.0
 30
0.0
 70
    64
 71
     4
 72
     2
  0
VERTEX
  5
F1C
  8
0
 10
213.8122651358148
 20
46.45839039376986
 30
-15.0
 70
   192
  0
VERTEX
  5
F1D
  8
0
 10
213.8122651358148
 20
46.45839039376988
 30
15.0
 70
   192
  0
VERTEX
  5
F1E
  8
0
 10
218.0174311432827
 20
65.68452599431839
 30
15.0
 70
   192
  0
VERTEX
  5
F1F
  8
0
 10
218.0174311432827
 20
65.68452599431842
 30
-15.0
 70
   192
  0
VERTEX
  5
F20
  8
0
 10
0.0
 20
0.0
 30
0.0
 70
   128
 71
     1
 72
     4
 73
    -3
  0
VERTEX
  5
F21
  8
0
 10
0.0
 20
0.0
 30
0.0
 70
   128
 71
    -1
 72
     3
 73
     2
  0
SEQEND
  5
1A59
  8
0
  0
POLYLINE
  5
F22
  8
0
 66
     1
 10
0.0
 20
0.0
 30
0.0
 70
    64
 71
    42
 72
    40
  0
VERTEX
  5
F23
  8
0
 10
218.0174311432827
 20
65.6845259943184
 30
15.0
 70
   192
  0
VERTEX
  5
F24
  8
0
 10
217.4188438104123
 20
65.04967555571677
 30
15.0
 70
   192
  0
VERTEX
  5
F25
  8
0
 10
216.6628830881351
 20
64.61394024519012
 30
15.0
 70
   192
  0
VERTEX
  5
F26
  8
0
 10
215.8135069227791
 20
64.41418538494712
 30
15.0
 70
   192
  0
VERTEX
  5
F27
  8
0
 10
194.6785877245518
 20
62.61740666553056
 30
15.0
 70
   192
  0
VERTEX
  5
F28
  8
0
 10
192.7386964012447
 20
62.03667713970034
 30
15.0
 70
   192
  0
VERTEX
  5
F29
  8
0
 10
191.1938390889798
 20
60.7275396323489
 30
15.0
 70
   192
  0
VERTEX
  5
F2A
  8
0
 10
190.3027073701691
 20
58.90921364723444
 30
15.0
 70
   192
  0
VERTEX
  5
F2B
  8
0
 10
185.9506349418831
 20
40.13394749042075
 30
15.0
 70
   192
  0
VERTEX
  5
F2C
  8
0
 10
179.8184285357695
 20
21.86246155541669
 30
15.0
 70
   192
  0
VERTEX
  5
F2D
  8
0
 10
171.9625922919675
 20
4.263115243953663
 30
15.0
 70
   192
  0
VERTEX
  5
F2E
  8
0
 10
158.1610833594831
 20
-16.51892684963349
 30
15.0
 70
   192
  0
VERTEX
  5
F2F
  8
0
 10
139.8699839840267
 20
-33.483908607073
 30
15.0
 70
   192
  0
VERTEX
  5
F30
  8
0
 10
118.1098743617658
 20
-45.68524261693691
 30
15.0
 70
   192
  0
VERTEX
  5
F31
  8
0
 10
107.9157774364039
 20
-49.51008333733338
 30
15.0
 70
   192
  0
VERTEX
  5
F32
  8
0
 10
97.48718766240464
 20
-52.63954558917763
 30
15.0
 70
   192
  0
VERTEX
  5
F33
  8
0
 10
86.8714794769123
 20
-55.05941301954394
 30
15.0
 70
   192
  0
VERTEX
  5
F34
  8
0
 10
70.9609172739694
 20
-57.72382468749242
 30
15.0
 70
   192
  0
VERTEX
  5
F35
  8
0
 10
54.93897261723826
 20
-59.60594279394894
 30
15.0
 70
   192
  0
VERTEX
  5
F36
  8
0
 10
38.84408592725821
 20
-60.70125169408584
 30
15.0
 70
   192
  0
VERTEX
  5
F37
  8
0
 10
36.47758132732777
 20
-61.42492421969082
 30
15.0
 70
   192
  0
VERTEX
  5
F38
  8
0
 10
34.75948732172751
 20
-63.20599101622848
 30
15.0
 70
   192
  0
VERTEX
  5
F39
  8
0
 10
34.12143362011886
 20
-65.59700197807537
 30
15.0
 70
   192
  0
VERTEX
  5
F3A
  8
0
 10
24.12171231069495
 20
-65.522344534688
 30
15.0
 70
   192
  0
VERTEX
  5
F3B
  8
0
 10
23.96345519252815
 20
-86.71952200418897
 30
15.0
 70
   192
  0
VERTEX
  5
F3C
  8
0
 10
33.9637338908713
 20
-86.71952200418896
 30
15.0
 70
   192
  0
VERTEX
  5
F3D
  8
0
 10
33.90195126124364
 20
-94.994772937102
 30
15.0
 70
   192
  0
VERTEX
  5
F3E
  8
0
 10
48.37107635399565
 20
-95.10279873642683
 30
15.0
 70
   192
  0
VERTEX
  5
F3F
  8
0
 10
48.441224147532
 20
-85.70710617038014
 30
15.0
 70
   192
  0
VERTEX
  5
F40
  8
0
 10
49.29095294118908
 20
-85.64768434588638
 30
15.0
 70
   192
  0
VERTEX
  5
F41
  8
0
 10
63.49713481331862
 20
-84.36686029580721
 30
15.0
 70
   192
  0
VERTEX
  5
F42
  8
0
 10
77.64036470840621
 20
-82.51614103941182
 30
15.0
 70
   192
  0
VERTEX
  5
F43
  8
0
 10
91.69779005751128
 20
-80.09851696077158
 30
15.0
 70
   192
  0
VERTEX
  5
F44
  8
0
 10
103.9892103600732
 20
-77.29666830937768
 30
15.0
 70
   192
  0
VERTEX
  5
F45
  8
0
 10
116.0639752118803
 20
-73.67321378460207
 30
15.0
 70
   192
  0
VERTEX
  5
F46
  8
0
 10
127.867232020118
 20
-69.24461382091852
 30
15.0
 70
   192
  0
VERTEX
  5
F47
  8
0
 10
154.8812062953232
 20
-54.09733153294426
 30
15.0
 70
   192
  0
VERTEX
  5
F48
  8
0
 10
177.5885959441471
 20
-33.03624366480421
 30
15.0
 70
   192
  0
VERTEX
  5
F49
  8
0
 10
194.72240702016
 20
-7.23648620732947
 30
15.0
 70
   192
  0
VERTEX
  5
F4A
  8
0
 10
202.586480300824
 20
10.10439074927314
 30
15.0
 70
   192
  0
VERTEX
  5
F4B
  8
0
 10
208.9648207583083
 20
28.04502717042931
 30
15.0
 70
   192
  0
VERTEX
  5
F4C
  8
0
 10
213.8122651358148
 20
46.45839039376984
 30
15.0
 70
   192
  0
VERTEX
  5
F4D
  8
0
 10
0.0
 20
0.0
 30
0.0
 70
   128
 71
    24
 72
    25
 73
   -26
  0
VERTEX
  5
F4E
  8
0
 10
0.0
 20
0.0
 30
0.0
 70
   128
 71
    23
 72
   -24
 73
   -26
  0
VERTEX
  5
F4F
  8
0
 10
0.0
 20
0.0
 30
0.0
 70
   128
 71
    21
 72
    22
 73
   -23
  0
VERTEX
  5
F50
  8
0
 10
0.0
 20
0.0
 30
0.0
 70
   128
 71
    20
 72
   -21
 73
   -23
  0
VERTEX
  5
F51
  8
0
 10
0.0
 20
0.0
 30
0.0
 70
   128
 71
   -29
 72
   -20
 73
   -23
  0
VERTEX
  5
F52
  8
0
 10
0.0
 20
0.0
 30
0.0
 70
   128
 71
   -26
 72
   -29
 73
   -23
  0
VERTEX
  5
F53
  8
0
 10
0.0
 20
0.0
 30
0.0
 70
   128
 71
    27
 72
    28
 73
   -29
  0
VERTEX
  5
F54
  8
0
 10
0.0
 20
0.0
 30
0.0
 70
   128
 71
    26
 72
   -27
 73
   -29
  0
VERTEX
  5
F55
  8
0
 10
0.0
 20
0.0
 30
0.0
 70
   128
 71
   -30
 72
    19
 73
   -20
  0
VERTEX
  5
F56
  8
0
 10
0.0
 20
0.0
 30
0.0
 70
   128
 71
    29
 72
   -30
 73
   -20
  0
VERTEX
  5
F57
  8
0
 10
0.0
 20
0.0
 30
0.0
 70
   128
 71
    30
 72
   -31
 73
   -19
  0
VERTEX
  5
F58
  8
0
 10
0.0
 20
0.0
 30
0.0
 70
   128
 71
   -32
 72
    18
 73
   -19
  0
VERTEX
  5
F59
  8
0
 10
0.0
 20
0.0
 30
0.0
 70
   128
 71
    31
 72
   -32
 73
   -19
  0
VERTEX
  5
F5A
  8
0
 10
0.0
 20
0.0
 30
0.0
 70
   128
 71
   -33
 72
    17
 73
   -18
  0
VERTEX
  5
F5B
  8
0
 10
0.0
 20
0.0
 30
0.0
 70
   128
 71
    32
 72
   -33
 73
   -18
  0
VERTEX
  5
F5C
  8
0
 10
0.0
 20
0.0
 30
0.0
 70
   128
 71
   -34
 72
    16
 73
   -17
  0
VERTEX
  5
F5D
  8
0
 10
0.0
 20
0.0
 30
0.0
 70
   128
 71
    33
 72
   -34
 73
   -17
  0
VERTEX
  5
F5E
  8
0
 10
0.0
 20
0.0
 30
0.0
 70
   128
 71
   -35
 72
    15
 73
   -16
  0
VERTEX
  5
F5F
  8
0
 10
0.0
 20
0.0
 30
0.0
 70
   128
 71
    34
 72
   -35
 73
   -16
  0
VERTEX
  5
F60
  8
0
 10
0.0
 20
0.0
 30
0.0
 70
   128
 71
   -40
 72
    10
 73
   -11
  0
VERTEX
  5
F61
  8
0
 10
0.0
 20
0.0
 30
0.0
 70
   128
 71
    39
 72
   -40
 73
   -11
  0
VERTEX
  5
F62
  8
0
 10
0.0
 20
0.0
 30
0.0
 70
   128
 71
   -12
 72
    38
 73
   -39
  0
VERTEX
  5
F63
  8
0
 10
0.0
 20
0.0
 30
0.0
 70
   128
 71
    11
 72
   -12
 73
   -39
  0
VERTEX
  5
F64
  8
0
 10
0.0
 20
0.0
 30
0.0
 70
   128
 71
   -13
 72
    37
 73
   -38
  0
VERTEX
  5
F65
  8
0
 10
0.0
 20
0.0
 30
0.0
 70
   128
 71
    12
 72
   -13
 73
   -38
  0
VERTEX
  5
F66
  8
0
 10
0.0
 20
0.0
 30
0.0
 70
   128
 71
   -14
 72
    36
 73
   -37
  0
VERTEX
  5
F67
  8
0
 10
0.0
 20
0.0
 30
0.0
 70
   128
 71
    13
 72
   -14
 73
   -37
  0
VERTEX
  5
F68
  8
0
 10
0.0
 20
0.0
 30
0.0
 70
   128
 71
   -15
 72
    35
 73
   -36
  0
VERTEX
  5
F69
  8
0
 10
0.0
 20
0.0
 30
0.0
 70
   128
 71
    14
 72
   -15
 73
   -36
  0
VERTEX
  5
F6A
  8
0
 10
0.0
 20
0.0
 30
0.0
 70
   128
 71
   -41
 72
     9
 73
   -10
  0
VERTEX
  5
F6B
  8
0
 10
0.0
 20
0.0
 30
0.0
 70
   128
 71
    40
 72
   -41
 73
   -10
  0
VERTEX
  5
F6C
  8
0
 10
0.0
 20
0.0
 30
0.0
 70
   128
 71
   -42
 72
     8
 73
    -9
  0
VERTEX
  5
F6D
  8
0
 10
0.0
 20
0.0
 30
0.0
 70
   128
 71
    41
 72
   -42
 73
    -9
  0
VERTEX
  5
F6E
  8
0
 10
0.0
 20
0.0
 30
0.0
 70
   128
 71
    42
 72
     1
 73
    -2
  0
VERTEX
  5
F6F
  8
0
 10
0.0
 20
0.0
 30
0.0
 70
   128
 71
     2
 72
    -3
 73
   -42
  0
VERTEX
  5
F70
  8
0
 10
0.0
 20
0.0
 30
0.0
 70
   128
 71
     3
 72
    -4
 73
   -42
  0
VERTEX
  5
F71
  8
0
 10
0.0
 20
0.0
 30
0.0
 70
   128
 71
     7
 72
    -8
 73
   -42
  0
VERTEX
  5
F72
  8
0
 10
0.0
 20
0.0
 30
0.0
 70
   128
 71
     6
 72
    -7
 73
   -42
  0
VERTEX
  5
F73
  8
0
 10
0.0
 20
0.0
 30
0.0
 70
   128
 71
     5
 72
    -6
 73
   -42
  0
VERTEX
  5
F74
  8
0
 10
0.0
 20
0.0
 30
0.0
 70
   128
 71
     4
 72
    -5
 73
   -42
  0
SEQEND
  5
1A5A
  8
0
  0
POLYLINE
  5
F75
  8
0
 66
     1
 10
0.0
 20
0.0
 30
0.0
 70
    64
 71
    42
 72
    40
  0
VERTEX
  5
F76
  8
0
 10
215.8135069227791
 20
64.4141853849471
 30
-15.0
 70
   192
  0
VERTEX
  5
F77
  8
0
 10
194.6785877245517
 20
62.61740666553055
 30
-15.0
 70
   192
  0
VERTEX
  5
F78
  8
0
 10
192.7386964012447
 20
62.03667713970034
 30
-15.0
 70
   192
  0
VERTEX
  5
F79
  8
0
 10
191.1938390889798
 20
60.7275396323489
 30
-15.0
 70
   192
  0
VERTEX
  5
F7A
  8
0
 10
190.3027073701691
 20
58.90921364723442
 30
-15.0
 70
   192
  0
VERTEX
  5
F7B
  8
0
 10
185.9506349418831
 20
40.13394749042075
 30
-15.0
 70
   192
  0
VERTEX
  5
F7C
  8
0
 10
179.8184285357695
 20
21.86246155541669
 30
-15.0
 70
   192
  0
VERTEX
  5
F7D
  8
0
 10
171.9625922919675
 20
4.2631152439536
 30
-15.0
 70
   192
  0
VERTEX
  5
F7E
  8
0
 10
158.1610833594831
 20
-16.51892684963349
 30
-15.0
 70
   192
  0
VERTEX
  5
F7F
  8
0
 10
139.8699839840267
 20
-33.483908607073
 30
-15.0
 70
   192
  0
VERTEX
  5
F80
  8
0
 10
118.1098743617658
 20
-45.68524261693693
 30
-15.0
 70
   192
  0
VERTEX
  5
F81
  8
0
 10
107.9157774364039
 20
-49.51008333733338
 30
-15.0
 70
   192
  0
VERTEX
  5
F82
  8
0
 10
97.48718766240464
 20
-52.63954558917763
 30
-15.0
 70
   192
  0
VERTEX
  5
F83
  8
0
 10
86.87147947691231
 20
-55.05941301954391
 30
-15.0
 70
   192
  0
VERTEX
  5
F84
  8
0
 10
70.9609172739694
 20
-57.72382468749242
 30
-15.0
 70
   192
  0
VERTEX
  5
F85
  8
0
 10
54.93897261723826
 20
-59.60594279394894
 30
-15.0
 70
   192
  0
VERTEX
  5
F86
  8
0
 10
38.84408592725842
 20
-60.70125169408581
 30
-15.0
 70
   192
  0
VERTEX
  5
F87
  8
0
 10
36.47758132732777
 20
-61.42492421969082
 30
-15.0
 70
   192
  0
VERTEX
  5
F88
  8
0
 10
34.75948732172751
 20
-63.20599101622848
 30
-15.0
 70
   192
  0
VERTEX
  5
F89
  8
0
 10
34.12143362011886
 20
-65.59700197807537
 30
-15.0
 70
   192
  0
VERTEX
  5
F8A
  8
0
 10
24.12171231069495
 20
-65.52234453468802
 30
-15.0
 70
   192
  0
VERTEX
  5
F8B
  8
0
 10
23.96345519252815
 20
-86.71952200418896
 30
-15.0
 70
   192
  0
VERTEX
  5
F8C
  8
0
 10
33.9637338908713
 20
-86.71952200418895
 30
-15.0
 70
   192
  0
VERTEX
  5
F8D
  8
0
 10
33.90195126124364
 20
-94.99477293710197
 30
-15.0
 70
   192
  0
VERTEX
  5
F8E
  8
0
 10
48.37107635399567
 20
-95.10279873642685
 30
-15.0
 70
   192
  0
VERTEX
  5
F8F
  8
0
 10
48.441224147532
 20
-85.70710617038016
 30
-15.0
 70
   192
  0
VERTEX
  5
F90
  8
0
 10
49.29095294118909
 20
-85.64768434588638
 30
-15.0
 70
   192
  0
VERTEX
  5
F91
  8
0
 10
63.49713481331862
 20
-84.36686029580721
 30
-15.0
 70
   192
  0
VERTEX
  5
F92
  8
0
 10
77.64036470840621
 20
-82.51614103941182
 30
-15.0
 70
   192
  0
VERTEX
  5
F93
  8
0
 10
91.69779005751127
 20
-80.09851696077155
 30
-15.0
 70
   192
  0
VERTEX
  5
F94
  8
0
 10
103.9892103600732
 20
-77.29666830937768
 30
-15.0
 70
   192
  0
VERTEX
  5
F95
  8
0
 10
116.0639752118803
 20
-73.67321378460207
 30
-15.0
 70
   192
  0
VERTEX
  5
F96
  8
0
 10
127.867232020118
 20
-69.24461382091849
 30
-15.0
 70
   192
  0
VERTEX
  5
F97
  8
0
 10
154.8812062953232
 20
-54.09733153294426
 30
-15.0
 70
   192
  0
VERTEX
  5
F98
  8
0
 10
177.5885959441471
 20
-33.03624366480421
 30
-15.0
 70
   192
  0
VERTEX
  5
F99
  8
0
 10
194.72240702016
 20
-7.236486207329619
 30
-15.0
 70
   192
  0
VERTEX
  5
F9A
  8
0
 10
202.586480300824
 20
10.10439074927314
 30
-15.0
 70
   192
  0
VERTEX
  5
F9B
  8
0
 10
208.9648207583083
 20
28.04502717042931
 30
-15.0
 70
   192
  0
VERTEX
  5
F9C
  8
0
 10
213.8122651358148
 20
46.45839039376988
 30
-15.0
 70
   192
  0
VERTEX
  5
F9D
  8
0
 10
218.0174311432827
 20
65.6845259943184
 30
-15.0
 70
   192
  0
VERTEX
  5
F9E
  8
0
 10
217.4188438104123
 20
65.04967555571677
 30
-15.0
 70
   192
  0
VERTEX
  5
F9F
  8
0
 10
216.6628830881351
 20
64.61394024519012
 30
-15.0
 70
   192
  0
VERTEX
  5
FA0
  8
0
 10
0.0
 20
0.0
 30
0.0
 70
   128
 71
    41
 72
    40
 73
   -39
  0
VERTEX
  5
FA1
  8
0
 10
0.0
 20
0.0
 30
0.0
 70
   128
 71
   -39
 72
    42
 73
   -41
  0
VERTEX
  5
FA2
  8
0
 10
0.0
 20
0.0
 30
0.0
 70
   128
 71
   -39
 72
     1
 73
   -42
  0
VERTEX
  5
FA3
  8
0
 10
0.0
 20
0.0
 30
0.0
 70
   128
 71
    23
 72
    22
 73
   -21
  0
VERTEX
  5
FA4
  8
0
 10
0.0
 20
0.0
 30
0.0
 70
   128
 71
   -23
 72
    21
 73
   -20
  0
VERTEX
  5
FA5
  8
0
 10
0.0
 20
0.0
 30
0.0
 70
   128
 71
    20
 72
    19
 73
   -18
  0
VERTEX
  5
FA6
  8
0
 10
0.0
 20
0.0
 30
0.0
 70
   128
 71
   -20
 72
    18
 73
   -17
  0
VERTEX
  5
FA7
  8
0
 10
0.0
 20
0.0
 30
0.0
 70
   128
 71
   -20
 72
   -17
 73
   -26
  0
VERTEX
  5
FA8
  8
0
 10
0.0
 20
0.0
 30
0.0
 70
   128
 71
   -20
 72
   -26
 73
   -23
  0
VERTEX
  5
FA9
  8
0
 10
0.0
 20
0.0
 30
0.0
 70
   128
 71
    26
 72
    25
 73
   -24
  0
VERTEX
  5
FAA
  8
0
 10
0.0
 20
0.0
 30
0.0
 70
   128
 71
   -26
 72
    24
 73
   -23
  0
VERTEX
  5
FAB
  8
0
 10
0.0
 20
0.0
 30
0.0
 70
   128
 71
    17
 72
   -16
 73
   -27
  0
VERTEX
  5
FAC
  8
0
 10
0.0
 20
0.0
 30
0.0
 70
   128
 71
   -17
 72
    27
 73
   -26
  0
VERTEX
  5
FAD
  8
0
 10
0.0
 20
0.0
 30
0.0
 70
   128
 71
   -16
 72
    28
 73
   -27
  0
VERTEX
  5
FAE
  8
0
 10
0.0
 20
0.0
 30
0.0
 70
   128
 71
    16
 72
   -15
 73
   -29
  0
VERTEX
  5
FAF
  8
0
 10
0.0
 20
0.0
 30
0.0
 70
   128
 71
   -16
 72
    29
 73
   -28
  0
VERTEX
  5
FB0
  8
0
 10
0.0
 20
0.0
 30
0.0
 70
   128
 71
    15
 72
   -14
 73
   -30
  0
VERTEX
  5
FB1
  8
0
 10
0.0
 20
0.0
 30
0.0
 70
   128
 71
   -15
 72
    30
 73
   -29
  0
VERTEX
  5
FB2
  8
0
 10
0.0
 20
0.0
 30
0.0
 70
   128
 71
    14
 72
   -13
 73
   -31
  0
VERTEX
  5
FB3
  8
0
 10
0.0
 20
0.0
 30
0.0
 70
   128
 71
   -14
 72
    31
 73
   -30
  0
VERTEX
  5
FB4
  8
0
 10
0.0
 20
0.0
 30
0.0
 70
   128
 71
    13
 72
   -12
 73
   -32
  0
VERTEX
  5
FB5
  8
0
 10
0.0
 20
0.0
 30
0.0
 70
   128
 71
   -13
 72
    32
 73
   -31
  0
VERTEX
  5
FB6
  8
0
 10
0.0
 20
0.0
 30
0.0
 70
   128
 71
     8
 72
    -7
 73
   -37
  0
VERTEX
  5
FB7
  8
0
 10
0.0
 20
0.0
 30
0.0
 70
   128
 71
    -8
 72
    37
 73
   -36
  0
VERTEX
  5
FB8
  8
0
 10
0.0
 20
0.0
 30
0.0
 70
   128
 71
    36
 72
   -35
 73
    -9
  0
VERTEX
  5
FB9
  8
0
 10
0.0
 20
0.0
 30
0.0
 70
   128
 71
   -36
 72
     9
 73
    -8
  0
VERTEX
  5
FBA
  8
0
 10
0.0
 20
0.0
 30
0.0
 70
   128
 71
    35
 72
   -34
 73
   -10
  0
VERTEX
  5
FBB
  8
0
 10
0.0
 20
0.0
 30
0.0
 70
   128
 71
   -35
 72
    10
 73
    -9
  0
VERTEX
  5
FBC
  8
0
 10
0.0
 20
0.0
 30
0.0
 70
   128
 71
    34
 72
   -33
 73
   -11
  0
VERTEX
  5
FBD
  8
0
 10
0.0
 20
0.0
 30
0.0
 70
   128
 71
   -34
 72
    11
 73
   -10
  0
VERTEX
  5
FBE
  8
0
 10
0.0
 20
0.0
 30
0.0
 70
   128
 71
    33
 72
   -32
 73
   -12
  0
VERTEX
  5
FBF
  8
0
 10
0.0
 20
0.0
 30
0.0
 70
   128
 71
   -33
 72
    12
 73
   -11
  0
VERTEX
  5
FC0
  8
0
 10
0.0
 20
0.0
 30
0.0
 70
   128
 71
     7
 72
    -6
 73
   -38
  0
VERTEX
  5
FC1
  8
0
 10
0.0
 20
0.0
 30
0.0
 70
   128
 71
    -7
 72
    38
 73
   -37
  0
VERTEX
  5
FC2
  8
0
 10
0.0
 20
0.0
 30
0.0
 70
   128
 71
     6
 72
     5
 73
    -4
  0
VERTEX
  5
FC3
  8
0
 10
0.0
 20
0.0
 30
0.0
 70
   128
 71
    -6
 72
     4
 73
    -3
  0
VERTEX
  5
FC4
  8
0
 10
0.0
 20
0.0
 30
0.0
 70
   128
 71
    -6
 72
     3
 73
    -2
  0
VERTEX
  5
FC5
  8
0
 10
0.0
 20
0.0
 30
0.0
 70
   128
 71
    -6
 72
     2
 73
    -1
  0
VERTEX
  5
FC6
  8
0
 10
0.0
 20
0.0
 30
0.0
 70
   128
 71
    -6
 72
    -1
 73
   -39
  0
VERTEX
  5
FC7
  8
0
 10
0.0
 20
0.0
 30
0.0
 70
   128
 71
    -6
 72
    39
 73
   -38
  0
SEQEND
  5
1A5B
  8
0
  0
POLYLINE
  5
FC8
  8
0
 66
     1
 10
0.0
 20
0.0
 30
0.0
 70
    64
 71
     8
 72
     6
  0
VERTEX
  5
FC9
  8
0
 10
169.2081003193901
 20
-25.91112660727958
 30
-10.0
 70
   192
  0
VERTEX
  5
FCA
  8
0
 10
148.4057770629992
 20
-45.20526674139195
 30
-10.0
 70
   192
  0
VERTEX
  5
FCB
  8
0
 10
148.4057770629992
 20
-45.20526674139195
 30
10.0
 70
   192
  0
VERTEX
  5
FCC
  8
0
 10
169.2081003193901
 20
-25.91112660727958
 30
10.0
 70
   192
  0
VERTEX
  5
FCD
  8
0
 10
123.6581757753386
 20
-59.08174781135779
 30
-10.0
 70
   192
  0
VERTEX
  5
FCE
  8
0
 10
123.6581757753386
 20
-59.08174781135779
 30
10.0
 70
   192
  0
VERTEX
  5
FCF
  8
0
 10
184.9044477256456
 20
-2.275873816579899
 30
-10.0
 70
   192
  0
VERTEX
  5
FD0
  8
0
 10
184.9044477256456
 20
-2.275873816579903
 30
10.0
 70
   192
  0
VERTEX
  5
FD1
  8
0
 10
0.0
 20
0.0
 30
0.0
 70
   128
 71
     1
 72
     2
 73
    -3
  0
VERTEX
  5
FD2
  8
0
 10
0.0
 20
0.0
 30
0.0
 70
   128
 71
     4
 72
    -1
 73
     3
  0
VERTEX
  5
FD3
  8
0
 10
0.0
 20
0.0
 30
0.0
 70
   128
 71
     2
 72
     5
 73
    -6
  0
VERTEX
  5
FD4
  8
0
 10
0.0
 20
0.0
 30
0.0
 70
   128
 71
     3
 72
    -2
 73
     6
  0
VERTEX
  5
FD5
  8
0
 10
0.0
 20
0.0
 30
0.0
 70
   128
 71
     7
 72
     1
 73
    -4
  0
VERTEX
  5
FD6
  8
0
 10
0.0
 20
0.0
 30
0.0
 70
   128
 71
     8
 72
    -7
 73
     4
  0
SEQEND
  5
1A5C
  8
0
  0
POLYLINE
  5
FD7
  8
0
 66
     1
 10
0.0
 20
0.0
 30
0.0
 70
    64
 71
     8
 72
     6
  0
VERTEX
  5
FD8
  8
0
 10
112.5490663675571
 20
-63.24990261127047
 30
-10.0
 70
   192
  0
VERTEX
  5
FD9
  8
0
 10
101.1844162551965
 20
-66.66026243007568
 30
-10.0
 70
   192
  0
VERTEX
  5
FDA
  8
0
 10
101.1844162551965
 20
-66.66026243007568
 30
10.0
 70
   192
  0
VERTEX
  5
FDB
  8
0
 10
112.5490663675571
 20
-63.24990261127047
 30
10.0
 70
   192
  0
VERTEX
  5
FDC
  8
0
 10
89.61585215999798
 20
-69.29733486847726
 30
-10.0
 70
   192
  0
VERTEX
  5
FDD
  8
0
 10
89.61585215999798
 20
-69.29733486847726
 30
10.0
 70
   192
  0
VERTEX
  5
FDE
  8
0
 10
123.6581757753386
 20
-59.08174781135781
 30
-10.0
 70
   192
  0
VERTEX
  5
FDF
  8
0
 10
123.6581757753386
 20
-59.08174781135781
 30
10.0
 70
   192
  0
VERTEX
  5
FE0
  8
0
 10
0.0
 20
0.0
 30
0.0
 70
   128
 71
     1
 72
     2
 73
    -3
  0
VERTEX
  5
FE1
  8
0
 10
0.0
 20
0.0
 30
0.0
 70
   128
 71
     4
 72
    -1
 73
     3
  0
VERTEX
  5
FE2
  8
0
 10
0.0
 20
0.0
 30
0.0
 70
   128
 71
     2
 72
     5
 73
    -6
  0
VERTEX
  5
FE3
  8
0
 10
0.0
 20
0.0
 30
0.0
 70
   128
 71
     3
 72
    -2
 73
     6
  0
VERTEX
  5
FE4
  8
0
 10
0.0
 20
0.0
 30
0.0
 70
   128
 71
     7
 72
     1
 73
    -4
  0
VERTEX
  5
FE5
  8
0
 10
0.0
 20
0.0
 30
0.0
 70
   128
 71
     8
 72
    -7
 73
     4
  0
SEQEND
  5
1A5D
  8
0
  0
POLYLINE
  5
FE6
  8
0
 66
     1
 10
0.0
 20
0.0
 30
0.0
 70
    64
 71
     8
 72
     6
  0
VERTEX
  5
FE7
  8
0
 10
75.9941957912383
 20
-71.64001452781991
 30
-10.0
 70
   192
  0
VERTEX
  5
FE8
  8
0
 10
62.28939474902491
 20
-73.43336296251533
 30
-10.0
 70
   192
  0
VERTEX
  5
FE9
  8
0
 10
62.28939474902491
 20
-73.43336296251533
 30
10.0
 70
   192
  0
VERTEX
  5
FEA
  8
0
 10
75.9941957912383
 20
-71.64001452781991
 30
10.0
 70
   192
  0
VERTEX
  5
FEB
  8
0
 10
48.52359319087748
 20
-74.67448248801452
 30
-10.0
 70
   192
  0
VERTEX
  5
FEC
  8
0
 10
48.52359319087748
 20
-74.67448248801452
 30
10.0
 70
   192
  0
VERTEX
  5
FED
  8
0
 10
89.615852159998
 20
-69.29733486847722
 30
-10.0
 70
   192
  0
VERTEX
  5
FEE
  8
0
 10
89.615852159998
 20
-69.29733486847726
 30
10.0
 70
   192
  0
VERTEX
  5
FEF
  8
0
 10
0.0
 20
0.0
 30
0.0
 70
   128
 71
     1
 72
     2
 73
    -3
  0
VERTEX
  5
FF0
  8
0
 10
0.0
 20
0.0
 30
0.0
 70
   128
 71
     4
 72
    -1
 73
     3
  0
VERTEX
  5
FF1
  8
0
 10
0.0
 20
0.0
 30
0.0
 70
   128
 71
     2
 72
     5
 73
    -6
  0
VERTEX
  5
FF2
  8
0
 10
0.0
 20
0.0
 30
0.0
 70
   128
 71
     3
 72
    -2
 73
     6
  0
VERTEX
  5
FF3
  8
0
 10
0.0
 20
0.0
 30
0.0
 70
   128
 71
     7
 72
     1
 73
    -4
  0
VERTEX
  5
FF4
  8
0
 10
0.0
 20
0.0
 30
0.0
 70
   128
 71
     8
 72
    -7
 73
     4
  0
SEQEND
  5
1A5E
  8
0
  0
POLYLINE
  5
FF5
  8
0
 66
     1
 10
0.0
 20
0.0
 30
0.0
 70
    64
 71
     4
 72
     2
  0
VERTEX
  5
FF6
  8
0
 10
33.9637338908713
 20
-86.71952200418895
 30
10.0
 70
   192
  0
VERTEX
  5
FF7
  8
0
 10
48.52359319087762
 20
-74.6744824880145
 30
10.0
 70
   192
  0
VERTEX
  5
FF8
  8
0
 10
48.52359319087762
 20
-74.6744824880145
 30
-10.0
 70
   192
  0
VERTEX
  5
FF9
  8
0
 10
33.9637338908713
 20
-86.71952200418895
 30
-10.0
 70
   192
  0
VERTEX
  5
FFA
  8
0
 10
0.0
 20
0.0
 30
0.0
 70
   128
 71
     3
 72
     4
 73
    -1
  0
VERTEX
  5
FFB
  8
0
 10
0.0
 20
0.0
 30
0.0
 70
   128
 71
     2
 72
    -3
 73
     1
  0
SEQEND
  5
1A5F
  8
0
  0
POLYLINE
  5
FFC
  8
0
 66
     1
 10
0.0
 20
0.0
 30
0.0
 70
    64
 71
     4
 72
     2
  0
VERTEX
  5
FFD
  8
0
 10
203.0663006389129
 20
48.80876207316965
 30
10.0
 70
   192
  0
VERTEX
  5
FFE
  8
0
 10
203.0663006389129
 20
48.80876207316965
 30
-10.0
 70
   192
  0
VERTEX
  5
FFF
  8
0
 10
206.3026904901894
 20
63.60562622226114
 30
-10.0
 70
   192
  0
VERTEX
  5
1000
  8
0
 10
206.3026904901894
 20
63.60562622226112
 30
10.0
 70
   192
  0
VERTEX
  5
1001
  8
0
 10
0.0
 20
0.0
 30
0.0
 70
   128
 71
     1
 72
     4
 73
    -3
  0
VERTEX
  5
1002
  8
0
 10
0.0
 20
0.0
 30
0.0
 70
   128
 71
    -1
 72
     3
 73
     2
  0
SEQEND
  5
1A60
  8
0
  0
POLYLINE
  5
1003
  8
0
 66
     1
 10
0.0
 20
0.0
 30
0.0
 70
    64
 71
     8
 72
     6
  0
VERTEX
  5
1004
  8
0
 10
198.4545025178298
 20
31.29051796287783
 30
-10.0
 70
   192
  0
VERTEX
  5
1005
  8
0
 10
192.3862289603342
 20
14.22202023610626
 30
-10.0
 70
   192
  0
VERTEX
  5
1006
  8
0
 10
192.3862289603342
 20
14.22202023610626
 30
10.0
 70
   192
  0
VERTEX
  5
1007
  8
0
 10
198.4545025178298
 20
31.29051796287783
 30
10.0
 70
   192
  0
VERTEX
  5
1008
  8
0
 10
184.9044477256455
 20
-2.275873816580017
 30
-10.0
 70
   192
  0
VERTEX
  5
1009
  8
0
 10
184.9044477256455
 20
-2.275873816580017
 30
10.0
 70
   192
  0
VERTEX
  5
100A
  8
0
 10
203.0663006389129
 20
48.80876207316965
 30
-10.0
 70
   192
  0
VERTEX
  5
100B
  8
0
 10
203.0663006389129
 20
48.80876207316968
 30
10.0
 70
   192
  0
VERTEX
  5
100C
  8
0
 10
0.0
 20
0.0
 30
0.0
 70
   128
 71
     1
 72
     2
 73
    -3
  0
VERTEX
  5
100D
  8
0
 10
0.0
 20
0.0
 30
0.0
 70
   128
 71
     4
 72
    -1
 73
     3
  0
VERTEX
  5
100E
  8
0
 10
0.0
 20
0.0
 30
0.0
 70
   128
 71
     2
 72
     5
 73
    -6
  0
VERTEX
  5
100F
  8
0
 10
0.0
 20
0.0
 30
0.0
 70
   128
 71
     3
 72
    -2
 73
     6
  0
VERTEX
  5
1010
  8
0
 10
0.0
 20
0.0
 30
0.0
 70
   128
 71
     7
 72
     1
 73
    -4
  0
VERTEX
  5
1011
  8
0
 10
0.0
 20
0.0
 30
0.0
 70
   128
 71
     8
 72
    -7
 73
     4
  0
SEQEND
  5
1A61
  8
0
  0
POLYLINE
  5
1012
  8
0
 66
     1
 10
0.0
 20
0.0
 30
0.0
 70
    64
 71
    36
 72
    34
  0
VERTEX
  5
1013
  8
0
 10
23.96345519252815
 20
-86.71952200418896
 30
-10.0
 70
   192
  0
VERTEX
  5
1014
  8
0
 10
33.9637338908713
 20
-86.71952200418896
 30
-10.0
 70
   192
  0
VERTEX
  5
1015
  8
0
 10
48.52359319087762
 20
-74.6744824880145
 30
-10.0
 70
   192
  0
VERTEX
  5
1016
  8
0
 10
62.28939474902491
 20
-73.43336296251533
 30
-10.0
 70
   192
  0
VERTEX
  5
1017
  8
0
 10
75.9941957912383
 20
-71.64001452781991
 30
-10.0
 70
   192
  0
VERTEX
  5
1018
  8
0
 10
89.615852159998
 20
-69.29733486847726
 30
-10.0
 70
   192
  0
VERTEX
  5
1019
  8
0
 10
101.1844162551965
 20
-66.66026243007568
 30
-10.0
 70
   192
  0
VERTEX
  5
101A
  8
0
 10
112.5490663675571
 20
-63.24990261127047
 30
-10.0
 70
   192
  0
VERTEX
  5
101B
  8
0
 10
123.6581757753386
 20
-59.08174781135781
 30
-10.0
 70
   192
  0
VERTEX
  5
101C
  8
0
 10
148.4057770629992
 20
-45.20526674139195
 30
-10.0
 70
   192
  0
VERTEX
  5
101D
  8
0
 10
169.2081003193901
 20
-25.91112660727958
 30
-10.0
 70
   192
  0
VERTEX
  5
101E
  8
0
 10
184.9044477256456
 20
-2.275873816579903
 30
-10.0
 70
   192
  0
VERTEX
  5
101F
  8
0
 10
192.3862289603342
 20
14.22202023610626
 30
-10.0
 70
   192
  0
VERTEX
  5
1020
  8
0
 10
198.4545025178298
 20
31.29051796287783
 30
-10.0
 70
   192
  0
VERTEX
  5
1021
  8
0
 10
203.0663006389129
 20
48.80876207316968
 30
-10.0
 70
   192
  0
VERTEX
  5
1022
  8
0
 10
206.3026904901894
 20
63.60562622226112
 30
-10.0
 70
   192
  0
VERTEX
  5
1023
  8
0
 10
194.6785877245518
 20
62.61740666553056
 30
-10.0
 70
   192
  0
VERTEX
  5
1024
  8
0
 10
192.7386964012447
 20
62.03667713970034
 30
-10.0
 70
   192
  0
VERTEX
  5
1025
  8
0
 10
191.1938390889798
 20
60.7275396323489
 30
-10.0
 70
   192
  0
VERTEX
  5
1026
  8
0
 10
190.3027073701691
 20
58.90921364723444
 30
-10.0
 70
   192
  0
VERTEX
  5
1027
  8
0
 10
185.9506349418831
 20
40.13394749042075
 30
-10.0
 70
   192
  0
VERTEX
  5
1028
  8
0
 10
179.8184285357695
 20
21.86246155541669
 30
-10.0
 70
   192
  0
VERTEX
  5
1029
  8
0
 10
171.9625922919675
 20
4.263115243953663
 30
-10.0
 70
   192
  0
VERTEX
  5
102A
  8
0
 10
158.1610833594831
 20
-16.51892684963349
 30
-10.0
 70
   192
  0
VERTEX
  5
102B
  8
0
 10
139.8699839840267
 20
-33.483908607073
 30
-10.0
 70
   192
  0
VERTEX
  5
102C
  8
0
 10
118.1098743617658
 20
-45.68524261693691
 30
-10.0
 70
   192
  0
VERTEX
  5
102D
  8
0
 10
107.9157774364039
 20
-49.51008333733338
 30
-10.0
 70
   192
  0
VERTEX
  5
102E
  8
0
 10
97.48718766240464
 20
-52.63954558917763
 30
-10.0
 70
   192
  0
VERTEX
  5
102F
  8
0
 10
86.8714794769123
 20
-55.05941301954394
 30
-10.0
 70
   192
  0
VERTEX
  5
1030
  8
0
 10
70.9609172739694
 20
-57.72382468749242
 30
-10.0
 70
   192
  0
VERTEX
  5
1031
  8
0
 10
54.93897261723826
 20
-59.60594279394894
 30
-10.0
 70
   192
  0
VERTEX
  5
1032
  8
0
 10
38.84408592725821
 20
-60.70125169408584
 30
-10.0
 70
   192
  0
VERTEX
  5
1033
  8
0
 10
36.47758132732777
 20
-61.42492421969082
 30
-10.0
 70
   192
  0
VERTEX
  5
1034
  8
0
 10
34.75948732172751
 20
-63.20599101622848
 30
-10.0
 70
   192
  0
VERTEX
  5
1035
  8
0
 10
34.12143362011886
 20
-65.59700197807537
 30
-10.0
 70
   192
  0
VERTEX
  5
1036
  8
0
 10
24.12171231069495
 20
-65.522344534688
 30
-10.0
 70
   192
  0
VERTEX
  5
1037
  8
0
 10
0.0
 20
0.0
 30
0.0
 70
   128
 71
   -21
 72
    14
 73
   -15
  0
VERTEX
  5
1038
  8
0
 10
0.0
 20
0.0
 30
0.0
 70
   128
 71
    20
 72
   -21
 73
   -15
  0
VERTEX
  5
1039
  8
0
 10
0.0
 20
0.0
 30
0.0
 70
   128
 71
    18
 72
    19
 73
   -20
  0
VERTEX
  5
103A
  8
0
 10
0.0
 20
0.0
 30
0.0
 70
   128
 71
    17
 72
   -18
 73
   -20
  0
VERTEX
  5
103B
  8
0
 10
0.0
 20
0.0
 30
0.0
 70
   128
 71
    16
 72
   -17
 73
   -20
  0
VERTEX
  5
103C
  8
0
 10
0.0
 20
0.0
 30
0.0
 70
   128
 71
    15
 72
   -16
 73
   -20
  0
VERTEX
  5
103D
  8
0
 10
0.0
 20
0.0
 30
0.0
 70
   128
 71
   -22
 72
    13
 73
   -14
  0
VERTEX
  5
103E
  8
0
 10
0.0
 20
0.0
 30
0.0
 70
   128
 71
    21
 72
   -22
 73
   -14
  0
VERTEX
  5
103F
  8
0
 10
0.0
 20
0.0
 30
0.0
 70
   128
 71
   -23
 72
    12
 73
   -13
  0
VERTEX
  5
1040
  8
0
 10
0.0
 20
0.0
 30
0.0
 70
   128
 71
    22
 72
   -23
 73
   -13
  0
VERTEX
  5
1041
  8
0
 10
0.0
 20
0.0
 30
0.0
 70
   128
 71
   -24
 72
    11
 73
   -12
  0
VERTEX
  5
1042
  8
0
 10
0.0
 20
0.0
 30
0.0
 70
   128
 71
    23
 72
   -24
 73
   -12
  0
VERTEX
  5
1043
  8
0
 10
0.0
 20
0.0
 30
0.0
 70
   128
 71
   -25
 72
    10
 73
   -11
  0
VERTEX
  5
1044
  8
0
 10
0.0
 20
0.0
 30
0.0
 70
   128
 71
    24
 72
   -25
 73
   -11
  0
VERTEX
  5
1045
  8
0
 10
0.0
 20
0.0
 30
0.0
 70
   128
 71
   -26
 72
     9
 73
   -10
  0
VERTEX
  5
1046
  8
0
 10
0.0
 20
0.0
 30
0.0
 70
   128
 71
    25
 72
   -26
 73
   -10
  0
VERTEX
  5
1047
  8
0
 10
0.0
 20
0.0
 30
0.0
 70
   128
 71
   -27
 72
     8
 73
    -9
  0
VERTEX
  5
1048
  8
0
 10
0.0
 20
0.0
 30
0.0
 70
   128
 71
    26
 72
   -27
 73
    -9
  0
VERTEX
  5
1049
  8
0
 10
0.0
 20
0.0
 30
0.0
 70
   128
 71
   -28
 72
     7
 73
    -8
  0
VERTEX
  5
104A
  8
0
 10
0.0
 20
0.0
 30
0.0
 70
   128
 71
    27
 72
   -28
 73
    -8
  0
VERTEX
  5
104B
  8
0
 10
0.0
 20
0.0
 30
0.0
 70
   128
 71
   -29
 72
     6
 73
    -7
  0
VERTEX
  5
104C
  8
0
 10
0.0
 20
0.0
 30
0.0
 70
   128
 71
    28
 72
   -29
 73
    -7
  0
VERTEX
  5
104D
  8
0
 10
0.0
 20
0.0
 30
0.0
 70
   128
 71
   -30
 72
     5
 73
    -6
  0
VERTEX
  5
104E
  8
0
 10
0.0
 20
0.0
 30
0.0
 70
   128
 71
    29
 72
   -30
 73
    -6
  0
VERTEX
  5
104F
  8
0
 10
0.0
 20
0.0
 30
0.0
 70
   128
 71
   -31
 72
     4
 73
    -5
  0
VERTEX
  5
1050
  8
0
 10
0.0
 20
0.0
 30
0.0
 70
   128
 71
    30
 72
   -31
 73
    -5
  0
VERTEX
  5
1051
  8
0
 10
0.0
 20
0.0
 30
0.0
 70
   128
 71
    34
 72
   -35
 73
    -4
  0
VERTEX
  5
1052
  8
0
 10
0.0
 20
0.0
 30
0.0
 70
   128
 71
    33
 72
   -34
 73
    -4
  0
VERTEX
  5
1053
  8
0
 10
0.0
 20
0.0
 30
0.0
 70
   128
 71
    32
 72
   -33
 73
    -4
  0
VERTEX
  5
1054
  8
0
 10
0.0
 20
0.0
 30
0.0
 70
   128
 71
    31
 72
   -32
 73
    -4
  0
VERTEX
  5
1055
  8
0
 10
0.0
 20
0.0
 30
0.0
 70
   128
 71
     1
 72
     2
 73
    -3
  0
VERTEX
  5
1056
  8
0
 10
0.0
 20
0.0
 30
0.0
 70
   128
 71
    36
 72
    -1
 73
    -3
  0
VERTEX
  5
1057
  8
0
 10
0.0
 20
0.0
 30
0.0
 70
   128
 71
    35
 72
   -36
 73
    -3
  0
VERTEX
  5
1058
  8
0
 10
0.0
 20
0.0
 30
0.0
 70
   128
 71
     3
 72
    -4
 73
   -35
  0
SEQEND
  5
1A62
  8
0
  0
POLYLINE
  5
1059
  8
0
 66
     1
 10
0.0
 20
0.0
 30
0.0
 70
    64
 71
    36
 72
    34
  0
VERTEX
  5
105A
  8
0
 10
23.96345519252815
 20
-86.71952200418896
 30
10.0
 70
   192
  0
VERTEX
  5
105B
  8
0
 10
33.9637338908713
 20
-86.71952200418895
 30
10.0
 70
   192
  0
VERTEX
  5
105C
  8
0
 10
48.52359319087748
 20
-74.67448248801452
 30
10.0
 70
   192
  0
VERTEX
  5
105D
  8
0
 10
62.28939474902491
 20
-73.43336296251533
 30
10.0
 70
   192
  0
VERTEX
  5
105E
  8
0
 10
75.9941957912383
 20
-71.64001452781991
 30
10.0
 70
   192
  0
VERTEX
  5
105F
  8
0
 10
89.61585215999798
 20
-69.29733486847726
 30
10.0
 70
   192
  0
VERTEX
  5
1060
  8
0
 10
101.1844162551965
 20
-66.66026243007568
 30
10.0
 70
   192
  0
VERTEX
  5
1061
  8
0
 10
112.5490663675571
 20
-63.24990261127047
 30
10.0
 70
   192
  0
VERTEX
  5
1062
  8
0
 10
123.6581757753386
 20
-59.08174781135779
 30
10.0
 70
   192
  0
VERTEX
  5
1063
  8
0
 10
148.4057770629992
 20
-45.20526674139195
 30
10.0
 70
   192
  0
VERTEX
  5
1064
  8
0
 10
169.2081003193901
 20
-25.91112660727958
 30
10.0
 70
   192
  0
VERTEX
  5
1065
  8
0
 10
184.9044477256455
 20
-2.275873816580017
 30
10.0
 70
   192
  0
VERTEX
  5
1066
  8
0
 10
192.3862289603342
 20
14.22202023610626
 30
10.0
 70
   192
  0
VERTEX
  5
1067
  8
0
 10
198.4545025178298
 20
31.29051796287783
 30
10.0
 70
   192
  0
VERTEX
  5
1068
  8
0
 10
203.0663006389129
 20
48.80876207316965
 30
10.0
 70
   192
  0
VERTEX
  5
1069
  8
0
 10
206.3026904901893
 20
63.60562622226112
 30
10.0
 70
   192
  0
VERTEX
  5
106A
  8
0
 10
194.6785877245517
 20
62.61740666553055
 30
10.0
 70
   192
  0
VERTEX
  5
106B
  8
0
 10
192.7386964012447
 20
62.03667713970034
 30
10.0
 70
   192
  0
VERTEX
  5
106C
  8
0
 10
191.1938390889798
 20
60.7275396323489
 30
10.0
 70
   192
  0
VERTEX
  5
106D
  8
0
 10
190.3027073701691
 20
58.90921364723442
 30
10.0
 70
   192
  0
VERTEX
  5
106E
  8
0
 10
185.9506349418831
 20
40.13394749042075
 30
10.0
 70
   192
  0
VERTEX
  5
106F
  8
0
 10
179.8184285357695
 20
21.86246155541669
 30
10.0
 70
   192
  0
VERTEX
  5
1070
  8
0
 10
171.9625922919675
 20
4.2631152439536
 30
10.0
 70
   192
  0
VERTEX
  5
1071
  8
0
 10
158.1610833594831
 20
-16.51892684963349
 30
10.0
 70
   192
  0
VERTEX
  5
1072
  8
0
 10
139.8699839840267
 20
-33.483908607073
 30
10.0
 70
   192
  0
VERTEX
  5
1073
  8
0
 10
118.1098743617658
 20
-45.68524261693693
 30
10.0
 70
   192
  0
VERTEX
  5
1074
  8
0
 10
107.9157774364039
 20
-49.51008333733338
 30
10.0
 70
   192
  0
VERTEX
  5
1075
  8
0
 10
97.48718766240464
 20
-52.63954558917763
 30
10.0
 70
   192
  0
VERTEX
  5
1076
  8
0
 10
86.87147947691231
 20
-55.05941301954391
 30
10.0
 70
   192
  0
VERTEX
  5
1077
  8
0
 10
70.9609172739694
 20
-57.72382468749242
 30
10.0
 70
   192
  0
VERTEX
  5
1078
  8
0
 10
54.93897261723826
 20
-59.60594279394894
 30
10.0
 70
   192
  0
VERTEX
  5
1079
  8
0
 10
38.84408592725842
 20
-60.70125169408581
 30
10.0
 70
   192
  0
VERTEX
  5
107A
  8
0
 10
36.47758132732777
 20
-61.42492421969082
 30
10.0
 70
   192
  0
VERTEX
  5
107B
  8
0
 10
34.75948732172751
 20
-63.20599101622848
 30
10.0
 70
   192
  0
VERTEX
  5
107C
  8
0
 10
34.12143362011886
 20
-65.59700197807537
 30
10.0
 70
   192
  0
VERTEX
  5
107D
  8
0
 10
24.12171231069495
 20
-65.522344534688
 30
10.0
 70
   192
  0
VERTEX
  5
107E
  8
0
 10
0.0
 20
0.0
 30
0.0
 70
   128
 71
    15
 72
   -14
 73
   -21
  0
VERTEX
  5
107F
  8
0
 10
0.0
 20
0.0
 30
0.0
 70
   128
 71
   -15
 72
    21
 73
   -20
  0
VERTEX
  5
1080
  8
0
 10
0.0
 20
0.0
 30
0.0
 70
   128
 71
    20
 72
    19
 73
   -18
  0
VERTEX
  5
1081
  8
0
 10
0.0
 20
0.0
 30
0.0
 70
   128
 71
   -20
 72
    18
 73
   -17
  0
VERTEX
  5
1082
  8
0
 10
0.0
 20
0.0
 30
0.0
 70
   128
 71
   -20
 72
    17
 73
   -16
  0
VERTEX
  5
1083
  8
0
 10
0.0
 20
0.0
 30
0.0
 70
   128
 71
   -20
 72
    16
 73
   -15
  0
VERTEX
  5
1084
  8
0
 10
0.0
 20
0.0
 30
0.0
 70
   128
 71
    14
 72
   -13
 73
   -22
  0
VERTEX
  5
1085
  8
0
 10
0.0
 20
0.0
 30
0.0
 70
   128
 71
   -14
 72
    22
 73
   -21
  0
VERTEX
  5
1086
  8
0
 10
0.0
 20
0.0
 30
0.0
 70
   128
 71
    13
 72
   -12
 73
   -23
  0
VERTEX
  5
1087
  8
0
 10
0.0
 20
0.0
 30
0.0
 70
   128
 71
   -13
 72
    23
 73
   -22
  0
VERTEX
  5
1088
  8
0
 10
0.0
 20
0.0
 30
0.0
 70
   128
 71
    12
 72
   -11
 73
   -24
  0
VERTEX
  5
1089
  8
0
 10
0.0
 20
0.0
 30
0.0
 70
   128
 71
   -12
 72
    24
 73
   -23
  0
VERTEX
  5
108A
  8
0
 10
0.0
 20
0.0
 30
0.0
 70
   128
 71
    11
 72
   -10
 73
   -25
  0
VERTEX
  5
108B
  8
0
 10
0.0
 20
0.0
 30
0.0
 70
   128
 71
   -11
 72
    25
 73
   -24
  0
VERTEX
  5
108C
  8
0
 10
0.0
 20
0.0
 30
0.0
 70
   128
 71
    10
 72
    -9
 73
   -26
  0
VERTEX
  5
108D
  8
0
 10
0.0
 20
0.0
 30
0.0
 70
   128
 71
   -10
 72
    26
 73
   -25
  0
VERTEX
  5
108E
  8
0
 10
0.0
 20
0.0
 30
0.0
 70
   128
 71
     9
 72
    -8
 73
   -27
  0
VERTEX
  5
108F
  8
0
 10
0.0
 20
0.0
 30
0.0
 70
   128
 71
    -9
 72
    27
 73
   -26
  0
VERTEX
  5
1090
  8
0
 10
0.0
 20
0.0
 30
0.0
 70
   128
 71
     8
 72
    -7
 73
   -28
  0
VERTEX
  5
1091
  8
0
 10
0.0
 20
0.0
 30
0.0
 70
   128
 71
    -8
 72
    28
 73
   -27
  0
VERTEX
  5
1092
  8
0
 10
0.0
 20
0.0
 30
0.0
 70
   128
 71
     7
 72
    -6
 73
   -29
  0
VERTEX
  5
1093
  8
0
 10
0.0
 20
0.0
 30
0.0
 70
   128
 71
    -7
 72
    29
 73
   -28
  0
VERTEX
  5
1094
  8
0
 10
0.0
 20
0.0
 30
0.0
 70
   128
 71
     6
 72
    -5
 73
   -30
  0
VERTEX
  5
1095
  8
0
 10
0.0
 20
0.0
 30
0.0
 70
   128
 71
    -6
 72
    30
 73
   -29
  0
VERTEX
  5
1096
  8
0
 10
0.0
 20
0.0
 30
0.0
 70
   128
 71
     5
 72
    -4
 73
   -31
  0
VERTEX
  5
1097
  8
0
 10
0.0
 20
0.0
 30
0.0
 70
   128
 71
    -5
 72
    31
 73
   -30
  0
VERTEX
  5
1098
  8
0
 10
0.0
 20
0.0
 30
0.0
 70
   128
 71
    -4
 72
    35
 73
   -34
  0
VERTEX
  5
1099
  8
0
 10
0.0
 20
0.0
 30
0.0
 70
   128
 71
    -4
 72
    34
 73
   -33
  0
VERTEX
  5
109A
  8
0
 10
0.0
 20
0.0
 30
0.0
 70
   128
 71
    -4
 72
    33
 73
   -32
  0
VERTEX
  5
109B
  8
0
 10
0.0
 20
0.0
 30
0.0
 70
   128
 71
    -4
 72
    32
 73
   -31
  0
VERTEX
  5
109C
  8
0
 10
0.0
 20
0.0
 30
0.0
 70
   128
 71
     3
 72
     2
 73
    -1
  0
VERTEX
  5
109D
  8
0
 10
0.0
 20
0.0
 30
0.0
 70
   128
 71
    -3
 72
     1
 73
   -36
  0
VERTEX
  5
109E
  8
0
 10
0.0
 20
0.0
 30
0.0
 70
   128
 71
    -3
 72
    36
 73
   -35
  0
VERTEX
  5
109F
  8
0
 10
0.0
 20
0.0
 30
0.0
 70
   128
 71
   -35
 72
     4
 73
    -3
  0
SEQEND
  5
1A63
  8
0
  0
ENDBLK
  5
1A3C
  8
0
  0
BLOCK
  8
0
  2
*X2
 70
     1
 10
0.0
 20
0.0
 30
0.0
  3
*X2
  1

  0
POLYLINE
  5
10A1
  8
0
 66
     1
 10
0.0
 20
0.0
 30
0.0
 70
    64
 71
    14
 72
    12
  0
VERTEX
  5
10A2
  8
0
 10
187.5174048691895
 20
46.62727160605124
 30
-7.602924772753145
 70
   192
  0
VERTEX
  5
10A3
  8
0
 10
177.1892399455144
 20
50.95839039376982
 30
-8.749999999999988
 70
   192
  0
VERTEX
  5
10A4
  8
0
 10
175.9739986345457
 20
46.65893890496533
 30
-7.620930045800201
 70
   192
  0
VERTEX
  5
10A5
  8
0
 10
188.4883008820295
 20
50.95839039376558
 30
-8.749999999999988
 70
   192
  0
VERTEX
  5
10A6
  8
0
 10
174.803604084184
 20
42.2083903937697
 30
-0.0000000000000025
 70
   192
  0
VERTEX
  5
10A7
  8
0
 10
186.5257116530949
 20
42.20839039376983
 30
0.0000000000000002
 70
   192
  0
VERTEX
  5
10A8
  8
0
 10
186.7942442818428
 20
43.4044575649623
 30
-4.416110784124557
 70
   192
  0
VERTEX
  5
10A9
  8
0
 10
175.1126958199835
 20
43.41774763399043
 30
-4.438772770525784
 70
   192
  0
VERTEX
  5
10AA
  8
0
 10
177.1892399455052
 20
50.95839039376657
 30
8.749999999999988
 70
   192
  0
VERTEX
  5
10AB
  8
0
 10
188.4883008820343
 20
50.95839039376982
 30
8.749999999999988
 70
   192
  0
VERTEX
  5
10AC
  8
0
 10
187.5171200529745
 20
46.62600175181925
 30
7.602139745126675
 70
   192
  0
VERTEX
  5
10AD
  8
0
 10
175.1120718130573
 20
43.41533618004041
 30
4.434659025479176
 70
   192
  0
VERTEX
  5
10AE
  8
0
 10
175.9720158829276
 20
46.65167826616335
 30
7.616827649049402
 70
   192
  0
VERTEX
  5
10AF
  8
0
 10
186.7941221050825
 20
43.40391329543586
 30
4.415179094977465
 70
   192
  0
VERTEX
  5
10B0
  8
0
 10
0.0
 20
0.0
 30
0.0
 70
   128
 71
     1
 72
     2
 73
     3
  0
VERTEX
  5
10B1
  8
0
 10
0.0
 20
0.0
 30
0.0
 70
   128
 71
     1
 72
     4
 73
     2
  0
VERTEX
  5
10B2
  8
0
 10
0.0
 20
0.0
 30
0.0
 70
   128
 71
     5
 72
     6
 73
     7
  0
VERTEX
  5
10B3
  8
0
 10
0.0
 20
0.0
 30
0.0
 70
   128
 71
     8
 72
     5
 73
     7
  0
VERTEX
  5
10B4
  8
0
 10
0.0
 20
0.0
 30
0.0
 70
   128
 71
     9
 72
    10
 73
    11
  0
VERTEX
  5
10B5
  8
0
 10
0.0
 20
0.0
 30
0.0
 70
   128
 71
     8
 72
     7
 73
     3
  0
VERTEX
  5
10B6
  8
0
 10
0.0
 20
0.0
 30
0.0
 70
   128
 71
     7
 72
     1
 73
     3
  0
VERTEX
  5
10B7
  8
0
 10
0.0
 20
0.0
 30
0.0
 70
   128
 71
    12
 72
    13
 73
    14
  0
VERTEX
  5
10B8
  8
0
 10
0.0
 20
0.0
 30
0.0
 70
   128
 71
     6
 72
     5
 73
    12
  0
VERTEX
  5
10B9
  8
0
 10
0.0
 20
0.0
 30
0.0
 70
   128
 71
    14
 72
     6
 73
    12
  0
VERTEX
  5
10BA
  8
0
 10
0.0
 20
0.0
 30
0.0
 70
   128
 71
     9
 72
    11
 73
    14
  0
VERTEX
  5
10BB
  8
0
 10
0.0
 20
0.0
 30
0.0
 70
   128
 71
    13
 72
     9
 73
    14
  0
SEQEND
  5
1A66
  8
0
  0
POLYLINE
  5
10BC
  8
0
 66
     1
 10
0.0
 20
0.0
 30
0.0
 70
    64
 71
    14
 72
    12
  0
VERTEX
  5
10BD
  8
0
 10
190.55492480685
 20
95.01641983959625
 30
-0.0000000000001375
 70
   192
  0
VERTEX
  5
10BE
  8
0
 10
197.879074143489
 20
95.01712618973944
 30
0.0000000000000242
 70
   192
  0
VERTEX
  5
10BF
  8
0
 10
171.3676913045959
 20
95.01584779424535
 30
-98.94182784950702
 70
   192
  0
VERTEX
  5
10C0
  8
0
 10
165.0247919200476
 20
95.01518876058975
 30
-95.27975316830528
 70
   192
  0
VERTEX
  5
10C1
  8
0
 10
-0.0045813252435209
 20
95.00758411586709
 30
-197.8836556990138
 70
   192
  0
VERTEX
  5
10C2
  8
0
 10
-0.0045813082131948
 20
95.00723094079548
 30
-190.5595063366104
 70
   192
  0
VERTEX
  5
10C3
  8
0
 10
95.27517174931837
 20
95.01182539019587
 30
-165.0293734201263
 70
   192
  0
VERTEX
  5
10C4
  8
0
 10
98.93724640923219
 20
95.01235515280328
 30
-171.3722728290793
 70
   192
  0
VERTEX
  5
10C5
  8
0
 10
-98.94640905971923
 20
95.0028130789309
 30
-171.3722728290793
 70
   192
  0
VERTEX
  5
10C6
  8
0
 10
-95.28433436574474
 20
95.0026364913951
 30
-165.0293734201263
 70
   192
  0
VERTEX
  5
10C7
  8
0
 10
-197.8882367941949
 20
94.99804204199472
 30
0.0000000000000242
 70
   192
  0
VERTEX
  5
10C8
  8
0
 10
-190.5640874232762
 20
94.99804204199471
 30
0.0000000000000233
 70
   192
  0
VERTEX
  5
10C9
  8
0
 10
-165.0339545364739
 20
94.99927312100121
 30
-95.27975316830515
 70
   192
  0
VERTEX
  5
10CA
  8
0
 10
-171.3768539550829
 20
94.99932043748883
 30
-98.94182784950688
 70
   192
  0
VERTEX
  5
10CB
  8
0
 10
0.0
 20
0.0
 30
0.0
 70
   128
 71
     1
 72
     2
 73
    -3
  0
VERTEX
  5
10CC
  8
0
 10
0.0
 20
0.0
 30
0.0
 70
   128
 71
     4
 72
    -1
 73
     3
  0
VERTEX
  5
10CD
  8
0
 10
0.0
 20
0.0
 30
0.0
 70
   128
 71
     5
 72
     6
 73
    -7
  0
VERTEX
  5
10CE
  8
0
 10
0.0
 20
0.0
 30
0.0
 70
   128
 71
     8
 72
    -5
 73
     7
  0
VERTEX
  5
10CF
  8
0
 10
0.0
 20
0.0
 30
0.0
 70
   128
 71
     6
 72
     5
 73
    -9
  0
VERTEX
  5
10D0
  8
0
 10
0.0
 20
0.0
 30
0.0
 70
   128
 71
    10
 72
    -6
 73
     9
  0
VERTEX
  5
10D1
  8
0
 10
0.0
 20
0.0
 30
0.0
 70
   128
 71
    11
 72
    12
 73
   -13
  0
VERTEX
  5
10D2
  8
0
 10
0.0
 20
0.0
 30
0.0
 70
   128
 71
    14
 72
   -11
 73
    13
  0
VERTEX
  5
10D3
  8
0
 10
0.0
 20
0.0
 30
0.0
 70
   128
 71
     7
 72
     4
 73
    -3
  0
VERTEX
  5
10D4
  8
0
 10
0.0
 20
0.0
 30
0.0
 70
   128
 71
     8
 72
    -7
 73
     3
  0
VERTEX
  5
10D5
  8
0
 10
0.0
 20
0.0
 30
0.0
 70
   128
 71
    13
 72
    10
 73
    -9
  0
VERTEX
  5
10D6
  8
0
 10
0.0
 20
0.0
 30
0.0
 70
   128
 71
    14
 72
   -13
 73
     9
  0
SEQEND
  5
1A67
  8
0
  0
POLYLINE
  5
10D7
  8
0
 66
     1
 10
0.0
 20
0.0
 30
0.0
 70
    64
 71
    27
 72
    34
  0
VERTEX
  5
10D8
  8
0
 10
-95.28433436574463
 20
95.0026364913951
 30
165.0293734201263
 70
   192
  0
VERTEX
  5
10D9
  8
0
 10
-0.0045813082130679
 20
95.00723094079548
 30
190.5595063366104
 70
   192
  0
VERTEX
  5
10DA
  8
0
 10
-0.0045751340683168
 20
94.87919144392487
 30
189.9734842054301
 70
   192
  0
VERTEX
  5
10DB
  8
0
 10
-134.3361139051876
 20
94.8727138929452
 30
134.3315389272951
 70
   192
  0
VERTEX
  5
10DC
  8
0
 10
-190.5640874232762
 20
94.99804204199472
 30
0.0000000000000233
 70
   192
  0
VERTEX
  5
10DD
  8
0
 10
-165.0339545364738
 20
94.99927312100121
 30
95.27975316830526
 70
   192
  0
VERTEX
  5
10DE
  8
0
 10
134.326963637051
 20
94.88566899490452
 30
134.3315389272951
 70
   192
  0
VERTEX
  5
10DF
  8
0
 10
95.27517174931849
 20
95.01182539019587
 30
165.0293734201263
 70
   192
  0
VERTEX
  5
10E0
  8
0
 10
-0.0045612566658023
 20
94.59140168514602
 30
189.4471828605908
 70
   192
  0
VERTEX
  5
10E1
  8
0
 10
-133.9639487783343
 20
94.58494207953282
 30
133.9593876774117
 70
   192
  0
VERTEX
  5
10E2
  8
0
 10
189.7846076207117
 20
94.80926633297548
 30
0.0
 70
   192
  0
VERTEX
  5
10E3
  8
0
 10
133.9548262650027
 20
94.59786129075923
 30
133.9593876774117
 70
   192
  0
VERTEX
  5
10E4
  8
0
 10
-0.0045407978234901
 20
94.16712593989686
 30
189.023147316556
 70
   192
  0
VERTEX
  5
10E5
  8
0
 10
-133.6640899111895
 20
94.1606807926796
 30
133.6595492687605
 70
   192
  0
VERTEX
  5
10E6
  8
0
 10
-189.1553578139598
 20
94.31267815820034
 30
0.0000000000000232
 70
   192
  0
VERTEX
  5
10E7
  8
0
 10
133.6550083155425
 20
94.17357108711411
 30
133.6595492687605
 70
   192
  0
VERTEX
  5
10E8
  8
0
 10
-0.0045154113880547
 20
93.64066170312978
 30
188.7356556509537
 70
   192
  0
VERTEX
  5
10E9
  8
0
 10
-94.37234312715152
 20
93.63611122734083
 30
163.449872393638
 70
   192
  0
VERTEX
  5
10EA
  8
0
 10
188.7311400201385
 20
93.64976265470767
 30
0.0
 70
   192
  0
VERTEX
  5
10EB
  8
0
 10
163.4453567922207
 20
93.64854335839485
 30
94.36782782547685
 70
   192
  0
VERTEX
  5
10EC
  8
0
 10
94.3633123043754
 20
93.64521217891873
 30
163.449872393638
 70
   192
  0
VERTEX
  5
10ED
  8
0
 10
-189.7937502625766
 20
94.79096282669207
 30
0.0000000000000232
 70
   192
  0
VERTEX
  5
10EE
  8
0
 10
189.1462613014366
 20
94.3309200993403
 30
0.0
 70
   192
  0
VERTEX
  5
10EF
  8
0
 10
-163.4543876149969
 20
93.63278004786471
 30
94.36782782547695
 70
   192
  0
VERTEX
  5
10F0
  8
0
 10
-188.740170842915
 20
93.6315607515519
 30
0.0000000000001048
 70
   192
  0
VERTEX
  5
10F1
  8
0
 10
190.55492480685
 20
95.01641983959625
 30
0.0
 70
   192
  0
VERTEX
  5
10F2
  8
0
 10
165.0247919200476
 20
95.01518876058975
 30
95.27975316830516
 70
   192
  0
VERTEX
  5
10F3
  8
0
 10
0.0
 20
0.0
 30
0.0
 70
   128
 71
     1
 72
     2
 73
     3
  0
VERTEX
  5
10F4
  8
0
 10
0.0
 20
0.0
 30
0.0
 70
   128
 71
     1
 72
     3
 73
     4
  0
VERTEX
  5
10F5
  8
0
 10
0.0
 20
0.0
 30
0.0
 70
   128
 71
     4
 72
     5
 73
     6
  0
VERTEX
  5
10F6
  8
0
 10
0.0
 20
0.0
 30
0.0
 70
   128
 71
     7
 72
     3
 73
     2
  0
VERTEX
  5
10F7
  8
0
 10
0.0
 20
0.0
 30
0.0
 70
   128
 71
     7
 72
     2
 73
     8
  0
VERTEX
  5
10F8
  8
0
 10
0.0
 20
0.0
 30
0.0
 70
   128
 71
     9
 72
    10
 73
    -4
  0
VERTEX
  5
10F9
  8
0
 10
0.0
 20
0.0
 30
0.0
 70
   128
 71
    -9
 72
     4
 73
     3
  0
VERTEX
  5
10FA
  8
0
 10
0.0
 20
0.0
 30
0.0
 70
   128
 71
    11
 72
    12
 73
     7
  0
VERTEX
  5
10FB
  8
0
 10
0.0
 20
0.0
 30
0.0
 70
   128
 71
    12
 72
     9
 73
    -3
  0
VERTEX
  5
10FC
  8
0
 10
0.0
 20
0.0
 30
0.0
 70
   128
 71
   -12
 72
     3
 73
     7
  0
VERTEX
  5
10FD
  8
0
 10
0.0
 20
0.0
 30
0.0
 70
   128
 71
    13
 72
    14
 73
   -10
  0
VERTEX
  5
10FE
  8
0
 10
0.0
 20
0.0
 30
0.0
 70
   128
 71
   -13
 72
    10
 73
     9
  0
VERTEX
  5
10FF
  8
0
 10
0.0
 20
0.0
 30
0.0
 70
   128
 71
    15
 72
    10
 73
    14
  0
VERTEX
  5
1100
  8
0
 10
0.0
 20
0.0
 30
0.0
 70
   128
 71
    16
 72
    13
 73
    -9
  0
VERTEX
  5
1101
  8
0
 10
0.0
 20
0.0
 30
0.0
 70
   128
 71
   -16
 72
     9
 73
    12
  0
VERTEX
  5
1102
  8
0
 10
0.0
 20
0.0
 30
0.0
 70
   128
 71
    14
 72
    13
 73
    17
  0
VERTEX
  5
1103
  8
0
 10
0.0
 20
0.0
 30
0.0
 70
   128
 71
    14
 72
    17
 73
    18
  0
VERTEX
  5
1104
  8
0
 10
0.0
 20
0.0
 30
0.0
 70
   128
 71
    16
 72
    19
 73
    20
  0
VERTEX
  5
1105
  8
0
 10
0.0
 20
0.0
 30
0.0
 70
   128
 71
    21
 72
    17
 73
    13
  0
VERTEX
  5
1106
  8
0
 10
0.0
 20
0.0
 30
0.0
 70
   128
 71
    21
 72
    13
 73
    16
  0
VERTEX
  5
1107
  8
0
 10
0.0
 20
0.0
 30
0.0
 70
   128
 71
     4
 72
    10
 73
    15
  0
VERTEX
  5
1108
  8
0
 10
0.0
 20
0.0
 30
0.0
 70
   128
 71
     4
 72
    15
 73
    22
  0
VERTEX
  5
1109
  8
0
 10
0.0
 20
0.0
 30
0.0
 70
   128
 71
    23
 72
    16
 73
    12
  0
VERTEX
  5
110A
  8
0
 10
0.0
 20
0.0
 30
0.0
 70
   128
 71
    23
 72
    12
 73
    11
  0
VERTEX
  5
110B
  8
0
 10
0.0
 20
0.0
 30
0.0
 70
   128
 71
    14
 72
    24
 73
    25
  0
VERTEX
  5
110C
  8
0
 10
0.0
 20
0.0
 30
0.0
 70
   128
 71
    14
 72
    25
 73
    15
  0
VERTEX
  5
110D
  8
0
 10
0.0
 20
0.0
 30
0.0
 70
   128
 71
    23
 72
    19
 73
    16
  0
VERTEX
  5
110E
  8
0
 10
0.0
 20
0.0
 30
0.0
 70
   128
 71
     4
 72
    22
 73
     5
  0
VERTEX
  5
110F
  8
0
 10
0.0
 20
0.0
 30
0.0
 70
   128
 71
    26
 72
    11
 73
     7
  0
VERTEX
  5
1110
  8
0
 10
0.0
 20
0.0
 30
0.0
 70
   128
 71
    26
 72
     7
 73
    27
  0
VERTEX
  5
1111
  8
0
 10
0.0
 20
0.0
 30
0.0
 70
   128
 71
     1
 72
     4
 73
     6
  0
VERTEX
  5
1112
  8
0
 10
0.0
 20
0.0
 30
0.0
 70
   128
 71
    27
 72
     7
 73
     8
  0
VERTEX
  5
1113
  8
0
 10
0.0
 20
0.0
 30
0.0
 70
   128
 71
    18
 72
    24
 73
    14
  0
VERTEX
  5
1114
  8
0
 10
0.0
 20
0.0
 30
0.0
 70
   128
 71
    20
 72
    21
 73
    16
  0
SEQEND
  5
1A68
  8
0
  0
POLYLINE
  5
1115
  8
0
 66
     1
 10
0.0
 20
0.0
 30
0.0
 70
    64
 71
    16
 72
    14
  0
VERTEX
  5
1116
  8
0
 10
-147.2801732113861
 20
27.02113695407037
 30
-85.03149527739461
 70
   192
  0
VERTEX
  5
1117
  8
0
 10
-170.0642936756856
 20
27.0200382895037
 30
0.0000000000000208
 70
   192
  0
VERTEX
  5
1118
  8
0
 10
-153.5209815009544
 20
-4.41578344534161
 30
0.0000000000000188
 70
   192
  0
VERTEX
  5
1119
  8
0
 10
-127.3180679737808
 20
-28.40118293217616
 30
0.0000000000000156
 70
   192
  0
VERTEX
  5
111A
  8
0
 10
-66.8533103981867
 20
-42.10619323793266
 30
-66.85534070748389
 70
   192
  0
VERTEX
  5
111B
  8
0
 10
-94.54569920410515
 20
-42.10752858227447
 30
0.0000000000000116
 70
   192
  0
VERTEX
  5
111C
  8
0
 10
0.0020302315702155
 20
-42.10296943151197
 30
-94.54772954559779
 70
   192
  0
VERTEX
  5
111D
  8
0
 10
-0.0013033186140981
 20
27.02823883347029
 30
-170.0629905547893
 70
   192
  0
VERTEX
  5
111E
  8
0
 10
-85.03279849714988
 20
27.024138561487
 30
-147.2788700640006
 70
   192
  0
VERTEX
  5
111F
  8
0
 10
66.85737086132714
 20
-42.09974562509127
 30
-66.8553407074839
 70
   192
  0
VERTEX
  5
1120
  8
0
 10
85.03019185992169
 20
27.03233910545358
 30
-147.2788700640006
 70
   192
  0
VERTEX
  5
1121
  8
0
 10
94.54975966724547
 20
-42.09841028074936
 30
-0.0000000000000105
 70
   192
  0
VERTEX
  5
1122
  8
0
 10
127.320806427365
 20
-28.38890408608066
 30
0.0
 70
   192
  0
VERTEX
  5
1123
  8
0
 10
153.5214066507005
 20
-4.400977668973894
 30
0.0
 70
   192
  0
VERTEX
  5
1124
  8
0
 10
147.277566574158
 20
27.03534071287021
 30
-85.03149527739474
 70
   192
  0
VERTEX
  5
1125
  8
0
 10
170.0616870384576
 20
27.03643937743688
 30
-0.0000000000001227
 70
   192
  0
VERTEX
  5
1126
  8
0
 10
0.0
 20
0.0
 30
0.0
 70
   128
 71
     1
 72
     2
 73
     3
  0
VERTEX
  5
1127
  8
0
 10
0.0
 20
0.0
 30
0.0
 70
   128
 71
     4
 72
     5
 73
     1
  0
VERTEX
  5
1128
  8
0
 10
0.0
 20
0.0
 30
0.0
 70
   128
 71
     3
 72
     4
 73
     1
  0
VERTEX
  5
1129
  8
0
 10
0.0
 20
0.0
 30
0.0
 70
   128
 71
     4
 72
     6
 73
     5
  0
VERTEX
  5
112A
  8
0
 10
0.0
 20
0.0
 30
0.0
 70
   128
 71
     7
 72
     8
 73
     9
  0
VERTEX
  5
112B
  8
0
 10
0.0
 20
0.0
 30
0.0
 70
   128
 71
     5
 72
     7
 73
     9
  0
VERTEX
  5
112C
  8
0
 10
0.0
 20
0.0
 30
0.0
 70
   128
 71
     8
 72
     7
 73
    10
  0
VERTEX
  5
112D
  8
0
 10
0.0
 20
0.0
 30
0.0
 70
   128
 71
    11
 72
     8
 73
    10
  0
VERTEX
  5
112E
  8
0
 10
0.0
 20
0.0
 30
0.0
 70
   128
 71
    10
 72
    12
 73
    13
  0
VERTEX
  5
112F
  8
0
 10
0.0
 20
0.0
 30
0.0
 70
   128
 71
    14
 72
    15
 73
    10
  0
VERTEX
  5
1130
  8
0
 10
0.0
 20
0.0
 30
0.0
 70
   128
 71
    13
 72
    14
 73
    10
  0
VERTEX
  5
1131
  8
0
 10
0.0
 20
0.0
 30
0.0
 70
   128
 71
    14
 72
    16
 73
    15
  0
VERTEX
  5
1132
  8
0
 10
0.0
 20
0.0
 30
0.0
 70
   128
 71
     5
 72
     9
 73
     1
  0
VERTEX
  5
1133
  8
0
 10
0.0
 20
0.0
 30
0.0
 70
   128
 71
    10
 72
    15
 73
    11
  0
SEQEND
  5
1A69
  8
0
  0
POLYLINE
  5
1134
  8
0
 66
     1
 10
0.0
 20
0.0
 30
0.0
 70
    64
 71
    14
 72
    12
  0
VERTEX
  5
1135
  8
0
 10
-94.545699204105
 20
-42.10752858227458
 30
0.0000000000000116
 70
   192
  0
VERTEX
  5
1136
  8
0
 10
94.54975966724547
 20
-42.09841028074936
 30
-0.0000000000000105
 70
   192
  0
VERTEX
  5
1137
  8
0
 10
34.85028865741886
 20
-50.03096497848589
 30
-0.0000000000000039
 70
   192
  0
VERTEX
  5
1138
  8
0
 10
-34.845463446393
 20
-50.0343257513278
 30
0.0000000000000043
 70
   192
  0
VERTEX
  5
1139
  8
0
 10
0.0024126055129362
 20
-50.03264536490686
 30
-34.84787609242056
 70
   192
  0
VERTEX
  5
113A
  8
0
 10
0.0020302315702155
 20
-42.10296943151197
 30
-94.54772954559779
 70
   192
  0
VERTEX
  5
113B
  8
0
 10
-24.63875686073803
 20
-50.03383357754014
 30
-24.64116949489915
 70
   192
  0
VERTEX
  5
113C
  8
0
 10
-66.8533103981867
 20
-42.10619323793266
 30
-66.85534070748389
 70
   192
  0
VERTEX
  5
113D
  8
0
 10
24.64358207176391
 20
-50.03145715227358
 30
-24.64116949489915
 70
   192
  0
VERTEX
  5
113E
  8
0
 10
66.85737086132714
 20
-42.09974562509127
 30
-66.8553407074839
 70
   192
  0
VERTEX
  5
113F
  8
0
 10
-74.8651588762044
 20
-46.25699786551201
 30
0.0000000000000092
 70
   192
  0
VERTEX
  5
1140
  8
0
 10
-54.92691940898962
 20
-48.90433046242237
 30
0.0000000000000067
 70
   192
  0
VERTEX
  5
1141
  8
0
 10
54.9316355484663
 20
-48.89903301405838
 30
0.0
 70
   192
  0
VERTEX
  5
1142
  8
0
 10
74.8696196108859
 20
-46.24977756066062
 30
0.0
 70
   192
  0
VERTEX
  5
1143
  8
0
 10
0.0
 20
0.0
 30
0.0
 70
   128
 71
     8
 72
     1
 73
    11
  0
VERTEX
  5
1144
  8
0
 10
0.0
 20
0.0
 30
0.0
 70
   128
 71
     8
 72
    11
 73
    12
  0
VERTEX
  5
1145
  8
0
 10
0.0
 20
0.0
 30
0.0
 70
   128
 71
     7
 72
     8
 73
    12
  0
VERTEX
  5
1146
  8
0
 10
0.0
 20
0.0
 30
0.0
 70
   128
 71
    12
 72
     4
 73
     7
  0
VERTEX
  5
1147
  8
0
 10
0.0
 20
0.0
 30
0.0
 70
   128
 71
     6
 72
     8
 73
    -7
  0
VERTEX
  5
1148
  8
0
 10
0.0
 20
0.0
 30
0.0
 70
   128
 71
     5
 72
    -6
 73
     7
  0
VERTEX
  5
1149
  8
0
 10
0.0
 20
0.0
 30
0.0
 70
   128
 71
    10
 72
     6
 73
    -5
  0
VERTEX
  5
114A
  8
0
 10
0.0
 20
0.0
 30
0.0
 70
   128
 71
     9
 72
   -10
 73
     5
  0
VERTEX
  5
114B
  8
0
 10
0.0
 20
0.0
 30
0.0
 70
   128
 71
     9
 72
     3
 73
    13
  0
VERTEX
  5
114C
  8
0
 10
0.0
 20
0.0
 30
0.0
 70
   128
 71
    14
 72
    10
 73
     9
  0
VERTEX
  5
114D
  8
0
 10
0.0
 20
0.0
 30
0.0
 70
   128
 71
    13
 72
    14
 73
     9
  0
VERTEX
  5
114E
  8
0
 10
0.0
 20
0.0
 30
0.0
 70
   128
 71
    14
 72
     2
 73
    10
  0
SEQEND
  5
1A6A
  8
0
  0
POLYLINE
  5
114F
  8
0
 66
     1
 10
0.0
 20
0.0
 30
0.0
 70
    64
 71
    10
 72
     8
  0
VERTEX
  5
1150
  8
0
 10
22.51190149720253
 20
-61.49589985241035
 30
-0.0000000000000025
 70
   192
  0
VERTEX
  5
1151
  8
0
 10
-22.50597065086991
 20
-61.4980706424162
 30
0.0000000000000028
 70
   192
  0
VERTEX
  5
1152
  8
0
 10
-34.84546344639298
 20
-50.03432575132783
 30
0.0000000000000043
 70
   192
  0
VERTEX
  5
1153
  8
0
 10
34.85028865741887
 20
-50.03096497848588
 30
0.0000000000000043
 70
   192
  0
VERTEX
  5
1154
  8
0
 10
0.0024126055129362
 20
-50.03264536490686
 30
-34.84787609242056
 70
   192
  0
VERTEX
  5
1155
  8
0
 10
0.0029654231663083
 20
-61.49698524741327
 30
-22.50893610020543
 70
   192
  0
VERTEX
  5
1156
  8
0
 10
24.64358207176391
 20
-50.03145715227358
 30
-24.64116949489915
 70
   192
  0
VERTEX
  5
1157
  8
0
 10
15.91918675841182
 20
-61.49621775724643
 30
-15.91622135374994
 70
   192
  0
VERTEX
  5
1158
  8
0
 10
-24.63875686073803
 20
-50.03383357754014
 30
-24.64116949489915
 70
   192
  0
VERTEX
  5
1159
  8
0
 10
-15.91325591207921
 20
-61.49775273758011
 30
-15.91622135374994
 70
   192
  0
VERTEX
  5
115A
  8
0
 10
0.0
 20
0.0
 30
0.0
 70
   128
 71
     8
 72
     1
 73
    -4
  0
VERTEX
  5
115B
  8
0
 10
0.0
 20
0.0
 30
0.0
 70
   128
 71
     7
 72
    -8
 73
     4
  0
VERTEX
  5
115C
  8
0
 10
0.0
 20
0.0
 30
0.0
 70
   128
 71
     6
 72
     8
 73
    -7
  0
VERTEX
  5
115D
  8
0
 10
0.0
 20
0.0
 30
0.0
 70
   128
 71
     5
 72
    -6
 73
     7
  0
VERTEX
  5
115E
  8
0
 10
0.0
 20
0.0
 30
0.0
 70
   128
 71
    10
 72
     6
 73
    -5
  0
VERTEX
  5
115F
  8
0
 10
0.0
 20
0.0
 30
0.0
 70
   128
 71
     9
 72
   -10
 73
     5
  0
VERTEX
  5
1160
  8
0
 10
0.0
 20
0.0
 30
0.0
 70
   128
 71
     2
 72
    10
 73
    -9
  0
VERTEX
  5
1161
  8
0
 10
0.0
 20
0.0
 30
0.0
 70
   128
 71
     3
 72
    -2
 73
     9
  0
SEQEND
  5
1A6B
  8
0
  0
POLYLINE
  5
1162
  8
0
 66
     1
 10
0.0
 20
0.0
 30
0.0
 70
    64
 71
    10
 72
     8
  0
VERTEX
  5
1163
  8
0
 10
-22.50597065086991
 20
-94.99804204199471
 30
0.0
 70
   192
  0
VERTEX
  5
1164
  8
0
 10
22.51513227642294
 20
-94.99587109619866
 30
0.0
 70
   192
  0
VERTEX
  5
1165
  8
0
 10
33.90195126124363
 20
-94.994772937102
 30
0.0000000000000042
 70
   192
  0
VERTEX
  5
1166
  8
0
 10
-33.89278968864453
 20
-94.99804204199481
 30
-0.0000000000000038
 70
   192
  0
VERTEX
  5
1167
  8
0
 10
0.0045807862995501
 20
-94.9964074895484
 30
33.89737051435365
 70
   192
  0
VERTEX
  5
1168
  8
0
 10
0.0045808127765138
 20
-94.99695656909668
 30
22.51055148981752
 70
   192
  0
VERTEX
  5
1169
  8
0
 10
-23.96447974092608
 20
-94.99756329266746
 30
23.96906055509239
 70
   192
  0
VERTEX
  5
116A
  8
0
 10
-15.91278277541664
 20
-94.99772411434367
 30
15.91736360669891
 70
   192
  0
VERTEX
  5
116B
  8
0
 10
23.97364131352517
 20
-94.99525168642934
 30
23.9690605550924
 70
   192
  0
VERTEX
  5
116C
  8
0
 10
15.92194440096967
 20
-94.9961890238497
 30
15.91736360669891
 70
   192
  0
VERTEX
  5
116D
  8
0
 10
0.0
 20
0.0
 30
0.0
 70
   128
 71
     7
 72
     4
 73
    -1
  0
VERTEX
  5
116E
  8
0
 10
0.0
 20
0.0
 30
0.0
 70
   128
 71
    -7
 72
     1
 73
     8
  0
VERTEX
  5
116F
  8
0
 10
0.0
 20
0.0
 30
0.0
 70
   128
 71
     6
 72
     5
 73
    -7
  0
VERTEX
  5
1170
  8
0
 10
0.0
 20
0.0
 30
0.0
 70
   128
 71
    -6
 72
     7
 73
     8
  0
VERTEX
  5
1171
  8
0
 10
0.0
 20
0.0
 30
0.0
 70
   128
 71
    10
 72
     9
 73
    -5
  0
VERTEX
  5
1172
  8
0
 10
0.0
 20
0.0
 30
0.0
 70
   128
 71
   -10
 72
     5
 73
     6
  0
VERTEX
  5
1173
  8
0
 10
0.0
 20
0.0
 30
0.0
 70
   128
 71
     2
 72
     3
 73
    -9
  0
VERTEX
  5
1174
  8
0
 10
0.0
 20
0.0
 30
0.0
 70
   128
 71
    -2
 72
     9
 73
    10
  0
SEQEND
  5
1A6C
  8
0
  0
POLYLINE
  5
1175
  8
0
 66
     1
 10
0.0
 20
0.0
 30
0.0
 70
    64
 71
    23
 72
    24
  0
VERTEX
  5
1176
  8
0
 10
-27.4619196229871
 20
-60.70444901122467
 30
-27.46484679762842
 70
   192
  0
VERTEX
  5
1177
  8
0
 10
0.0029271427102935
 20
-60.70312463910253
 30
-38.84115882970539
 70
   192
  0
VERTEX
  5
1178
  8
0
 10
0.0029479390417661
 20
-61.13439923899305
 30
-37.02697198419245
 70
   192
  0
VERTEX
  5
1179
  8
0
 10
27.46777390840769
 20
-60.70180026698038
 30
-27.46484679762843
 70
   192
  0
VERTEX
  5
117A
  8
0
 10
0.0029996981484291
 20
-62.20778028459063
 30
-35.50213598656664
 70
   192
  0
VERTEX
  5
117B
  8
0
 10
-36.47165726102843
 20
-61.42844187768919
 30
0.0000000000000045
 70
   192
  0
VERTEX
  5
117C
  8
0
 10
0.0030750367158522
 20
-63.77015250250736
 30
-34.48416509386452
 70
   192
  0
VERTEX
  5
117D
  8
0
 10
34.75948732172751
 20
-63.20599101622848
 30
0.0
 70
   192
  0
VERTEX
  5
117E
  8
0
 10
-5.052654791098852
 20
-65.59889097716737
 30
-33.74159277407481
 70
   192
  0
VERTEX
  5
117F
  8
0
 10
-25.84787295672634
 20
-65.59989373561883
 30
-22.26612463569386
 70
   192
  0
VERTEX
  5
1180
  8
0
 10
32.62314158615348
 20
-65.5858158010568
 30
-10.0
 70
   192
  0
VERTEX
  5
1181
  8
0
 10
32.62310481349979
 20
-65.58956854703803
 30
-10.0
 70
   192
  0
VERTEX
  5
1182
  8
0
 10
18.1927246052084
 20
-65.59777007040594
 30
-28.86513873226668
 70
   192
  0
VERTEX
  5
1183
  8
0
 10
32.62307102408268
 20
-65.5933213571998
 30
-9.999999999999998
 70
   192
  0
VERTEX
  5
1184
  8
0
 10
32.6230402179975
 20
-65.5970742315442
 30
-10.00000000000001
 70
   192
  0
VERTEX
  5
1185
  8
0
 10
36.47758132732775
 20
-61.42492421969083
 30
0.0
 70
   192
  0
VERTEX
  5
1186
  8
0
 10
-34.7533914951036
 20
-63.20934297080535
 30
0.0000000000000043
 70
   192
  0
VERTEX
  5
1187
  8
0
 10
34.12143362011886
 20
-65.59700197807535
 30
0.0
 70
   192
  0
VERTEX
  5
1188
  8
0
 10
33.95347894917278
 20
-65.59574803649542
 30
-3.382349700859305
 70
   192
  0
VERTEX
  5
1189
  8
0
 10
33.45410951896883
 20
-65.59201976809562
 30
-6.715692091089221
 70
   192
  0
VERTEX
  5
118A
  8
0
 10
-34.11510720436856
 20
-65.600292386835
 30
0.0000000000000042
 70
   192
  0
VERTEX
  5
118B
  8
0
 10
38.84408592725839
 20
-60.70125169408576
 30
-0.0000000000000043
 70
   192
  0
VERTEX
  5
118C
  8
0
 10
-38.8382316418398
 20
-60.70499758411925
 30
0.0000000000000048
 70
   192
  0
VERTEX
  5
118D
  8
0
 10
0.0
 20
0.0
 30
0.0
 70
   128
 71
     1
 72
     2
 73
     3
  0
VERTEX
  5
118E
  8
0
 10
0.0
 20
0.0
 30
0.0
 70
   128
 71
     3
 72
     2
 73
     4
  0
VERTEX
  5
118F
  8
0
 10
0.0
 20
0.0
 30
0.0
 70
   128
 71
     3
 72
     5
 73
     6
  0
VERTEX
  5
1190
  8
0
 10
0.0
 20
0.0
 30
0.0
 70
   128
 71
     7
 72
     5
 73
     8
  0
VERTEX
  5
1191
  8
0
 10
0.0
 20
0.0
 30
0.0
 70
   128
 71
     9
 72
    10
 73
     7
  0
VERTEX
  5
1192
  8
0
 10
0.0
 20
0.0
 30
0.0
 70
   128
 71
    11
 72
    12
 73
    13
  0
VERTEX
  5
1193
  8
0
 10
0.0
 20
0.0
 30
0.0
 70
   128
 71
    12
 72
    14
 73
    13
  0
VERTEX
  5
1194
  8
0
 10
0.0
 20
0.0
 30
0.0
 70
   128
 71
    14
 72
    15
 73
    13
  0
VERTEX
  5
1195
  8
0
 10
0.0
 20
0.0
 30
0.0
 70
   128
 71
     8
 72
     5
 73
     3
  0
VERTEX
  5
1196
  8
0
 10
0.0
 20
0.0
 30
0.0
 70
   128
 71
    16
 72
     8
 73
     3
  0
VERTEX
  5
1197
  8
0
 10
0.0
 20
0.0
 30
0.0
 70
   128
 71
     5
 72
     7
 73
    17
  0
VERTEX
  5
1198
  8
0
 10
0.0
 20
0.0
 30
0.0
 70
   128
 71
     6
 72
     5
 73
    17
  0
VERTEX
  5
1199
  8
0
 10
0.0
 20
0.0
 30
0.0
 70
   128
 71
     8
 72
    18
 73
    19
  0
VERTEX
  5
119A
  8
0
 10
0.0
 20
0.0
 30
0.0
 70
   128
 71
    19
 72
    20
 73
     8
  0
VERTEX
  5
119B
  8
0
 10
0.0
 20
0.0
 30
0.0
 70
   128
 71
    20
 72
    11
 73
     8
  0
VERTEX
  5
119C
  8
0
 10
0.0
 20
0.0
 30
0.0
 70
   128
 71
    13
 72
     7
 73
     8
  0
VERTEX
  5
119D
  8
0
 10
0.0
 20
0.0
 30
0.0
 70
   128
 71
    11
 72
    13
 73
     8
  0
VERTEX
  5
119E
  8
0
 10
0.0
 20
0.0
 30
0.0
 70
   128
 71
     7
 72
    10
 73
    21
  0
VERTEX
  5
119F
  8
0
 10
0.0
 20
0.0
 30
0.0
 70
   128
 71
    17
 72
     7
 73
    21
  0
VERTEX
  5
11A0
  8
0
 10
0.0
 20
0.0
 30
0.0
 70
   128
 71
     3
 72
     4
 73
    22
  0
VERTEX
  5
11A1
  8
0
 10
0.0
 20
0.0
 30
0.0
 70
   128
 71
    16
 72
     3
 73
    22
  0
VERTEX
  5
11A2
  8
0
 10
0.0
 20
0.0
 30
0.0
 70
   128
 71
     1
 72
     3
 73
     6
  0
VERTEX
  5
11A3
  8
0
 10
0.0
 20
0.0
 30
0.0
 70
   128
 71
    23
 72
     1
 73
     6
  0
VERTEX
  5
11A4
  8
0
 10
0.0
 20
0.0
 30
0.0
 70
   128
 71
     7
 72
    13
 73
     9
  0
SEQEND
  5
1A6D
  8
0
  0
POLYLINE
  5
11A5
  8
0
 66
     1
 10
0.0
 20
0.0
 30
0.0
 70
    64
 71
    14
 72
    12
  0
VERTEX
  5
11A6
  8
0
 10
86.87147947691214
 20
-55.05941301954391
 30
0.0
 70
   192
  0
VERTEX
  5
11A7
  8
0
 10
-86.86616907413399
 20
-55.06779075783135
 30
0.0
 70
   192
  0
VERTEX
  5
11A8
  8
0
 10
-38.83823164183985
 20
-60.70499758411927
 30
0.0000000000000048
 70
   192
  0
VERTEX
  5
11A9
  8
0
 10
38.84408592725839
 20
-60.70125169408576
 30
0.0
 70
   192
  0
VERTEX
  5
11AA
  8
0
 10
0.0029271427102978
 20
-60.70312463910253
 30
38.84115882970539
 70
   192
  0
VERTEX
  5
11AB
  8
0
 10
0.0026552013892129
 20
-55.06360188868762
 30
86.86882437651816
 70
   192
  0
VERTEX
  5
11AC
  8
0
 10
27.4677739084077
 20
-60.70180026698038
 30
27.46484679762843
 70
   192
  0
VERTEX
  5
11AD
  8
0
 10
61.42818992031425
 20
-55.06063991091059
 30
61.42553479033925
 70
   192
  0
VERTEX
  5
11AE
  8
0
 10
-27.4619196229871
 20
-60.70444901122467
 30
27.46484679762843
 70
   192
  0
VERTEX
  5
11AF
  8
0
 10
-61.42287951753583
 20
-55.06656386646466
 30
61.42553479033926
 70
   192
  0
VERTEX
  5
11B0
  8
0
 10
54.93897261723809
 20
-59.60594279394894
 30
0.0
 70
   192
  0
VERTEX
  5
11B1
  8
0
 10
70.96091727396951
 20
-57.72382468749242
 30
0.0
 70
   192
  0
VERTEX
  5
11B2
  8
0
 10
-54.93322388993329
 20
-59.61124090011685
 30
0.0000000000000067
 70
   192
  0
VERTEX
  5
11B3
  8
0
 10
-70.9553499859834
 20
-57.73066797883274
 30
0.0000000000000087
 70
   192
  0
VERTEX
  5
11B4
  8
0
 10
0.0
 20
0.0
 30
0.0
 70
   128
 71
    12
 72
     1
 73
     8
  0
VERTEX
  5
11B5
  8
0
 10
0.0
 20
0.0
 30
0.0
 70
   128
 71
     8
 72
     7
 73
    11
  0
VERTEX
  5
11B6
  8
0
 10
0.0
 20
0.0
 30
0.0
 70
   128
 71
     8
 72
    11
 73
    12
  0
VERTEX
  5
11B7
  8
0
 10
0.0
 20
0.0
 30
0.0
 70
   128
 71
     7
 72
     4
 73
    11
  0
VERTEX
  5
11B8
  8
0
 10
0.0
 20
0.0
 30
0.0
 70
   128
 71
     6
 72
     5
 73
    -7
  0
VERTEX
  5
11B9
  8
0
 10
0.0
 20
0.0
 30
0.0
 70
   128
 71
    -6
 72
     7
 73
     8
  0
VERTEX
  5
11BA
  8
0
 10
0.0
 20
0.0
 30
0.0
 70
   128
 71
    10
 72
     9
 73
    -5
  0
VERTEX
  5
11BB
  8
0
 10
0.0
 20
0.0
 30
0.0
 70
   128
 71
   -10
 72
     5
 73
     6
  0
VERTEX
  5
11BC
  8
0
 10
0.0
 20
0.0
 30
0.0
 70
   128
 71
    13
 72
     3
 73
     9
  0
VERTEX
  5
11BD
  8
0
 10
0.0
 20
0.0
 30
0.0
 70
   128
 71
    14
 72
    13
 73
     9
  0
VERTEX
  5
11BE
  8
0
 10
0.0
 20
0.0
 30
0.0
 70
   128
 71
    14
 72
     9
 73
    10
  0
VERTEX
  5
11BF
  8
0
 10
0.0
 20
0.0
 30
0.0
 70
   128
 71
    10
 72
     2
 73
    14
  0
SEQEND
  5
1A6E
  8
0
  0
POLYLINE
  5
11C0
  8
0
 66
     1
 10
0.0
 20
0.0
 30
0.0
 70
    64
 71
    15
 72
    13
  0
VERTEX
  5
11C1
  8
0
 10
107.915777436404
 20
-49.51008333733336
 30
0.0
 70
   192
  0
VERTEX
  5
11C2
  8
0
 10
118.1098743617659
 20
-45.68524261693688
 30
0.0
 70
   192
  0
VERTEX
  5
11C3
  8
0
 10
95.55331634463582
 20
-45.68633030829976
 30
69.42194734537031
 70
   192
  0
VERTEX
  5
11C4
  8
0
 10
61.42818992031425
 20
-55.06063991091059
 30
61.42553479033925
 70
   192
  0
VERTEX
  5
11C5
  8
0
 10
86.87147947691241
 20
-55.05941301954389
 30
0.0
 70
   192
  0
VERTEX
  5
11C6
  8
0
 10
97.48718766240485
 20
-52.63954558917757
 30
0.0
 70
   192
  0
VERTEX
  5
11C7
  8
0
 10
-36.49507429526975
 20
-45.69269776444578
 30
112.3270703700147
 70
   192
  0
VERTEX
  5
11C8
  8
0
 10
-61.42287951753583
 20
-55.06656386646466
 30
61.42553479033926
 70
   192
  0
VERTEX
  5
11C9
  8
0
 10
0.0026552013892129
 20
-55.06360188868762
 30
86.86882437651816
 70
   192
  0
VERTEX
  5
11CA
  8
0
 10
-97.48211058530572
 20
-52.64894713091846
 30
0.0000000000000119
 70
   192
  0
VERTEX
  5
11CB
  8
0
 10
-86.86616907413398
 20
-55.06779075783135
 30
0.0000000000000106
 70
   192
  0
VERTEX
  5
11CC
  8
0
 10
-107.9110021200682
 20
-49.52049063989347
 30
0.0000000000000132
 70
   192
  0
VERTEX
  5
11CD
  8
0
 10
-95.54890985332491
 20
-45.69554537740304
 30
69.42194734537031
 70
   192
  0
VERTEX
  5
11CE
  8
0
 10
-118.1054678704549
 20
-45.6966330687659
 30
0.0
 70
   192
  0
VERTEX
  5
11CF
  8
0
 10
36.49948078658067
 20
-45.68917792125701
 30
112.3270703700147
 70
   192
  0
VERTEX
  5
11D0
  8
0
 10
0.0
 20
0.0
 30
0.0
 70
   128
 71
     1
 72
     2
 73
     3
  0
VERTEX
  5
11D1
  8
0
 10
0.0
 20
0.0
 30
0.0
 70
   128
 71
     4
 72
     5
 73
     6
  0
VERTEX
  5
11D2
  8
0
 10
0.0
 20
0.0
 30
0.0
 70
   128
 71
     7
 72
     8
 73
     9
  0
VERTEX
  5
11D3
  8
0
 10
0.0
 20
0.0
 30
0.0
 70
   128
 71
    10
 72
    11
 73
     8
  0
VERTEX
  5
11D4
  8
0
 10
0.0
 20
0.0
 30
0.0
 70
   128
 71
    12
 72
    10
 73
     8
  0
VERTEX
  5
11D5
  8
0
 10
0.0
 20
0.0
 30
0.0
 70
   128
 71
    12
 72
     8
 73
    13
  0
VERTEX
  5
11D6
  8
0
 10
0.0
 20
0.0
 30
0.0
 70
   128
 71
    13
 72
    14
 73
    12
  0
VERTEX
  5
11D7
  8
0
 10
0.0
 20
0.0
 30
0.0
 70
   128
 71
    15
 72
     7
 73
     9
  0
VERTEX
  5
11D8
  8
0
 10
0.0
 20
0.0
 30
0.0
 70
   128
 71
     4
 72
     6
 73
     1
  0
VERTEX
  5
11D9
  8
0
 10
0.0
 20
0.0
 30
0.0
 70
   128
 71
     4
 72
     1
 73
     3
  0
VERTEX
  5
11DA
  8
0
 10
0.0
 20
0.0
 30
0.0
 70
   128
 71
     3
 72
    15
 73
     9
  0
VERTEX
  5
11DB
  8
0
 10
0.0
 20
0.0
 30
0.0
 70
   128
 71
     3
 72
     9
 73
     4
  0
VERTEX
  5
11DC
  8
0
 10
0.0
 20
0.0
 30
0.0
 70
   128
 71
     7
 72
    13
 73
     8
  0
SEQEND
  5
1A6F
  8
0
  0
POLYLINE
  5
11DD
  8
0
 66
     1
 10
0.0
 20
0.0
 30
0.0
 70
    64
 71
    17
 72
    15
  0
VERTEX
  5
11DE
  8
0
 10
158.1610833594831
 20
-16.51892684963341
 30
0.0
 70
   192
  0
VERTEX
  5
11DF
  8
0
 10
171.9625922919676
 20
4.263115243953763
 30
0.0
 70
   192
  0
VERTEX
  5
11E0
  8
0
 10
148.9239459378705
 20
4.262004305989112
 30
85.98139883106482
 70
   192
  0
VERTEX
  5
11E1
  8
0
 10
95.55331634463582
 20
-45.68633030829976
 30
69.42194734537031
 70
   192
  0
VERTEX
  5
11E2
  8
0
 10
118.1098743617658
 20
-45.6852426169369
 30
0.0
 70
   192
  0
VERTEX
  5
11E3
  8
0
 10
139.8699839840268
 20
-33.48390860707291
 30
0.0
 70
   192
  0
VERTEX
  5
11E4
  8
0
 10
-36.49507429526975
 20
-45.69269776444578
 30
112.3270703700147
 70
   192
  0
VERTEX
  5
11E5
  8
0
 10
-0.0002051702356642
 20
4.254823090097962
 30
171.9627976621297
 70
   192
  0
VERTEX
  5
11E6
  8
0
 10
-85.9816039013373
 20
4.250677013170097
 30
148.9241512812476
 70
   192
  0
VERTEX
  5
11E7
  8
0
 10
-139.8667541034627
 20
-33.49739768788319
 30
0.0000000000000171
 70
   192
  0
VERTEX
  5
11E8
  8
0
 10
-118.1054678704549
 20
-45.69663306876589
 30
0.0000000000000145
 70
   192
  0
VERTEX
  5
11E9
  8
0
 10
-95.54890985332491
 20
-45.69554537740304
 30
69.42194734537031
 70
   192
  0
VERTEX
  5
11EA
  8
0
 10
-148.9243562783419
 20
4.247641874206812
 30
85.98139883106491
 70
   192
  0
VERTEX
  5
11EB
  8
0
 10
-158.1594895179565
 20
-16.53418002588285
 30
0.0000000000000194
 70
   192
  0
VERTEX
  5
11EC
  8
0
 10
-171.963002632439
 20
4.246530936242234
 30
0.0000000000000955
 70
   192
  0
VERTEX
  5
11ED
  8
0
 10
36.49948078658067
 20
-45.68917792125701
 30
112.3270703700147
 70
   192
  0
VERTEX
  5
11EE
  8
0
 10
85.98119356086595
 20
4.258969167025827
 30
148.9241512812476
 70
   192
  0
VERTEX
  5
11EF
  8
0
 10
0.0
 20
0.0
 30
0.0
 70
   128
 71
     1
 72
     2
 73
     3
  0
VERTEX
  5
11F0
  8
0
 10
0.0
 20
0.0
 30
0.0
 70
   128
 71
     4
 72
     5
 73
     6
  0
VERTEX
  5
11F1
  8
0
 10
0.0
 20
0.0
 30
0.0
 70
   128
 71
     7
 72
     8
 73
     9
  0
VERTEX
  5
11F2
  8
0
 10
0.0
 20
0.0
 30
0.0
 70
   128
 71
    10
 72
    11
 73
    12
  0
VERTEX
  5
11F3
  8
0
 10
0.0
 20
0.0
 30
0.0
 70
   128
 71
    12
 72
    13
 73
    14
  0
VERTEX
  5
11F4
  8
0
 10
0.0
 20
0.0
 30
0.0
 70
   128
 71
    12
 72
    14
 73
    10
  0
VERTEX
  5
11F5
  8
0
 10
0.0
 20
0.0
 30
0.0
 70
   128
 71
    13
 72
    15
 73
    14
  0
VERTEX
  5
11F6
  8
0
 10
0.0
 20
0.0
 30
0.0
 70
   128
 71
    16
 72
    17
 73
     8
  0
VERTEX
  5
11F7
  8
0
 10
0.0
 20
0.0
 30
0.0
 70
   128
 71
    16
 72
     8
 73
     7
  0
VERTEX
  5
11F8
  8
0
 10
0.0
 20
0.0
 30
0.0
 70
   128
 71
     4
 72
     6
 73
     1
  0
VERTEX
  5
11F9
  8
0
 10
0.0
 20
0.0
 30
0.0
 70
   128
 71
     4
 72
     1
 73
     3
  0
VERTEX
  5
11FA
  8
0
 10
0.0
 20
0.0
 30
0.0
 70
   128
 71
     4
 72
     3
 73
    17
  0
VERTEX
  5
11FB
  8
0
 10
0.0
 20
0.0
 30
0.0
 70
   128
 71
     4
 72
    17
 73
    16
  0
VERTEX
  5
11FC
  8
0
 10
0.0
 20
0.0
 30
0.0
 70
   128
 71
     7
 72
     9
 73
    13
  0
VERTEX
  5
11FD
  8
0
 10
0.0
 20
0.0
 30
0.0
 70
   128
 71
     7
 72
    13
 73
    12
  0
SEQEND
  5
1A70
  8
0
  0
POLYLINE
  5
11FE
  8
0
 66
     1
 10
0.0
 20
0.0
 30
0.0
 70
    64
 71
    14
 72
    12
  0
VERTEX
  5
11FF
  8
0
 10
-186.9057745858179
 20
64.39476600882493
 30
107.9083063821264
 70
   192
  0
VERTEX
  5
1200
  8
0
 10
-215.8197181039031
 20
64.3933717603493
 30
0.0000000000001198
 70
   192
  0
VERTEX
  5
1201
  8
0
 10
-194.6846257203716
 20
62.59863132738015
 30
0.0
 70
   192
  0
VERTEX
  5
1202
  8
0
 10
-168.602236069133
 20
62.59988903655391
 30
97.3408034744007
 70
   192
  0
VERTEX
  5
1203
  8
0
 10
-97.34382235914063
 20
62.60332516191776
 30
168.599217267239
 70
   192
  0
VERTEX
  5
1204
  8
0
 10
-0.0030189979098404
 20
62.60801899645536
 30
194.6816069488012
 70
   192
  0
VERTEX
  5
1205
  8
0
 10
-0.0031055905619281
 20
64.40377857264819
 30
215.8166127642526
 70
   192
  0
VERTEX
  5
1206
  8
0
 10
-107.9114118472325
 20
64.39857516649874
 30
186.9026692125517
 70
   192
  0
VERTEX
  5
1207
  8
0
 10
107.9052006661086
 20
64.40898197879764
 30
186.9026692125516
 70
   192
  0
VERTEX
  5
1208
  8
0
 10
97.33778436332095
 20
62.61271283099297
 30
168.5992172672389
 70
   192
  0
VERTEX
  5
1209
  8
0
 10
168.5961980733132
 20
62.61614895635682
 30
97.3408034744006
 70
   192
  0
VERTEX
  5
120A
  8
0
 10
194.6785877245517
 20
62.61740666553057
 30
0.0
 70
   192
  0
VERTEX
  5
120B
  8
0
 10
215.813506922779
 20
64.41418538494709
 30
0.0000000000000264
 70
   192
  0
VERTEX
  5
120C
  8
0
 10
186.8995634046939
 20
64.41279113647145
 30
107.9083063821263
 70
   192
  0
VERTEX
  5
120D
  8
0
 10
0.0
 20
0.0
 30
0.0
 70
   128
 71
     1
 72
     2
 73
    -3
  0
VERTEX
  5
120E
  8
0
 10
0.0
 20
0.0
 30
0.0
 70
   128
 71
    -1
 72
     3
 73
     4
  0
VERTEX
  5
120F
  8
0
 10
0.0
 20
0.0
 30
0.0
 70
   128
 71
     5
 72
     6
 73
    -7
  0
VERTEX
  5
1210
  8
0
 10
0.0
 20
0.0
 30
0.0
 70
   128
 71
    -5
 72
     7
 73
     8
  0
VERTEX
  5
1211
  8
0
 10
0.0
 20
0.0
 30
0.0
 70
   128
 71
     9
 72
     7
 73
    -6
  0
VERTEX
  5
1212
  8
0
 10
0.0
 20
0.0
 30
0.0
 70
   128
 71
    -9
 72
     6
 73
    10
  0
VERTEX
  5
1213
  8
0
 10
0.0
 20
0.0
 30
0.0
 70
   128
 71
    11
 72
    12
 73
   -13
  0
VERTEX
  5
1214
  8
0
 10
0.0
 20
0.0
 30
0.0
 70
   128
 71
   -11
 72
    13
 73
    14
  0
VERTEX
  5
1215
  8
0
 10
0.0
 20
0.0
 30
0.0
 70
   128
 71
     1
 72
     4
 73
    -5
  0
VERTEX
  5
1216
  8
0
 10
0.0
 20
0.0
 30
0.0
 70
   128
 71
    -1
 72
     5
 73
     8
  0
VERTEX
  5
1217
  8
0
 10
0.0
 20
0.0
 30
0.0
 70
   128
 71
     9
 72
    10
 73
   -11
  0
VERTEX
  5
1218
  8
0
 10
0.0
 20
0.0
 30
0.0
 70
   128
 71
    -9
 72
    11
 73
    14
  0
SEQEND
  5
1A71
  8
0
  0
POLYLINE
  5
1219
  8
0
 66
     1
 10
0.0
 20
0.0
 30
0.0
 70
    64
 71
    39
 72
    58
  0
VERTEX
  5
121A
  8
0
 10
-186.9057745858179
 20
64.39476600882493
 30
107.9083063821264
 70
   192
  0
VERTEX
  5
121B
  8
0
 10
-153.3384039965184
 20
64.67559367759287
 30
153.3352851205919
 70
   192
  0
VERTEX
  5
121C
  8
0
 10
-200.3453235686006
 20
64.67332697447377
 30
82.98445832206953
 70
   192
  0
VERTEX
  5
121D
  8
0
 10
-82.98757727978688
 20
64.67898603854316
 30
200.342204747325
 70
   192
  0
VERTEX
  5
121E
  8
0
 10
-0.0031055905619281
 20
64.40377857264819
 30
215.8166127642526
 70
   192
  0
VERTEX
  5
121F
  8
0
 10
-0.0031190541962863
 20
64.68298760112178
 30
216.8488398078865
 70
   192
  0
VERTEX
  5
1220
  8
0
 10
107.9052006661086
 20
64.40898197879764
 30
186.9026692125516
 70
   192
  0
VERTEX
  5
1221
  8
0
 10
153.3321658881258
 20
64.69038152465069
 30
153.3352851205919
 70
   192
  0
VERTEX
  5
1222
  8
0
 10
82.98133917139428
 20
64.6869891637004
 30
200.342204747325
 70
   192
  0
VERTEX
  5
1223
  8
0
 10
-153.9527058494266
 20
65.2990948861748
 30
153.9495569071669
 70
   192
  0
VERTEX
  5
1224
  8
0
 10
-201.1479384014222
 20
65.29681910248581
 30
83.31689981739378
 70
   192
  0
VERTEX
  5
1225
  8
0
 10
-0.0031491212436094
 20
65.30651843027417
 30
217.717551299444
 70
   192
  0
VERTEX
  5
1226
  8
0
 10
-83.32004884177194
 20
65.30250083715833
 30
201.1447895140324
 70
   192
  0
VERTEX
  5
1227
  8
0
 10
153.9464076069393
 20
65.31394197437353
 30
153.9495569071669
 70
   192
  0
VERTEX
  5
1228
  8
0
 10
83.31375059928472
 20
65.31053602339001
 30
201.1447895140324
 70
   192
  0
VERTEX
  5
1229
  8
0
 10
217.1594796746889
 20
64.86613224941945
 30
0.0
 70
   192
  0
VERTEX
  5
122A
  8
0
 10
201.141640158935
 20
65.31621775806254
 30
83.31689981739376
 70
   192
  0
VERTEX
  5
122B
  8
0
 10
200.339085460208
 20
64.6926482277698
 30
82.98445832206951
 70
   192
  0
VERTEX
  5
122C
  8
0
 10
-154.3733438390838
 20
66.18769702496093
 30
154.3701520473832
 70
   192
  0
VERTEX
  5
122D
  8
0
 10
-201.6975152841269
 20
66.1854150237577
 30
83.54452426701926
 70
   192
  0
VERTEX
  5
122E
  8
0
 10
-218.1532110952521
 20
65.86537922136328
 30
0.0000000000000267
 70
   192
  0
VERTEX
  5
122F
  8
0
 10
-0.0031919711735725
 20
66.1951408504215
 30
218.3123626510061
 70
   192
  0
VERTEX
  5
1230
  8
0
 10
-83.54771614106275
 20
66.19111228111207
 30
201.694323547446
 70
   192
  0
VERTEX
  5
1231
  8
0
 10
154.3669598967366
 20
66.20258467588206
 30
154.3701520473832
 70
   192
  0
VERTEX
  5
1232
  8
0
 10
83.5413321987156
 20
66.19916941973092
 30
201.694323547446
 70
   192
  0
VERTEX
  5
1233
  8
0
 10
201.6911313417797
 20
66.20486667708529
 30
83.54452426701923
 70
   192
  0
VERTEX
  5
1234
  8
0
 10
-109.2820885079079
 20
67.230670756661
 30
189.2765142885773
 70
   192
  0
VERTEX
  5
1235
  8
0
 10
-0.0032421591729
 20
67.23594025111255
 30
218.5576929515683
 70
   192
  0
VERTEX
  5
1236
  8
0
 10
189.2732719093488
 20
67.24506728323284
 30
109.2788464757842
 70
   192
  0
VERTEX
  5
1237
  8
0
 10
-217.1657344358755
 20
64.84518881542114
 30
0.0000000000000266
 70
   192
  0
VERTEX
  5
1238
  8
0
 10
218.1468579410322
 20
65.88641788410368
 30
0.0
 70
   192
  0
VERTEX
  5
1239
  8
0
 10
-218.5609348566429
 20
67.22540126220945
 30
0.0000000000000728
 70
   192
  0
VERTEX
  5
123A
  8
0
 10
218.5544505382971
 20
67.24647924001566
 30
0.0
 70
   192
  0
VERTEX
  5
123B
  8
0
 10
-107.9114118472325
 20
64.39857516649874
 30
186.9026692125517
 70
   192
  0
VERTEX
  5
123C
  8
0
 10
-215.8197181039032
 20
64.3933717603493
 30
0.0000000000000264
 70
   192
  0
VERTEX
  5
123D
  8
0
 10
186.8995634046939
 20
64.41279113647145
 30
107.9083063821263
 70
   192
  0
VERTEX
  5
123E
  8
0
 10
215.8135069227791
 20
64.41418538494709
 30
0.0
 70
   192
  0
VERTEX
  5
123F
  8
0
 10
-189.2797562276946
 20
67.22681321899226
 30
109.2788464757842
 70
   192
  0
VERTEX
  5
1240
  8
0
 10
109.2756041895621
 20
67.2412097455641
 30
189.2765142885773
 70
   192
  0
VERTEX
  5
1241
  8
0
 10
0.0
 20
0.0
 30
0.0
 70
   128
 71
     1
 72
     2
 73
     3
  0
VERTEX
  5
1242
  8
0
 10
0.0
 20
0.0
 30
0.0
 70
   128
 71
     4
 72
     5
 73
     6
  0
VERTEX
  5
1243
  8
0
 10
0.0
 20
0.0
 30
0.0
 70
   128
 71
     7
 72
     8
 73
     9
  0
VERTEX
  5
1244
  8
0
 10
0.0
 20
0.0
 30
0.0
 70
   128
 71
    10
 72
    11
 73
    -3
  0
VERTEX
  5
1245
  8
0
 10
0.0
 20
0.0
 30
0.0
 70
   128
 71
   -10
 72
     3
 73
     2
  0
VERTEX
  5
1246
  8
0
 10
0.0
 20
0.0
 30
0.0
 70
   128
 71
    12
 72
    13
 73
    -4
  0
VERTEX
  5
1247
  8
0
 10
0.0
 20
0.0
 30
0.0
 70
   128
 71
   -12
 72
     4
 73
     6
  0
VERTEX
  5
1248
  8
0
 10
0.0
 20
0.0
 30
0.0
 70
   128
 71
    13
 72
    10
 73
    -2
  0
VERTEX
  5
1249
  8
0
 10
0.0
 20
0.0
 30
0.0
 70
   128
 71
   -13
 72
     2
 73
     4
  0
VERTEX
  5
124A
  8
0
 10
0.0
 20
0.0
 30
0.0
 70
   128
 71
    14
 72
    15
 73
    -9
  0
VERTEX
  5
124B
  8
0
 10
0.0
 20
0.0
 30
0.0
 70
   128
 71
   -14
 72
     9
 73
     8
  0
VERTEX
  5
124C
  8
0
 10
0.0
 20
0.0
 30
0.0
 70
   128
 71
    15
 72
    12
 73
    -6
  0
VERTEX
  5
124D
  8
0
 10
0.0
 20
0.0
 30
0.0
 70
   128
 71
   -15
 72
     6
 73
     9
  0
VERTEX
  5
124E
  8
0
 10
0.0
 20
0.0
 30
0.0
 70
   128
 71
    16
 72
    17
 73
    18
  0
VERTEX
  5
124F
  8
0
 10
0.0
 20
0.0
 30
0.0
 70
   128
 71
    17
 72
    14
 73
    -8
  0
VERTEX
  5
1250
  8
0
 10
0.0
 20
0.0
 30
0.0
 70
   128
 71
   -17
 72
     8
 73
    18
  0
VERTEX
  5
1251
  8
0
 10
0.0
 20
0.0
 30
0.0
 70
   128
 71
    19
 72
    20
 73
   -11
  0
VERTEX
  5
1252
  8
0
 10
0.0
 20
0.0
 30
0.0
 70
   128
 71
   -19
 72
    11
 73
    10
  0
VERTEX
  5
1253
  8
0
 10
0.0
 20
0.0
 30
0.0
 70
   128
 71
    21
 72
    11
 73
    20
  0
VERTEX
  5
1254
  8
0
 10
0.0
 20
0.0
 30
0.0
 70
   128
 71
    22
 72
    23
 73
   -13
  0
VERTEX
  5
1255
  8
0
 10
0.0
 20
0.0
 30
0.0
 70
   128
 71
   -22
 72
    13
 73
    12
  0
VERTEX
  5
1256
  8
0
 10
0.0
 20
0.0
 30
0.0
 70
   128
 71
    23
 72
    19
 73
   -10
  0
VERTEX
  5
1257
  8
0
 10
0.0
 20
0.0
 30
0.0
 70
   128
 71
   -23
 72
    10
 73
    13
  0
VERTEX
  5
1258
  8
0
 10
0.0
 20
0.0
 30
0.0
 70
   128
 71
    24
 72
    25
 73
   -15
  0
VERTEX
  5
1259
  8
0
 10
0.0
 20
0.0
 30
0.0
 70
   128
 71
   -24
 72
    15
 73
    14
  0
VERTEX
  5
125A
  8
0
 10
0.0
 20
0.0
 30
0.0
 70
   128
 71
    25
 72
    22
 73
   -12
  0
VERTEX
  5
125B
  8
0
 10
0.0
 20
0.0
 30
0.0
 70
   128
 71
   -25
 72
    12
 73
    15
  0
VERTEX
  5
125C
  8
0
 10
0.0
 20
0.0
 30
0.0
 70
   128
 71
    26
 72
    24
 73
   -14
  0
VERTEX
  5
125D
  8
0
 10
0.0
 20
0.0
 30
0.0
 70
   128
 71
   -26
 72
    14
 73
    17
  0
VERTEX
  5
125E
  8
0
 10
0.0
 20
0.0
 30
0.0
 70
   128
 71
    27
 72
    19
 73
    23
  0
VERTEX
  5
125F
  8
0
 10
0.0
 20
0.0
 30
0.0
 70
   128
 71
    25
 72
    28
 73
    22
  0
VERTEX
  5
1260
  8
0
 10
0.0
 20
0.0
 30
0.0
 70
   128
 71
    29
 72
    24
 73
    26
  0
VERTEX
  5
1261
  8
0
 10
0.0
 20
0.0
 30
0.0
 70
   128
 71
     3
 72
    11
 73
    21
  0
VERTEX
  5
1262
  8
0
 10
0.0
 20
0.0
 30
0.0
 70
   128
 71
     3
 72
    21
 73
    30
  0
VERTEX
  5
1263
  8
0
 10
0.0
 20
0.0
 30
0.0
 70
   128
 71
    31
 72
    26
 73
    17
  0
VERTEX
  5
1264
  8
0
 10
0.0
 20
0.0
 30
0.0
 70
   128
 71
    31
 72
    17
 73
    16
  0
VERTEX
  5
1265
  8
0
 10
0.0
 20
0.0
 30
0.0
 70
   128
 71
    20
 72
    32
 73
    21
  0
VERTEX
  5
1266
  8
0
 10
0.0
 20
0.0
 30
0.0
 70
   128
 71
    33
 72
    26
 73
    31
  0
VERTEX
  5
1267
  8
0
 10
0.0
 20
0.0
 30
0.0
 70
   128
 71
    34
 72
     4
 73
     2
  0
VERTEX
  5
1268
  8
0
 10
0.0
 20
0.0
 30
0.0
 70
   128
 71
    34
 72
     2
 73
     1
  0
VERTEX
  5
1269
  8
0
 10
0.0
 20
0.0
 30
0.0
 70
   128
 71
     1
 72
     3
 73
    30
  0
VERTEX
  5
126A
  8
0
 10
0.0
 20
0.0
 30
0.0
 70
   128
 71
     1
 72
    30
 73
    35
  0
VERTEX
  5
126B
  8
0
 10
0.0
 20
0.0
 30
0.0
 70
   128
 71
     5
 72
     4
 73
    34
  0
VERTEX
  5
126C
  8
0
 10
0.0
 20
0.0
 30
0.0
 70
   128
 71
    36
 72
    18
 73
     8
  0
VERTEX
  5
126D
  8
0
 10
0.0
 20
0.0
 30
0.0
 70
   128
 71
    36
 72
     8
 73
     7
  0
VERTEX
  5
126E
  8
0
 10
0.0
 20
0.0
 30
0.0
 70
   128
 71
     7
 72
     9
 73
     6
  0
VERTEX
  5
126F
  8
0
 10
0.0
 20
0.0
 30
0.0
 70
   128
 71
     7
 72
     6
 73
     5
  0
VERTEX
  5
1270
  8
0
 10
0.0
 20
0.0
 30
0.0
 70
   128
 71
    37
 72
    16
 73
    18
  0
VERTEX
  5
1271
  8
0
 10
0.0
 20
0.0
 30
0.0
 70
   128
 71
    37
 72
    18
 73
    36
  0
VERTEX
  5
1272
  8
0
 10
0.0
 20
0.0
 30
0.0
 70
   128
 71
    27
 72
    38
 73
    20
  0
VERTEX
  5
1273
  8
0
 10
0.0
 20
0.0
 30
0.0
 70
   128
 71
    27
 72
    20
 73
    19
  0
VERTEX
  5
1274
  8
0
 10
0.0
 20
0.0
 30
0.0
 70
   128
 71
    38
 72
    32
 73
    20
  0
VERTEX
  5
1275
  8
0
 10
0.0
 20
0.0
 30
0.0
 70
   128
 71
    22
 72
    28
 73
    27
  0
VERTEX
  5
1276
  8
0
 10
0.0
 20
0.0
 30
0.0
 70
   128
 71
    22
 72
    27
 73
    23
  0
VERTEX
  5
1277
  8
0
 10
0.0
 20
0.0
 30
0.0
 70
   128
 71
    29
 72
    39
 73
    25
  0
VERTEX
  5
1278
  8
0
 10
0.0
 20
0.0
 30
0.0
 70
   128
 71
    29
 72
    25
 73
    24
  0
VERTEX
  5
1279
  8
0
 10
0.0
 20
0.0
 30
0.0
 70
   128
 71
    39
 72
    28
 73
    25
  0
VERTEX
  5
127A
  8
0
 10
0.0
 20
0.0
 30
0.0
 70
   128
 71
    33
 72
    29
 73
    26
  0
SEQEND
  5
1A72
  8
0
  0
POLYLINE
  5
127B
  8
0
 66
     1
 10
0.0
 20
0.0
 30
0.0
 70
    64
 71
    14
 72
    12
  0
VERTEX
  5
127C
  8
0
 10
-190.5401120104091
 20
94.99946339073506
 30
110.005740029457
 70
   192
  0
VERTEX
  5
127D
  8
0
 10
-189.2797562276946
 20
67.22681321899226
 30
109.2788464757842
 70
   192
  0
VERTEX
  5
127E
  8
0
 10
-109.2820885079079
 20
67.230670756661
 30
189.2765142885773
 70
   192
  0
VERTEX
  5
127F
  8
0
 10
-110.0103212782583
 20
95.0033465877089
 30
190.5355308552328
 70
   192
  0
VERTEX
  5
1280
  8
0
 10
110.001158524867
 20
95.01395567913727
 30
190.5355308552328
 70
   192
  0
VERTEX
  5
1281
  8
0
 10
109.2756041895621
 20
67.2412097455641
 30
189.2765142885773
 70
   192
  0
VERTEX
  5
1282
  8
0
 10
189.2732719093488
 20
67.24506728323284
 30
109.2788464757842
 70
   192
  0
VERTEX
  5
1283
  8
0
 10
190.5309492570177
 20
95.01783887611111
 30
110.0057400294569
 70
   192
  0
VERTEX
  5
1284
  8
0
 10
218.5544505382971
 20
67.24647924001566
 30
0.0000000000000269
 70
   192
  0
VERTEX
  5
1285
  8
0
 10
220.00689842643
 20
95.01926022485796
 30
0.0000000000000269
 70
   192
  0
VERTEX
  5
1286
  8
0
 10
-0.0045813766956382
 20
95.00865113342309
 30
220.0114800589138
 70
   192
  0
VERTEX
  5
1287
  8
0
 10
-0.0032421591729
 20
67.23594025111255
 30
218.5576929515683
 70
   192
  0
VERTEX
  5
1288
  8
0
 10
-220.016061179821
 20
94.99804204199472
 30
0.0000000000001221
 70
   192
  0
VERTEX
  5
1289
  8
0
 10
-218.5609348566429
 20
67.22540126220946
 30
0.0
 70
   192
  0
VERTEX
  5
128A
  8
0
 10
0.0
 20
0.0
 30
0.0
 70
   128
 71
     1
 72
     2
 73
    -3
  0
VERTEX
  5
128B
  8
0
 10
0.0
 20
0.0
 30
0.0
 70
   128
 71
    -1
 72
     3
 73
     4
  0
VERTEX
  5
128C
  8
0
 10
0.0
 20
0.0
 30
0.0
 70
   128
 71
     5
 72
     6
 73
    -7
  0
VERTEX
  5
128D
  8
0
 10
0.0
 20
0.0
 30
0.0
 70
   128
 71
    -5
 72
     7
 73
     8
  0
VERTEX
  5
128E
  8
0
 10
0.0
 20
0.0
 30
0.0
 70
   128
 71
     8
 72
     7
 73
    -9
  0
VERTEX
  5
128F
  8
0
 10
0.0
 20
0.0
 30
0.0
 70
   128
 71
    -8
 72
     9
 73
    10
  0
VERTEX
  5
1290
  8
0
 10
0.0
 20
0.0
 30
0.0
 70
   128
 71
    11
 72
    12
 73
    -6
  0
VERTEX
  5
1291
  8
0
 10
0.0
 20
0.0
 30
0.0
 70
   128
 71
   -11
 72
     6
 73
     5
  0
VERTEX
  5
1292
  8
0
 10
0.0
 20
0.0
 30
0.0
 70
   128
 71
     4
 72
     3
 73
   -12
  0
VERTEX
  5
1293
  8
0
 10
0.0
 20
0.0
 30
0.0
 70
   128
 71
    -4
 72
    12
 73
    11
  0
VERTEX
  5
1294
  8
0
 10
0.0
 20
0.0
 30
0.0
 70
   128
 71
    13
 72
    14
 73
    -2
  0
VERTEX
  5
1295
  8
0
 10
0.0
 20
0.0
 30
0.0
 70
   128
 71
   -13
 72
     2
 73
     1
  0
SEQEND
  5
1A73
  8
0
  0
POLYLINE
  5
1296
  8
0
 66
     1
 10
0.0
 20
0.0
 30
0.0
 70
    64
 71
    14
 72
    12
  0
VERTEX
  5
1297
  8
0
 10
106.2869713533759
 20
95.01341837783595
 30
-184.1023699279936
 70
   192
  0
VERTEX
  5
1298
  8
0
 10
184.0977883545304
 20
95.01717046419262
 30
-106.2915528363752
 70
   192
  0
VERTEX
  5
1299
  8
0
 10
190.5309492570177
 20
95.01783887611111
 30
-110.005740029457
 70
   192
  0
VERTEX
  5
129A
  8
0
 10
110.0011585248669
 20
95.01395567913727
 30
-190.5355308552328
 70
   192
  0
VERTEX
  5
129B
  8
0
 10
-184.1069510733765
 20
94.99941540091845
 30
-106.2915528363751
 70
   192
  0
VERTEX
  5
129C
  8
0
 10
-106.2961340722221
 20
95.00316748727512
 30
-184.1023699279935
 70
   192
  0
VERTEX
  5
129D
  8
0
 10
-110.0103212782584
 20
95.0033465877089
 30
-190.5355308552328
 70
   192
  0
VERTEX
  5
129E
  8
0
 10
-190.5401120104092
 20
94.99946339073506
 30
-110.0057400294569
 70
   192
  0
VERTEX
  5
129F
  8
0
 10
-212.5876867850211
 20
94.99804204199471
 30
0.000000000000026
 70
   192
  0
VERTEX
  5
12A0
  8
0
 10
-220.016061179821
 20
94.99804204199472
 30
0.0000000000000269
 70
   192
  0
VERTEX
  5
12A1
  8
0
 10
-0.0045813594231115
 20
95.00829293255553
 30
-212.5831056727502
 70
   192
  0
VERTEX
  5
12A2
  8
0
 10
-0.0045813766957847
 20
95.00865113342309
 30
-220.0114800589138
 70
   192
  0
VERTEX
  5
12A3
  8
0
 10
212.578524066175
 20
95.01854382311636
 30
-0.0000000000001534
 70
   192
  0
VERTEX
  5
12A4
  8
0
 10
220.0068984265542
 20
95.01926022485146
 30
0.0000000000000269
 70
   192
  0
VERTEX
  5
12A5
  8
0
 10
0.0
 20
0.0
 30
0.0
 70
   128
 71
     1
 72
     2
 73
    -3
  0
VERTEX
  5
12A6
  8
0
 10
0.0
 20
0.0
 30
0.0
 70
   128
 71
     4
 72
    -1
 73
     3
  0
VERTEX
  5
12A7
  8
0
 10
0.0
 20
0.0
 30
0.0
 70
   128
 71
     5
 72
     6
 73
    -7
  0
VERTEX
  5
12A8
  8
0
 10
0.0
 20
0.0
 30
0.0
 70
   128
 71
     8
 72
    -5
 73
     7
  0
VERTEX
  5
12A9
  8
0
 10
0.0
 20
0.0
 30
0.0
 70
   128
 71
     9
 72
     5
 73
    -8
  0
VERTEX
  5
12AA
  8
0
 10
0.0
 20
0.0
 30
0.0
 70
   128
 71
    10
 72
    -9
 73
     8
  0
VERTEX
  5
12AB
  8
0
 10
0.0
 20
0.0
 30
0.0
 70
   128
 71
     6
 72
    11
 73
   -12
  0
VERTEX
  5
12AC
  8
0
 10
0.0
 20
0.0
 30
0.0
 70
   128
 71
     7
 72
    -6
 73
    12
  0
VERTEX
  5
12AD
  8
0
 10
0.0
 20
0.0
 30
0.0
 70
   128
 71
    11
 72
     1
 73
    -4
  0
VERTEX
  5
12AE
  8
0
 10
0.0
 20
0.0
 30
0.0
 70
   128
 71
    12
 72
   -11
 73
     4
  0
VERTEX
  5
12AF
  8
0
 10
0.0
 20
0.0
 30
0.0
 70
   128
 71
     2
 72
    13
 73
   -14
  0
VERTEX
  5
12B0
  8
0
 10
0.0
 20
0.0
 30
0.0
 70
   128
 71
     3
 72
    -2
 73
    14
  0
SEQEND
  5
1A74
  8
0
  0
POLYLINE
  5
12B1
  8
0
 66
     1
 10
0.0
 20
0.0
 30
0.0
 70
    64
 71
    27
 72
    34
  0
VERTEX
  5
12B2
  8
0
 10
-106.296134072222
 20
95.00316748727512
 30
184.1023699279935
 70
   192
  0
VERTEX
  5
12B3
  8
0
 10
-0.0045813594229699
 20
95.00829293255553
 30
212.5831056727502
 70
   192
  0
VERTEX
  5
12B4
  8
0
 10
-0.0045782688260826
 20
94.94420009244006
 30
212.0805346709473
 70
   192
  0
VERTEX
  5
12B5
  8
0
 10
-149.9681623179718
 20
94.93696875444111
 30
149.9635842234956
 70
   192
  0
VERTEX
  5
12B6
  8
0
 10
-212.5876867850891
 20
94.99804204199472
 30
0.000000000000026
 70
   192
  0
VERTEX
  5
12B7
  8
0
 10
-184.1069510733765
 20
94.99941540091845
 30
106.2915528363752
 70
   192
  0
VERTEX
  5
12B8
  8
0
 10
149.9590057803196
 20
94.95143143043899
 30
149.9635842234956
 70
   192
  0
VERTEX
  5
12B9
  8
0
 10
106.286971353376
 20
95.01341837783595
 30
184.1023699279935
 70
   192
  0
VERTEX
  5
12BA
  8
0
 10
-0.0045691970656593
 20
94.75606980356164
 30
211.6101173047612
 70
   192
  0
VERTEX
  5
12BB
  8
0
 10
-149.63551793698
 20
94.74885450544576
 30
149.6309489138774
 70
   192
  0
VERTEX
  5
12BC
  8
0
 10
211.9140325347775
 20
94.90505447264414
 30
0.0
 70
   192
  0
VERTEX
  5
12BD
  8
0
 10
149.6263795428486
 20
94.76328510167752
 30
149.6309489138774
 70
   192
  0
VERTEX
  5
12BE
  8
0
 10
-0.0045547244259569
 20
94.45593600802623
 30
211.2019442916242
 70
   192
  0
VERTEX
  5
12BF
  8
0
 10
-149.3468815591893
 20
94.44873462743948
 30
149.342327008391
 70
   192
  0
VERTEX
  5
12C0
  8
0
 10
-211.3339325008238
 20
94.55718566691601
 30
0.0000000000000259
 70
   192
  0
VERTEX
  5
12C1
  8
0
 10
149.3377721103374
 20
94.46313738861296
 30
149.342327008391
 70
   192
  0
VERTEX
  5
12C2
  8
0
 10
-0.0045357766638234
 20
94.0629970642748
 30
210.8821248265978
 70
   192
  0
VERTEX
  5
12C3
  8
0
 10
-105.4455980673755
 20
94.05791263017551
 30
182.6292773038748
 70
   192
  0
VERTEX
  5
12C4
  8
0
 10
210.8775888047594
 20
94.07316593247336
 30
0.0
 70
   192
  0
VERTEX
  5
12C5
  8
0
 10
182.6247413148835
 20
94.07180356246249
 30
105.4410624132989
 70
   192
  0
VERTEX
  5
12C6
  8
0
 10
105.4365265140478
 20
94.06808149837408
 30
182.6292773038748
 70
   192
  0
VERTEX
  5
12C7
  8
0
 10
-211.9231843116585
 20
94.88461677644624
 30
0.000000000000026
 70
   192
  0
VERTEX
  5
12C8
  8
0
 10
211.3248123045495
 20
94.57756653645359
 30
0.0
 70
   192
  0
VERTEX
  5
12C9
  8
0
 10
-182.6338128682112
 20
94.0541905660871
 30
105.441062413299
 70
   192
  0
VERTEX
  5
12CA
  8
0
 10
-210.8866603580871
 20
94.05282819607622
 30
0.0000000000001171
 70
   192
  0
VERTEX
  5
12CB
  8
0
 10
184.0977883545304
 20
95.01717046419262
 30
106.2915528363751
 70
   192
  0
VERTEX
  5
12CC
  8
0
 10
212.578524066175
 20
95.01854382311636
 30
0.0
 70
   192
  0
VERTEX
  5
12CD
  8
0
 10
0.0
 20
0.0
 30
0.0
 70
   128
 71
     1
 72
     2
 73
     3
  0
VERTEX
  5
12CE
  8
0
 10
0.0
 20
0.0
 30
0.0
 70
   128
 71
     1
 72
     3
 73
     4
  0
VERTEX
  5
12CF
  8
0
 10
0.0
 20
0.0
 30
0.0
 70
   128
 71
     4
 72
     5
 73
     6
  0
VERTEX
  5
12D0
  8
0
 10
0.0
 20
0.0
 30
0.0
 70
   128
 71
     7
 72
     3
 73
     2
  0
VERTEX
  5
12D1
  8
0
 10
0.0
 20
0.0
 30
0.0
 70
   128
 71
     7
 72
     2
 73
     8
  0
VERTEX
  5
12D2
  8
0
 10
0.0
 20
0.0
 30
0.0
 70
   128
 71
     9
 72
    10
 73
    -4
  0
VERTEX
  5
12D3
  8
0
 10
0.0
 20
0.0
 30
0.0
 70
   128
 71
    -9
 72
     4
 73
     3
  0
VERTEX
  5
12D4
  8
0
 10
0.0
 20
0.0
 30
0.0
 70
   128
 71
    11
 72
    12
 73
     7
  0
VERTEX
  5
12D5
  8
0
 10
0.0
 20
0.0
 30
0.0
 70
   128
 71
    12
 72
     9
 73
    -3
  0
VERTEX
  5
12D6
  8
0
 10
0.0
 20
0.0
 30
0.0
 70
   128
 71
   -12
 72
     3
 73
     7
  0
VERTEX
  5
12D7
  8
0
 10
0.0
 20
0.0
 30
0.0
 70
   128
 71
    13
 72
    14
 73
   -10
  0
VERTEX
  5
12D8
  8
0
 10
0.0
 20
0.0
 30
0.0
 70
   128
 71
   -13
 72
    10
 73
     9
  0
VERTEX
  5
12D9
  8
0
 10
0.0
 20
0.0
 30
0.0
 70
   128
 71
    15
 72
    10
 73
    14
  0
VERTEX
  5
12DA
  8
0
 10
0.0
 20
0.0
 30
0.0
 70
   128
 71
    16
 72
    13
 73
    -9
  0
VERTEX
  5
12DB
  8
0
 10
0.0
 20
0.0
 30
0.0
 70
   128
 71
   -16
 72
     9
 73
    12
  0
VERTEX
  5
12DC
  8
0
 10
0.0
 20
0.0
 30
0.0
 70
   128
 71
    14
 72
    13
 73
    17
  0
VERTEX
  5
12DD
  8
0
 10
0.0
 20
0.0
 30
0.0
 70
   128
 71
    14
 72
    17
 73
    18
  0
VERTEX
  5
12DE
  8
0
 10
0.0
 20
0.0
 30
0.0
 70
   128
 71
    16
 72
    19
 73
    20
  0
VERTEX
  5
12DF
  8
0
 10
0.0
 20
0.0
 30
0.0
 70
   128
 71
    21
 72
    17
 73
    13
  0
VERTEX
  5
12E0
  8
0
 10
0.0
 20
0.0
 30
0.0
 70
   128
 71
    21
 72
    13
 73
    16
  0
VERTEX
  5
12E1
  8
0
 10
0.0
 20
0.0
 30
0.0
 70
   128
 71
     4
 72
    10
 73
    15
  0
VERTEX
  5
12E2
  8
0
 10
0.0
 20
0.0
 30
0.0
 70
   128
 71
     4
 72
    15
 73
    22
  0
VERTEX
  5
12E3
  8
0
 10
0.0
 20
0.0
 30
0.0
 70
   128
 71
    11
 72
    23
 73
    16
  0
VERTEX
  5
12E4
  8
0
 10
0.0
 20
0.0
 30
0.0
 70
   128
 71
    11
 72
    16
 73
    12
  0
VERTEX
  5
12E5
  8
0
 10
0.0
 20
0.0
 30
0.0
 70
   128
 71
    14
 72
    24
 73
    25
  0
VERTEX
  5
12E6
  8
0
 10
0.0
 20
0.0
 30
0.0
 70
   128
 71
    14
 72
    25
 73
    15
  0
VERTEX
  5
12E7
  8
0
 10
0.0
 20
0.0
 30
0.0
 70
   128
 71
    19
 72
    16
 73
    23
  0
VERTEX
  5
12E8
  8
0
 10
0.0
 20
0.0
 30
0.0
 70
   128
 71
     4
 72
    22
 73
     5
  0
VERTEX
  5
12E9
  8
0
 10
0.0
 20
0.0
 30
0.0
 70
   128
 71
    11
 72
     7
 73
    26
  0
VERTEX
  5
12EA
  8
0
 10
0.0
 20
0.0
 30
0.0
 70
   128
 71
    11
 72
    26
 73
    27
  0
VERTEX
  5
12EB
  8
0
 10
0.0
 20
0.0
 30
0.0
 70
   128
 71
     1
 72
     4
 73
     6
  0
VERTEX
  5
12EC
  8
0
 10
0.0
 20
0.0
 30
0.0
 70
   128
 71
    26
 72
     7
 73
     8
  0
VERTEX
  5
12ED
  8
0
 10
0.0
 20
0.0
 30
0.0
 70
   128
 71
    18
 72
    24
 73
    14
  0
VERTEX
  5
12EE
  8
0
 10
0.0
 20
0.0
 30
0.0
 70
   128
 71
    20
 72
    21
 73
    16
  0
SEQEND
  5
1A75
  8
0
  0
POLYLINE
  5
12EF
  8
0
 66
     1
 10
0.0
 20
0.0
 30
0.0
 70
    64
 71
    14
 72
    12
  0
VERTEX
  5
12F0
  8
0
 10
210.4972241228485
 20
93.46149010278978
 30
-0.0000000000001519
 70
   192
  0
VERTEX
  5
12F1
  8
0
 10
210.8775888047593
 20
94.07316593247337
 30
0.0000000000000258
 70
   192
  0
VERTEX
  5
12F2
  8
0
 10
182.6247413148834
 20
94.07180356246249
 30
-105.441062413299
 70
   192
  0
VERTEX
  5
12F3
  8
0
 10
182.2953397891609
 20
93.46013019025423
 30
-105.2508653248688
 70
   192
  0
VERTEX
  5
12F4
  8
0
 10
-0.0045357766639638
 20
94.0629970642748
 30
-210.8821248265978
 70
   192
  0
VERTEX
  5
12F5
  8
0
 10
-0.0045062821566475
 20
93.45133957743677
 30
-210.5017306497374
 70
   192
  0
VERTEX
  5
12F6
  8
0
 10
105.2463589203459
 20
93.45641484011327
 30
-182.2998462832621
 70
   192
  0
VERTEX
  5
12F7
  8
0
 10
105.4365265140477
 20
94.06808149837408
 30
-182.6292773038749
 70
   192
  0
VERTEX
  5
12F8
  8
0
 10
-105.4455980673756
 20
94.05791263017551
 30
-182.6292773038748
 70
   192
  0
VERTEX
  5
12F9
  8
0
 10
-105.2553714846592
 20
93.44626431476027
 30
-182.299846283262
 70
   192
  0
VERTEX
  5
12FA
  8
0
 10
-210.8866603580871
 20
94.05282819607622
 30
0.0000000000000258
 70
   192
  0
VERTEX
  5
12FB
  8
0
 10
-210.5062366871616
 20
93.44118905208376
 30
0.0000000000000258
 70
   192
  0
VERTEX
  5
12FC
  8
0
 10
-182.3043523534742
 20
93.4425489646193
 30
-105.2508653248687
 70
   192
  0
VERTEX
  5
12FD
  8
0
 10
-182.6338128682113
 20
94.0541905660871
 30
-105.4410624132989
 70
   192
  0
VERTEX
  5
12FE
  8
0
 10
0.0
 20
0.0
 30
0.0
 70
   128
 71
     1
 72
     2
 73
    -3
  0
VERTEX
  5
12FF
  8
0
 10
0.0
 20
0.0
 30
0.0
 70
   128
 71
     4
 72
    -1
 73
     3
  0
VERTEX
  5
1300
  8
0
 10
0.0
 20
0.0
 30
0.0
 70
   128
 71
     5
 72
     6
 73
    -7
  0
VERTEX
  5
1301
  8
0
 10
0.0
 20
0.0
 30
0.0
 70
   128
 71
     8
 72
    -5
 73
     7
  0
VERTEX
  5
1302
  8
0
 10
0.0
 20
0.0
 30
0.0
 70
   128
 71
     6
 72
     5
 73
    -9
  0
VERTEX
  5
1303
  8
0
 10
0.0
 20
0.0
 30
0.0
 70
   128
 71
    10
 72
    -6
 73
     9
  0
VERTEX
  5
1304
  8
0
 10
0.0
 20
0.0
 30
0.0
 70
   128
 71
    11
 72
    12
 73
   -13
  0
VERTEX
  5
1305
  8
0
 10
0.0
 20
0.0
 30
0.0
 70
   128
 71
    14
 72
   -11
 73
    13
  0
VERTEX
  5
1306
  8
0
 10
0.0
 20
0.0
 30
0.0
 70
   128
 71
     7
 72
     4
 73
    -3
  0
VERTEX
  5
1307
  8
0
 10
0.0
 20
0.0
 30
0.0
 70
   128
 71
     8
 72
    -7
 73
     3
  0
VERTEX
  5
1308
  8
0
 10
0.0
 20
0.0
 30
0.0
 70
   128
 71
    13
 72
    10
 73
    -9
  0
VERTEX
  5
1309
  8
0
 10
0.0
 20
0.0
 30
0.0
 70
   128
 71
    14
 72
   -13
 73
     9
  0
SEQEND
  5
1A76
  8
0
  0
POLYLINE
  5
130A
  8
0
 66
     1
 10
0.0
 20
0.0
 30
0.0
 70
    64
 71
    27
 72
    34
  0
VERTEX
  5
130B
  8
0
 10
-0.0044426520097627
 20
92.13177674320336
 30
-208.70717197074
 70
   192
  0
VERTEX
  5
130C
  8
0
 10
-0.0044380238228439
 20
92.0357973389513
 30
-207.9545966021974
 70
   192
  0
VERTEX
  5
130D
  8
0
 10
103.9728601563904
 20
92.0408111894279
 30
-180.0939634912481
 70
   192
  0
VERTEX
  5
130E
  8
0
 10
147.5738137591908
 20
92.13889305920881
 30
-147.5782565827772
 70
   192
  0
VERTEX
  5
130F
  8
0
 10
180.0895252580454
 20
92.04448158271832
 30
-103.9772983010988
 70
   192
  0
VERTEX
  5
1310
  8
0
 10
207.9501583366037
 20
92.04582503990449
 30
-0.0000000000001501
 70
   192
  0
VERTEX
  5
1311
  8
0
 10
-147.5826990632104
 20
92.12466042719791
 30
-147.5782565827772
 70
   192
  0
VERTEX
  5
1312
  8
0
 10
-103.981736204036
 20
92.0307834884747
 30
-180.0939634912481
 70
   192
  0
VERTEX
  5
1313
  8
0
 10
148.0719048343732
 20
92.42063542320062
 30
-148.0763612431739
 70
   192
  0
VERTEX
  5
1314
  8
0
 10
-0.0044562366449036
 20
92.41349508827633
 30
-209.4115983369543
 70
   192
  0
VERTEX
  5
1315
  8
0
 10
-148.0808173076631
 20
92.40635475335205
 30
-148.0763612431739
 70
   192
  0
VERTEX
  5
1316
  8
0
 10
-208.9540940316665
 20
92.19562287098823
 30
0.0000000000000256
 70
   192
  0
VERTEX
  5
1317
  8
0
 10
148.5040799024822
 20
92.87009334041204
 30
-148.5085579839228
 70
   192
  0
VERTEX
  5
1318
  8
0
 10
-0.0044779087823722
 20
92.8629321646901
 30
-210.0228168293348
 70
   192
  0
VERTEX
  5
1319
  8
0
 10
209.827529172766
 20
92.70617394608632
 30
0.0
 70
   192
  0
VERTEX
  5
131A
  8
0
 10
-148.513035720047
 20
92.85577098896816
 30
-148.5085579839228
 70
   192
  0
VERTEX
  5
131B
  8
0
 10
-0.0045062821566475
 20
93.45133957743677
 30
-210.5017306497374
 70
   192
  0
VERTEX
  5
131C
  8
0
 10
105.2463589203459
 20
93.45641484011327
 30
-182.2998462832621
 70
   192
  0
VERTEX
  5
131D
  8
0
 10
-182.3043523534742
 20
93.4425489646193
 30
-105.2508653248687
 70
   192
  0
VERTEX
  5
131E
  8
0
 10
-210.5062366871616
 20
93.44118905208376
 30
0.0000000000000258
 70
   192
  0
VERTEX
  5
131F
  8
0
 10
-105.2553714846592
 20
93.44626431476027
 30
-182.299846283262
 70
   192
  0
VERTEX
  5
1320
  8
0
 10
208.9452015986635
 20
92.21577423694929
 30
0.0
 70
   192
  0
VERTEX
  5
1321
  8
0
 10
-209.8364688965037
 20
92.68593748507037
 30
0.0000000000000257
 70
   192
  0
VERTEX
  5
1322
  8
0
 10
210.4972241228485
 20
93.46149010278978
 30
-0.0000000000001519
 70
   192
  0
VERTEX
  5
1323
  8
0
 10
182.2953397891609
 20
93.46013019025423
 30
-105.2508653248688
 70
   192
  0
VERTEX
  5
1324
  8
0
 10
-180.098401305691
 20
92.02711309518428
 30
-103.9772983010987
 70
   192
  0
VERTEX
  5
1325
  8
0
 10
-207.9590343841469
 20
92.0257696379981
 30
0.0000000000000255
 70
   192
  0
VERTEX
  5
1326
  8
0
 10
0.0
 20
0.0
 30
0.0
 70
   128
 71
     1
 72
     2
 73
     3
  0
VERTEX
  5
1327
  8
0
 10
0.0
 20
0.0
 30
0.0
 70
   128
 71
     4
 72
     1
 73
     3
  0
VERTEX
  5
1328
  8
0
 10
0.0
 20
0.0
 30
0.0
 70
   128
 71
     5
 72
     6
 73
     4
  0
VERTEX
  5
1329
  8
0
 10
0.0
 20
0.0
 30
0.0
 70
   128
 71
     2
 72
     1
 73
     7
  0
VERTEX
  5
132A
  8
0
 10
0.0
 20
0.0
 30
0.0
 70
   128
 71
     8
 72
     2
 73
     7
  0
VERTEX
  5
132B
  8
0
 10
0.0
 20
0.0
 30
0.0
 70
   128
 71
     4
 72
     9
 73
   -10
  0
VERTEX
  5
132C
  8
0
 10
0.0
 20
0.0
 30
0.0
 70
   128
 71
     1
 72
    -4
 73
    10
  0
VERTEX
  5
132D
  8
0
 10
0.0
 20
0.0
 30
0.0
 70
   128
 71
     7
 72
    11
 73
    12
  0
VERTEX
  5
132E
  8
0
 10
0.0
 20
0.0
 30
0.0
 70
   128
 71
     1
 72
    10
 73
   -11
  0
VERTEX
  5
132F
  8
0
 10
0.0
 20
0.0
 30
0.0
 70
   128
 71
     7
 72
    -1
 73
    11
  0
VERTEX
  5
1330
  8
0
 10
0.0
 20
0.0
 30
0.0
 70
   128
 71
     9
 72
    13
 73
   -14
  0
VERTEX
  5
1331
  8
0
 10
0.0
 20
0.0
 30
0.0
 70
   128
 71
    10
 72
    -9
 73
    14
  0
VERTEX
  5
1332
  8
0
 10
0.0
 20
0.0
 30
0.0
 70
   128
 71
    13
 72
     9
 73
    15
  0
VERTEX
  5
1333
  8
0
 10
0.0
 20
0.0
 30
0.0
 70
   128
 71
    10
 72
    14
 73
   -16
  0
VERTEX
  5
1334
  8
0
 10
0.0
 20
0.0
 30
0.0
 70
   128
 71
    11
 72
   -10
 73
    16
  0
VERTEX
  5
1335
  8
0
 10
0.0
 20
0.0
 30
0.0
 70
   128
 71
    17
 72
    14
 73
    13
  0
VERTEX
  5
1336
  8
0
 10
0.0
 20
0.0
 30
0.0
 70
   128
 71
    18
 72
    17
 73
    13
  0
VERTEX
  5
1337
  8
0
 10
0.0
 20
0.0
 30
0.0
 70
   128
 71
    19
 72
    20
 73
    16
  0
VERTEX
  5
1338
  8
0
 10
0.0
 20
0.0
 30
0.0
 70
   128
 71
    14
 72
    17
 73
    21
  0
VERTEX
  5
1339
  8
0
 10
0.0
 20
0.0
 30
0.0
 70
   128
 71
    16
 72
    14
 73
    21
  0
VERTEX
  5
133A
  8
0
 10
0.0
 20
0.0
 30
0.0
 70
   128
 71
    15
 72
     9
 73
     4
  0
VERTEX
  5
133B
  8
0
 10
0.0
 20
0.0
 30
0.0
 70
   128
 71
    22
 72
    15
 73
     4
  0
VERTEX
  5
133C
  8
0
 10
0.0
 20
0.0
 30
0.0
 70
   128
 71
    11
 72
    16
 73
    23
  0
VERTEX
  5
133D
  8
0
 10
0.0
 20
0.0
 30
0.0
 70
   128
 71
    12
 72
    11
 73
    23
  0
VERTEX
  5
133E
  8
0
 10
0.0
 20
0.0
 30
0.0
 70
   128
 71
    24
 72
    25
 73
    13
  0
VERTEX
  5
133F
  8
0
 10
0.0
 20
0.0
 30
0.0
 70
   128
 71
    15
 72
    24
 73
    13
  0
VERTEX
  5
1340
  8
0
 10
0.0
 20
0.0
 30
0.0
 70
   128
 71
    23
 72
    16
 73
    20
  0
VERTEX
  5
1341
  8
0
 10
0.0
 20
0.0
 30
0.0
 70
   128
 71
    22
 72
     4
 73
     6
  0
VERTEX
  5
1342
  8
0
 10
0.0
 20
0.0
 30
0.0
 70
   128
 71
    26
 72
     7
 73
    12
  0
VERTEX
  5
1343
  8
0
 10
0.0
 20
0.0
 30
0.0
 70
   128
 71
    27
 72
    26
 73
    12
  0
VERTEX
  5
1344
  8
0
 10
0.0
 20
0.0
 30
0.0
 70
   128
 71
     5
 72
     4
 73
     3
  0
VERTEX
  5
1345
  8
0
 10
0.0
 20
0.0
 30
0.0
 70
   128
 71
     8
 72
     7
 73
    26
  0
VERTEX
  5
1346
  8
0
 10
0.0
 20
0.0
 30
0.0
 70
   128
 71
    13
 72
    25
 73
    18
  0
VERTEX
  5
1347
  8
0
 10
0.0
 20
0.0
 30
0.0
 70
   128
 71
    16
 72
    21
 73
    19
  0
SEQEND
  5
1A77
  8
0
  0
POLYLINE
  5
1348
  8
0
 66
     1
 10
0.0
 20
0.0
 30
0.0
 70
    64
 71
    14
 72
    12
  0
VERTEX
  5
1349
  8
0
 10
202.5064842225231
 20
92.04527135486143
 30
-0.0000000000001461
 70
   192
  0
VERTEX
  5
134A
  8
0
 10
207.950158336706
 20
92.04582503990451
 30
0.0000000000000255
 70
   192
  0
VERTEX
  5
134B
  8
0
 10
180.0895252580454
 20
92.04448158271832
 30
-103.9772983010988
 70
   192
  0
VERTEX
  5
134C
  8
0
 10
175.3751651872091
 20
92.04396306565545
 30
-101.2554612338735
 70
   192
  0
VERTEX
  5
134D
  8
0
 10
-0.0044380238228439
 20
92.0357973389513
 30
-207.9545966021974
 70
   192
  0
VERTEX
  5
134E
  8
0
 10
-0.0044380097815901
 20
92.03550615128601
 30
-202.5109224677468
 70
   192
  0
VERTEX
  5
134F
  8
0
 10
101.2510231063707
 20
92.04038875307373
 30
-175.3796034008896
 70
   192
  0
VERTEX
  5
1350
  8
0
 10
103.9728601563904
 20
92.0408111894279
 30
-180.0939634912481
 70
   192
  0
VERTEX
  5
1351
  8
0
 10
-103.981736204036
 20
92.0307834884747
 30
-180.0939634912481
 70
   192
  0
VERTEX
  5
1352
  8
0
 10
-101.2598991259339
 20
92.0306235494983
 30
-175.3796034008895
 70
   192
  0
VERTEX
  5
1353
  8
0
 10
-207.9590343842492
 20
92.02576963799811
 30
0.0000000000000255
 70
   192
  0
VERTEX
  5
1354
  8
0
 10
-202.5153602420862
 20
92.0257409477106
 30
0.0000000000000248
 70
   192
  0
VERTEX
  5
1355
  8
0
 10
-175.3840412067722
 20
92.02704923691658
 30
-101.2554612338733
 70
   192
  0
VERTEX
  5
1356
  8
0
 10
-180.098401305691
 20
92.02711309518428
 30
-103.9772983010987
 70
   192
  0
VERTEX
  5
1357
  8
0
 10
0.0
 20
0.0
 30
0.0
 70
   128
 71
     1
 72
     2
 73
    -3
  0
VERTEX
  5
1358
  8
0
 10
0.0
 20
0.0
 30
0.0
 70
   128
 71
     4
 72
    -1
 73
     3
  0
VERTEX
  5
1359
  8
0
 10
0.0
 20
0.0
 30
0.0
 70
   128
 71
     5
 72
     6
 73
    -7
  0
VERTEX
  5
135A
  8
0
 10
0.0
 20
0.0
 30
0.0
 70
   128
 71
     8
 72
    -5
 73
     7
  0
VERTEX
  5
135B
  8
0
 10
0.0
 20
0.0
 30
0.0
 70
   128
 71
     6
 72
     5
 73
    -9
  0
VERTEX
  5
135C
  8
0
 10
0.0
 20
0.0
 30
0.0
 70
   128
 71
    10
 72
    -6
 73
     9
  0
VERTEX
  5
135D
  8
0
 10
0.0
 20
0.0
 30
0.0
 70
   128
 71
    11
 72
    12
 73
   -13
  0
VERTEX
  5
135E
  8
0
 10
0.0
 20
0.0
 30
0.0
 70
   128
 71
    14
 72
   -11
 73
    13
  0
VERTEX
  5
135F
  8
0
 10
0.0
 20
0.0
 30
0.0
 70
   128
 71
     7
 72
     4
 73
    -3
  0
VERTEX
  5
1360
  8
0
 10
0.0
 20
0.0
 30
0.0
 70
   128
 71
     8
 72
    -7
 73
     3
  0
VERTEX
  5
1361
  8
0
 10
0.0
 20
0.0
 30
0.0
 70
   128
 71
    13
 72
    10
 73
    -9
  0
VERTEX
  5
1362
  8
0
 10
0.0
 20
0.0
 30
0.0
 70
   128
 71
    14
 72
   -13
 73
     9
  0
SEQEND
  5
1A78
  8
0
  0
POLYLINE
  5
1363
  8
0
 66
     1
 10
0.0
 20
0.0
 30
0.0
 70
    64
 71
    27
 72
    34
  0
VERTEX
  5
1364
  8
0
 10
-0.0044778848598944
 20
92.86243605986355
 30
-200.4425965865932
 70
   192
  0
VERTEX
  5
1365
  8
0
 10
-0.0045062562696636
 20
93.4508027329045
 30
-199.9636202958919
 70
   192
  0
VERTEX
  5
1366
  8
0
 10
99.977303775436
 20
93.45562391843877
 30
-173.173575008948
 70
   192
  0
VERTEX
  5
1367
  8
0
 10
141.7298412353774
 20
92.86927057755067
 30
-141.7343192850196
 70
   192
  0
VERTEX
  5
1368
  8
0
 10
173.1690685513442
 20
93.45915327120258
 30
-99.98181014794606
 70
   192
  0
VERTEX
  5
1369
  8
0
 10
199.9591138071417
 20
93.46044510397304
 30
-0.0000000000001443
 70
   192
  0
VERTEX
  5
136A
  8
0
 10
-141.7387970050971
 20
92.85560154217643
 30
-141.7343192850196
 70
   192
  0
VERTEX
  5
136B
  8
0
 10
-99.9863162879753
 20
93.44598154737024
 30
-173.1735750089479
 70
   192
  0
VERTEX
  5
136C
  8
0
 10
142.1620960155113
 20
92.41991106401112
 30
-142.1665523962537
 70
   192
  0
VERTEX
  5
136D
  8
0
 10
-0.0044562154575152
 20
92.41305570377253
 30
-201.0538665146072
 70
   192
  0
VERTEX
  5
136E
  8
0
 10
-142.1710084464263
 20
92.40620034353395
 30
-142.1665523962537
 70
   192
  0
VERTEX
  5
136F
  8
0
 10
-200.6379023307026
 20
92.68590219814794
 30
0.0000000000000246
 70
   192
  0
VERTEX
  5
1370
  8
0
 10
142.6602399264245
 20
92.13828640610136
 30
-142.6646827264703
 70
   192
  0
VERTEX
  5
1371
  8
0
 10
-0.0044426341817611
 20
92.13140702570612
 30
-201.7583291834288
 70
   192
  0
VERTEX
  5
1372
  8
0
 10
201.5113964662794
 20
92.21502162857786
 30
0.0
 70
   192
  0
VERTEX
  5
1373
  8
0
 10
-142.669125194788
 20
92.12452764531089
 30
-142.6646827264703
 70
   192
  0
VERTEX
  5
1374
  8
0
 10
-0.0044380097815901
 20
92.03550615128601
 30
-202.5109224677468
 70
   192
  0
VERTEX
  5
1375
  8
0
 10
101.2510231063707
 20
92.04038875307373
 30
-175.3796034008896
 70
   192
  0
VERTEX
  5
1376
  8
0
 10
-175.3840412067722
 20
92.02704923691658
 30
-101.2554612338733
 70
   192
  0
VERTEX
  5
1377
  8
0
 10
-202.5153602420862
 20
92.0257409477106
 30
0.0000000000000248
 70
   192
  0
VERTEX
  5
1378
  8
0
 10
-101.2598991259339
 20
92.0306235494983
 30
-175.3796034008895
 70
   192
  0
VERTEX
  5
1379
  8
0
 10
200.6289626530588
 20
92.7052515378621
 30
0.0
 70
   192
  0
VERTEX
  5
137A
  8
0
 10
-201.5202888614804
 20
92.19558718811916
 30
0.0000000000000247
 70
   192
  0
VERTEX
  5
137B
  8
0
 10
202.5064842225231
 20
92.04527135486137
 30
0.0000000000000005
 70
   192
  0
VERTEX
  5
137C
  8
0
 10
175.3751651872091
 20
92.04396306565545
 30
-101.2554612338735
 70
   192
  0
VERTEX
  5
137D
  8
0
 10
-173.1780810638835
 20
93.44245219460643
 30
-99.98181014794592
 70
   192
  0
VERTEX
  5
137E
  8
0
 10
-199.9681263196809
 20
93.44116036183594
 30
0.0000000000000245
 70
   192
  0
VERTEX
  5
137F
  8
0
 10
0.0
 20
0.0
 30
0.0
 70
   128
 71
     1
 72
     2
 73
     3
  0
VERTEX
  5
1380
  8
0
 10
0.0
 20
0.0
 30
0.0
 70
   128
 71
     4
 72
     1
 73
     3
  0
VERTEX
  5
1381
  8
0
 10
0.0
 20
0.0
 30
0.0
 70
   128
 71
     5
 72
     6
 73
     4
  0
VERTEX
  5
1382
  8
0
 10
0.0
 20
0.0
 30
0.0
 70
   128
 71
     2
 72
     1
 73
     7
  0
VERTEX
  5
1383
  8
0
 10
0.0
 20
0.0
 30
0.0
 70
   128
 71
     8
 72
     2
 73
     7
  0
VERTEX
  5
1384
  8
0
 10
0.0
 20
0.0
 30
0.0
 70
   128
 71
     4
 72
     9
 73
   -10
  0
VERTEX
  5
1385
  8
0
 10
0.0
 20
0.0
 30
0.0
 70
   128
 71
     1
 72
    -4
 73
    10
  0
VERTEX
  5
1386
  8
0
 10
0.0
 20
0.0
 30
0.0
 70
   128
 71
     7
 72
    11
 73
    12
  0
VERTEX
  5
1387
  8
0
 10
0.0
 20
0.0
 30
0.0
 70
   128
 71
     1
 72
    10
 73
   -11
  0
VERTEX
  5
1388
  8
0
 10
0.0
 20
0.0
 30
0.0
 70
   128
 71
     7
 72
    -1
 73
    11
  0
VERTEX
  5
1389
  8
0
 10
0.0
 20
0.0
 30
0.0
 70
   128
 71
     9
 72
    13
 73
   -14
  0
VERTEX
  5
138A
  8
0
 10
0.0
 20
0.0
 30
0.0
 70
   128
 71
    10
 72
    -9
 73
    14
  0
VERTEX
  5
138B
  8
0
 10
0.0
 20
0.0
 30
0.0
 70
   128
 71
    13
 72
     9
 73
    15
  0
VERTEX
  5
138C
  8
0
 10
0.0
 20
0.0
 30
0.0
 70
   128
 71
    10
 72
    14
 73
   -16
  0
VERTEX
  5
138D
  8
0
 10
0.0
 20
0.0
 30
0.0
 70
   128
 71
    11
 72
   -10
 73
    16
  0
VERTEX
  5
138E
  8
0
 10
0.0
 20
0.0
 30
0.0
 70
   128
 71
    17
 72
    14
 73
    13
  0
VERTEX
  5
138F
  8
0
 10
0.0
 20
0.0
 30
0.0
 70
   128
 71
    18
 72
    17
 73
    13
  0
VERTEX
  5
1390
  8
0
 10
0.0
 20
0.0
 30
0.0
 70
   128
 71
    19
 72
    20
 73
    16
  0
VERTEX
  5
1391
  8
0
 10
0.0
 20
0.0
 30
0.0
 70
   128
 71
    14
 72
    17
 73
    21
  0
VERTEX
  5
1392
  8
0
 10
0.0
 20
0.0
 30
0.0
 70
   128
 71
    16
 72
    14
 73
    21
  0
VERTEX
  5
1393
  8
0
 10
0.0
 20
0.0
 30
0.0
 70
   128
 71
     9
 72
     4
 73
    22
  0
VERTEX
  5
1394
  8
0
 10
0.0
 20
0.0
 30
0.0
 70
   128
 71
    15
 72
     9
 73
    22
  0
VERTEX
  5
1395
  8
0
 10
0.0
 20
0.0
 30
0.0
 70
   128
 71
    11
 72
    16
 73
    23
  0
VERTEX
  5
1396
  8
0
 10
0.0
 20
0.0
 30
0.0
 70
   128
 71
    12
 72
    11
 73
    23
  0
VERTEX
  5
1397
  8
0
 10
0.0
 20
0.0
 30
0.0
 70
   128
 71
    24
 72
    25
 73
    13
  0
VERTEX
  5
1398
  8
0
 10
0.0
 20
0.0
 30
0.0
 70
   128
 71
    15
 72
    24
 73
    13
  0
VERTEX
  5
1399
  8
0
 10
0.0
 20
0.0
 30
0.0
 70
   128
 71
    23
 72
    16
 73
    20
  0
VERTEX
  5
139A
  8
0
 10
0.0
 20
0.0
 30
0.0
 70
   128
 71
    22
 72
     4
 73
     6
  0
VERTEX
  5
139B
  8
0
 10
0.0
 20
0.0
 30
0.0
 70
   128
 71
    26
 72
     7
 73
    12
  0
VERTEX
  5
139C
  8
0
 10
0.0
 20
0.0
 30
0.0
 70
   128
 71
    27
 72
    26
 73
    12
  0
VERTEX
  5
139D
  8
0
 10
0.0
 20
0.0
 30
0.0
 70
   128
 71
     5
 72
     4
 73
     3
  0
VERTEX
  5
139E
  8
0
 10
0.0
 20
0.0
 30
0.0
 70
   128
 71
     8
 72
     7
 73
    26
  0
VERTEX
  5
139F
  8
0
 10
0.0
 20
0.0
 30
0.0
 70
   128
 71
    13
 72
    25
 73
    18
  0
VERTEX
  5
13A0
  8
0
 10
0.0
 20
0.0
 30
0.0
 70
   128
 71
    16
 72
    21
 73
    19
  0
SEQEND
  5
1A79
  8
0
  0
POLYLINE
  5
13A1
  8
0
 66
     1
 10
0.0
 20
0.0
 30
0.0
 70
    64
 71
    14
 72
    12
  0
VERTEX
  5
13A2
  8
0
 10
173.1690685513443
 20
93.45915327120258
 30
99.98181014794594
 70
   192
  0
VERTEX
  5
13A3
  8
0
 10
199.9591138071417
 20
93.46044510397304
 30
0.0
 70
   192
  0
VERTEX
  5
13A4
  8
0
 10
199.5777795332787
 20
94.07341647924041
 30
0.0
 70
   192
  0
VERTEX
  5
13A5
  8
0
 10
172.8388194227235
 20
94.07212710982765
 30
99.79115779016796
 70
   192
  0
VERTEX
  5
13A6
  8
0
 10
99.78662185912933
 20
94.06860448708228
 30
172.8433554386937
 70
   192
  0
VERTEX
  5
13A7
  8
0
 10
-0.0045358150199909
 20
94.06379249492417
 30
199.5823155803359
 70
   192
  0
VERTEX
  5
13A8
  8
0
 10
-0.0045062562695304
 20
93.4508027329045
 30
199.9636202958919
 70
   192
  0
VERTEX
  5
13A9
  8
0
 10
99.97730377543611
 20
93.45562391843877
 30
173.1735750089479
 70
   192
  0
VERTEX
  5
13AA
  8
0
 10
-99.98631628797517
 20
93.44598154737024
 30
173.173575008948
 70
   192
  0
VERTEX
  5
13AB
  8
0
 10
-99.79569348916932
 20
94.05898050276606
 30
172.8433554386937
 70
   192
  0
VERTEX
  5
13AC
  8
0
 10
-172.8478910527635
 20
94.0554578800207
 30
99.79115779016806
 70
   192
  0
VERTEX
  5
13AD
  8
0
 10
-199.5868511633187
 20
94.05416851060795
 30
0.0000000000001108
 70
   192
  0
VERTEX
  5
13AE
  8
0
 10
-199.9681263196809
 20
93.44116036183595
 30
0.0000000000000245
 70
   192
  0
VERTEX
  5
13AF
  8
0
 10
-173.1780810638834
 20
93.44245219460643
 30
99.98181014794604
 70
   192
  0
VERTEX
  5
13B0
  8
0
 10
0.0
 20
0.0
 30
0.0
 70
   128
 71
     1
 72
     2
 73
    -3
  0
VERTEX
  5
13B1
  8
0
 10
0.0
 20
0.0
 30
0.0
 70
   128
 71
    -1
 72
     3
 73
     4
  0
VERTEX
  5
13B2
  8
0
 10
0.0
 20
0.0
 30
0.0
 70
   128
 71
     5
 72
     6
 73
    -7
  0
VERTEX
  5
13B3
  8
0
 10
0.0
 20
0.0
 30
0.0
 70
   128
 71
    -5
 72
     7
 73
     8
  0
VERTEX
  5
13B4
  8
0
 10
0.0
 20
0.0
 30
0.0
 70
   128
 71
     9
 72
     7
 73
    -6
  0
VERTEX
  5
13B5
  8
0
 10
0.0
 20
0.0
 30
0.0
 70
   128
 71
    -9
 72
     6
 73
    10
  0
VERTEX
  5
13B6
  8
0
 10
0.0
 20
0.0
 30
0.0
 70
   128
 71
    11
 72
    12
 73
   -13
  0
VERTEX
  5
13B7
  8
0
 10
0.0
 20
0.0
 30
0.0
 70
   128
 71
   -11
 72
    13
 73
    14
  0
VERTEX
  5
13B8
  8
0
 10
0.0
 20
0.0
 30
0.0
 70
   128
 71
     1
 72
     4
 73
    -5
  0
VERTEX
  5
13B9
  8
0
 10
0.0
 20
0.0
 30
0.0
 70
   128
 71
    -1
 72
     5
 73
     8
  0
VERTEX
  5
13BA
  8
0
 10
0.0
 20
0.0
 30
0.0
 70
   128
 71
     9
 72
    10
 73
   -11
  0
VERTEX
  5
13BB
  8
0
 10
0.0
 20
0.0
 30
0.0
 70
   128
 71
    -9
 72
    11
 73
    14
  0
SEQEND
  5
1A7A
  8
0
  0
POLYLINE
  5
13BC
  8
0
 66
     1
 10
0.0
 20
0.0
 30
0.0
 70
    64
 71
    27
 72
    34
  0
VERTEX
  5
13BD
  8
0
 10
-99.79569348916932
 20
94.05898050276606
 30
172.8433554386937
 70
   192
  0
VERTEX
  5
13BE
  8
0
 10
-0.0045358150199909
 20
94.06379249492417
 30
199.5823155803359
 70
   192
  0
VERTEX
  5
13BF
  8
0
 10
-0.0045547344288853
 20
94.45614344886154
 30
199.26291177942
 70
   192
  0
VERTEX
  5
13C0
  8
0
 10
-140.904710728821
 20
94.44934915504308
 30
140.9001561582047
 70
   192
  0
VERTEX
  5
13C1
  8
0
 10
-199.5868511633188
 20
94.05416851060798
 30
0.0000000000000244
 70
   192
  0
VERTEX
  5
13C2
  8
0
 10
-172.8478910527635
 20
94.0554578800207
 30
99.79115779016806
 70
   192
  0
VERTEX
  5
13C3
  8
0
 10
140.8956012599632
 20
94.46293774268
 30
140.9001561582047
 70
   192
  0
VERTEX
  5
13C4
  8
0
 10
99.78662185912933
 20
94.06860448708228
 30
172.8433554386937
 70
   192
  0
VERTEX
  5
13C5
  8
0
 10
-0.0045691846507983
 20
94.75581234398194
 30
198.8552886537983
 70
   192
  0
VERTEX
  5
13C6
  8
0
 10
-140.6164921030824
 20
94.74903194894304
 30
140.6119230819091
 70
   192
  0
VERTEX
  5
13C7
  8
0
 10
199.131093053199
 20
94.57701569386344
 30
0.0
 70
   192
  0
VERTEX
  5
13C8
  8
0
 10
140.6073537337809
 20
94.76259273902085
 30
140.6119230819091
 70
   192
  0
VERTEX
  5
13C9
  8
0
 10
-0.0045782413628565
 20
94.9436305596616
 30
198.3855202244312
 70
   192
  0
VERTEX
  5
13CA
  8
0
 10
-140.2843247181879
 20
94.93686618237886
 30
140.2797466399163
 70
   192
  0
VERTEX
  5
13CB
  8
0
 10
-198.5517970021802
 20
94.88477761361358
 30
0.0000000000000243
 70
   192
  0
VERTEX
  5
13CC
  8
0
 10
140.2751682354622
 20
94.95039493694433
 30
140.2797466399163
 70
   192
  0
VERTEX
  5
13CD
  8
0
 10
-0.0045813252433891
 20
95.00758411586709
 30
197.8836556990138
 70
   192
  0
VERTEX
  5
13CE
  8
0
 10
-98.9464090597191
 20
95.0028130789309
 30
171.3722728290793
 70
   192
  0
VERTEX
  5
13CF
  8
0
 10
197.879074143708
 20
95.01712618973949
 30
0.0
 70
   192
  0
VERTEX
  5
13D0
  8
0
 10
171.367691304596
 20
95.01584779424535
 30
98.9418278495069
 70
   192
  0
VERTEX
  5
13D1
  8
0
 10
98.9372464092323
 20
95.01235515280328
 30
171.3722728290793
 70
   192
  0
VERTEX
  5
13D2
  8
0
 10
-199.1402132531126
 20
94.55781080184722
 30
0.0000000000000244
 70
   192
  0
VERTEX
  5
13D3
  8
0
 10
198.5426452718332
 20
94.9039257565114
 30
0.0
 70
   192
  0
VERTEX
  5
13D4
  8
0
 10
-171.3768539550828
 20
94.99932043748883
 30
98.94182784950699
 70
   192
  0
VERTEX
  5
13D5
  8
0
 10
-197.8882367941949
 20
94.99804204199472
 30
0.0000000000001098
 70
   192
  0
VERTEX
  5
13D6
  8
0
 10
172.8388194227235
 20
94.07212710982765
 30
99.79115779016796
 70
   192
  0
VERTEX
  5
13D7
  8
0
 10
199.5777795332786
 20
94.0734164792404
 30
0.0
 70
   192
  0
VERTEX
  5
13D8
  8
0
 10
0.0
 20
0.0
 30
0.0
 70
   128
 71
     1
 72
     2
 73
     3
  0
VERTEX
  5
13D9
  8
0
 10
0.0
 20
0.0
 30
0.0
 70
   128
 71
     1
 72
     3
 73
     4
  0
VERTEX
  5
13DA
  8
0
 10
0.0
 20
0.0
 30
0.0
 70
   128
 71
     4
 72
     5
 73
     6
  0
VERTEX
  5
13DB
  8
0
 10
0.0
 20
0.0
 30
0.0
 70
   128
 71
     7
 72
     3
 73
     2
  0
VERTEX
  5
13DC
  8
0
 10
0.0
 20
0.0
 30
0.0
 70
   128
 71
     7
 72
     2
 73
     8
  0
VERTEX
  5
13DD
  8
0
 10
0.0
 20
0.0
 30
0.0
 70
   128
 71
     9
 72
    10
 73
    -4
  0
VERTEX
  5
13DE
  8
0
 10
0.0
 20
0.0
 30
0.0
 70
   128
 71
    -9
 72
     4
 73
     3
  0
VERTEX
  5
13DF
  8
0
 10
0.0
 20
0.0
 30
0.0
 70
   128
 71
    11
 72
    12
 73
     7
  0
VERTEX
  5
13E0
  8
0
 10
0.0
 20
0.0
 30
0.0
 70
   128
 71
    12
 72
     9
 73
    -3
  0
VERTEX
  5
13E1
  8
0
 10
0.0
 20
0.0
 30
0.0
 70
   128
 71
   -12
 72
     3
 73
     7
  0
VERTEX
  5
13E2
  8
0
 10
0.0
 20
0.0
 30
0.0
 70
   128
 71
    13
 72
    14
 73
   -10
  0
VERTEX
  5
13E3
  8
0
 10
0.0
 20
0.0
 30
0.0
 70
   128
 71
   -13
 72
    10
 73
     9
  0
VERTEX
  5
13E4
  8
0
 10
0.0
 20
0.0
 30
0.0
 70
   128
 71
    15
 72
    10
 73
    14
  0
VERTEX
  5
13E5
  8
0
 10
0.0
 20
0.0
 30
0.0
 70
   128
 71
    16
 72
    13
 73
    -9
  0
VERTEX
  5
13E6
  8
0
 10
0.0
 20
0.0
 30
0.0
 70
   128
 71
   -16
 72
     9
 73
    12
  0
VERTEX
  5
13E7
  8
0
 10
0.0
 20
0.0
 30
0.0
 70
   128
 71
    14
 72
    13
 73
    17
  0
VERTEX
  5
13E8
  8
0
 10
0.0
 20
0.0
 30
0.0
 70
   128
 71
    14
 72
    17
 73
    18
  0
VERTEX
  5
13E9
  8
0
 10
0.0
 20
0.0
 30
0.0
 70
   128
 71
    16
 72
    19
 73
    20
  0
VERTEX
  5
13EA
  8
0
 10
0.0
 20
0.0
 30
0.0
 70
   128
 71
    21
 72
    17
 73
    13
  0
VERTEX
  5
13EB
  8
0
 10
0.0
 20
0.0
 30
0.0
 70
   128
 71
    21
 72
    13
 73
    16
  0
VERTEX
  5
13EC
  8
0
 10
0.0
 20
0.0
 30
0.0
 70
   128
 71
     4
 72
    10
 73
    15
  0
VERTEX
  5
13ED
  8
0
 10
0.0
 20
0.0
 30
0.0
 70
   128
 71
     4
 72
    15
 73
    22
  0
VERTEX
  5
13EE
  8
0
 10
0.0
 20
0.0
 30
0.0
 70
   128
 71
    23
 72
    16
 73
    12
  0
VERTEX
  5
13EF
  8
0
 10
0.0
 20
0.0
 30
0.0
 70
   128
 71
    23
 72
    12
 73
    11
  0
VERTEX
  5
13F0
  8
0
 10
0.0
 20
0.0
 30
0.0
 70
   128
 71
    14
 72
    24
 73
    25
  0
VERTEX
  5
13F1
  8
0
 10
0.0
 20
0.0
 30
0.0
 70
   128
 71
    14
 72
    25
 73
    15
  0
VERTEX
  5
13F2
  8
0
 10
0.0
 20
0.0
 30
0.0
 70
   128
 71
    19
 72
    16
 73
    23
  0
VERTEX
  5
13F3
  8
0
 10
0.0
 20
0.0
 30
0.0
 70
   128
 71
     4
 72
    22
 73
     5
  0
VERTEX
  5
13F4
  8
0
 10
0.0
 20
0.0
 30
0.0
 70
   128
 71
    11
 72
     7
 73
    26
  0
VERTEX
  5
13F5
  8
0
 10
0.0
 20
0.0
 30
0.0
 70
   128
 71
    11
 72
    26
 73
    27
  0
VERTEX
  5
13F6
  8
0
 10
0.0
 20
0.0
 30
0.0
 70
   128
 71
     1
 72
     4
 73
     6
  0
VERTEX
  5
13F7
  8
0
 10
0.0
 20
0.0
 30
0.0
 70
   128
 71
    26
 72
     7
 73
     8
  0
VERTEX
  5
13F8
  8
0
 10
0.0
 20
0.0
 30
0.0
 70
   128
 71
    18
 72
    24
 73
    14
  0
VERTEX
  5
13F9
  8
0
 10
0.0
 20
0.0
 30
0.0
 70
   128
 71
    20
 72
    21
 73
    16
  0
SEQEND
  5
1A7B
  8
0
  0
POLYLINE
  5
13FA
  8
0
 66
     1
 10
0.0
 20
0.0
 30
0.0
 70
    64
 71
    20
 72
    18
  0
VERTEX
  5
13FB
  8
0
 10
-22.50597065086991
 20
-61.4980706424162
 30
0.0000000000000028
 70
   192
  0
VERTEX
  5
13FC
  8
0
 10
22.51190149720253
 20
-61.49589985241035
 30
-0.0000000000000025
 70
   192
  0
VERTEX
  5
13FD
  8
0
 10
22.51513227642294
 20
-94.99587109619866
 30
-0.0000000000000025
 70
   192
  0
VERTEX
  5
13FE
  8
0
 10
-22.50597065086991
 20
-94.99804204199471
 30
0.0000000000000028
 70
   192
  0
VERTEX
  5
13FF
  8
0
 10
0.0045808127765113
 20
-94.99695656909668
 30
-22.51055148981752
 70
   192
  0
VERTEX
  5
1400
  8
0
 10
0.0029654231663083
 20
-61.49698524741327
 30
-22.50893610020543
 70
   192
  0
VERTEX
  5
1401
  8
0
 10
-15.91278277541664
 20
-94.99772411434367
 30
-15.91736360669891
 70
   192
  0
VERTEX
  5
1402
  8
0
 10
-15.91325591207921
 20
-61.49775273758011
 30
-15.91622135374994
 70
   192
  0
VERTEX
  5
1403
  8
0
 10
15.92194440096966
 20
-94.9961890238497
 30
-15.91736360669891
 70
   192
  0
VERTEX
  5
1404
  8
0
 10
15.91918675841182
 20
-61.49621775724643
 30
-15.91622135374994
 70
   192
  0
VERTEX
  5
1405
  8
0
 10
22.51433409494174
 20
-86.71952200418896
 30
0.0
 70
   192
  0
VERTEX
  5
1406
  8
0
 10
22.25089360071074
 20
-86.71952200418895
 30
-3.433769126084329
 70
   192
  0
VERTEX
  5
1407
  8
0
 10
21.46057211801774
 20
-86.71952200418896
 30
-6.80663433121891
 70
   192
  0
VERTEX
  5
1408
  8
0
 10
20.17115867989737
 20
-86.71952200418896
 30
-10.0
 70
   192
  0
VERTEX
  5
1409
  8
0
 10
20.1704387200805
 20
-79.66413916793778
 30
-10.0
 70
   192
  0
VERTEX
  5
140A
  8
0
 10
20.16971875885236
 20
-72.60875633168673
 30
-9.999999999999998
 70
   192
  0
VERTEX
  5
140B
  8
0
 10
20.16899879621288
 20
-65.55337349543584
 30
-10.0
 70
   192
  0
VERTEX
  5
140C
  8
0
 10
21.45847531203347
 20
-65.54325105270173
 30
-6.806648161878442
 70
   192
  0
VERTEX
  5
140D
  8
0
 10
22.24883710127033
 20
-65.5370466807317
 30
-3.433779095450292
 70
   192
  0
VERTEX
  5
140E
  8
0
 10
22.51229103101594
 20
-65.5349785567417
 30
0.0
 70
   192
  0
VERTEX
  5
140F
  8
0
 10
0.0
 20
0.0
 30
0.0
 70
   128
 71
     8
 72
     1
 73
    -4
  0
VERTEX
  5
1410
  8
0
 10
0.0
 20
0.0
 30
0.0
 70
   128
 71
     7
 72
    -8
 73
     4
  0
VERTEX
  5
1411
  8
0
 10
0.0
 20
0.0
 30
0.0
 70
   128
 71
     6
 72
     8
 73
    -7
  0
VERTEX
  5
1412
  8
0
 10
0.0
 20
0.0
 30
0.0
 70
   128
 71
     5
 72
    -6
 73
     7
  0
VERTEX
  5
1413
  8
0
 10
0.0
 20
0.0
 30
0.0
 70
   128
 71
    10
 72
     6
 73
    -5
  0
VERTEX
  5
1414
  8
0
 10
0.0
 20
0.0
 30
0.0
 70
   128
 71
     9
 72
   -10
 73
     5
  0
VERTEX
  5
1415
  8
0
 10
0.0
 20
0.0
 30
0.0
 70
   128
 71
     3
 72
    11
 73
    12
  0
VERTEX
  5
1416
  8
0
 10
0.0
 20
0.0
 30
0.0
 70
   128
 71
    12
 72
    13
 73
     3
  0
VERTEX
  5
1417
  8
0
 10
0.0
 20
0.0
 30
0.0
 70
   128
 71
    14
 72
     9
 73
     3
  0
VERTEX
  5
1418
  8
0
 10
0.0
 20
0.0
 30
0.0
 70
   128
 71
    13
 72
    14
 73
     3
  0
VERTEX
  5
1419
  8
0
 10
0.0
 20
0.0
 30
0.0
 70
   128
 71
    14
 72
   -15
 73
     9
  0
VERTEX
  5
141A
  8
0
 10
0.0
 20
0.0
 30
0.0
 70
   128
 71
    16
 72
    10
 73
     9
  0
VERTEX
  5
141B
  8
0
 10
0.0
 20
0.0
 30
0.0
 70
   128
 71
    15
 72
    16
 73
    -9
  0
VERTEX
  5
141C
  8
0
 10
0.0
 20
0.0
 30
0.0
 70
   128
 71
    16
 72
    17
 73
    10
  0
VERTEX
  5
141D
  8
0
 10
0.0
 20
0.0
 30
0.0
 70
   128
 71
    18
 72
     2
 73
    10
  0
VERTEX
  5
141E
  8
0
 10
0.0
 20
0.0
 30
0.0
 70
   128
 71
    17
 72
    18
 73
    10
  0
VERTEX
  5
141F
  8
0
 10
0.0
 20
0.0
 30
0.0
 70
   128
 71
    18
 72
    19
 73
     2
  0
VERTEX
  5
1420
  8
0
 10
0.0
 20
0.0
 30
0.0
 70
   128
 71
    19
 72
    20
 73
     2
  0
SEQEND
  5
1A7C
  8
0
  0
POLYLINE
  5
1421
  8
0
 66
     1
 10
0.0
 20
0.0
 30
0.0
 70
    64
 71
    16
 72
    14
  0
VERTEX
  5
1422
  8
0
 10
-25.84787295672633
 20
-65.59989373561883
 30
22.26612463569386
 70
   192
  0
VERTEX
  5
1423
  8
0
 10
-34.11510720436856
 20
-65.600292386835
 30
0.0000000000000019
 70
   192
  0
VERTEX
  5
1424
  8
0
 10
-33.89278968864453
 20
-94.99804204199481
 30
0.0
 70
   192
  0
VERTEX
  5
1425
  8
0
 10
-23.96447974092608
 20
-94.99756329266746
 30
23.96906055509239
 70
   192
  0
VERTEX
  5
1426
  8
0
 10
-5.052654791098846
 20
-65.59889097716737
 30
33.74159277407481
 70
   192
  0
VERTEX
  5
1427
  8
0
 10
0.0045807862995501
 20
-94.9964074895484
 30
33.89737051435365
 70
   192
  0
VERTEX
  5
1428
  8
0
 10
18.1927246052084
 20
-65.59777007040594
 30
28.86513873226667
 70
   192
  0
VERTEX
  5
1429
  8
0
 10
23.97364131352517
 20
-94.99525168642934
 30
23.9690605550924
 70
   192
  0
VERTEX
  5
142A
  8
0
 10
33.90195126124364
 20
-94.994772937102
 30
0.0000000000000042
 70
   192
  0
VERTEX
  5
142B
  8
0
 10
32.45801386075654
 20
-86.71952200418896
 30
10.0
 70
   192
  0
VERTEX
  5
142C
  8
0
 10
33.29119313834752
 20
-86.71952200418897
 30
6.725033159357281
 70
   192
  0
VERTEX
  5
142D
  8
0
 10
33.79559870274035
 20
-86.71952200418897
 30
3.375103861050809
 70
   192
  0
VERTEX
  5
142E
  8
0
 10
33.9637338908713
 20
-86.71952200418896
 30
0.0000000000000042
 70
   192
  0
VERTEX
  5
142F
  8
0
 10
32.56803955101555
 20
-72.63789021918427
 30
10.0
 70
   192
  0
VERTEX
  5
1430
  8
0
 10
32.62304021799751
 20
-65.59707423154421
 30
10.0
 70
   192
  0
VERTEX
  5
1431
  8
0
 10
32.51303077907811
 20
-79.67870614350771
 30
9.999999999999998
 70
   192
  0
VERTEX
  5
1432
  8
0
 10
0.0
 20
0.0
 30
0.0
 70
   128
 71
     1
 72
     2
 73
     3
  0
VERTEX
  5
1433
  8
0
 10
0.0
 20
0.0
 30
0.0
 70
   128
 71
     1
 72
     3
 73
     4
  0
VERTEX
  5
1434
  8
0
 10
0.0
 20
0.0
 30
0.0
 70
   128
 71
     5
 72
     4
 73
     6
  0
VERTEX
  5
1435
  8
0
 10
0.0
 20
0.0
 30
0.0
 70
   128
 71
     7
 72
     6
 73
     8
  0
VERTEX
  5
1436
  8
0
 10
0.0
 20
0.0
 30
0.0
 70
   128
 71
     8
 72
     9
 73
    10
  0
VERTEX
  5
1437
  8
0
 10
0.0
 20
0.0
 30
0.0
 70
   128
 71
     9
 72
    11
 73
    10
  0
VERTEX
  5
1438
  8
0
 10
0.0
 20
0.0
 30
0.0
 70
   128
 71
     9
 72
    12
 73
    11
  0
VERTEX
  5
1439
  8
0
 10
0.0
 20
0.0
 30
0.0
 70
   128
 71
     9
 72
    13
 73
    12
  0
VERTEX
  5
143A
  8
0
 10
0.0
 20
0.0
 30
0.0
 70
   128
 71
     5
 72
     6
 73
     7
  0
VERTEX
  5
143B
  8
0
 10
0.0
 20
0.0
 30
0.0
 70
   128
 71
     1
 72
     4
 73
     5
  0
VERTEX
  5
143C
  8
0
 10
0.0
 20
0.0
 30
0.0
 70
   128
 71
    14
 72
    15
 73
     7
  0
VERTEX
  5
143D
  8
0
 10
0.0
 20
0.0
 30
0.0
 70
   128
 71
     7
 72
     8
 73
    16
  0
VERTEX
  5
143E
  8
0
 10
0.0
 20
0.0
 30
0.0
 70
   128
 71
     7
 72
    16
 73
    14
  0
VERTEX
  5
143F
  8
0
 10
0.0
 20
0.0
 30
0.0
 70
   128
 71
     8
 72
    10
 73
    16
  0
SEQEND
  5
1A7D
  8
0
  0
POLYLINE
  5
1440
  8
0
 66
     1
 10
0.0
 20
0.0
 30
0.0
 70
    64
 71
    27
 72
    25
  0
VERTEX
  5
1441
  8
0
 10
-163.4543876149969
 20
93.63278004786471
 30
-94.36782782547684
 70
   192
  0
VERTEX
  5
1442
  8
0
 10
-188.740170842915
 20
93.6315607515519
 30
0.0000000000000231
 70
   192
  0
VERTEX
  5
1443
  8
0
 10
-183.0858053155561
 20
71.27028169399946
 30
0.0000000000000224
 70
   192
  0
VERTEX
  5
1444
  8
0
 10
-176.8591443228876
 20
49.06155945499808
 30
0.0000000000000217
 70
   192
  0
VERTEX
  5
1445
  8
0
 10
-147.2801732113861
 20
27.02113695407037
 30
-85.03149527739461
 70
   192
  0
VERTEX
  5
1446
  8
0
 10
-170.0642936756855
 20
27.02003828950336
 30
0.0000000000000208
 70
   192
  0
VERTEX
  5
1447
  8
0
 10
-0.0013033186140981
 20
27.02823883347029
 30
-170.0629905547893
 70
   192
  0
VERTEX
  5
1448
  8
0
 10
-0.0045154113881804
 20
93.64066170312978
 30
-188.7356556509537
 70
   192
  0
VERTEX
  5
1449
  8
0
 10
-94.37234312715164
 20
93.63611122734083
 30
-163.449872393638
 70
   192
  0
VERTEX
  5
144A
  8
0
 10
-85.03279849714988
 20
27.024138561487
 30
-147.2788700640006
 70
   192
  0
VERTEX
  5
144B
  8
0
 10
85.03019185992169
 20
27.03233910545358
 30
-147.2788700640006
 70
   192
  0
VERTEX
  5
144C
  8
0
 10
94.36331230437528
 20
93.64521217891873
 30
-163.449872393638
 70
   192
  0
VERTEX
  5
144D
  8
0
 10
170.0616870384576
 20
27.03643937743688
 30
-0.0000000000001227
 70
   192
  0
VERTEX
  5
144E
  8
0
 10
171.6721503629914
 20
32.08440274810351
 30
0.0
 70
   192
  0
VERTEX
  5
144F
  8
0
 10
173.2528077130921
 20
37.14177841665247
 30
0.0
 70
   192
  0
VERTEX
  5
1450
  8
0
 10
175.1126958199835
 20
43.41774763399043
 30
-4.438772770525784
 70
   192
  0
VERTEX
  5
1451
  8
0
 10
174.8036040841838
 20
42.20839039376978
 30
0.0
 70
   192
  0
VERTEX
  5
1452
  8
0
 10
175.9739986345457
 20
46.65893890496533
 30
-7.620930045800201
 70
   192
  0
VERTEX
  5
1453
  8
0
 10
147.277566574158
 20
27.03534071287021
 30
-85.03149527739474
 70
   192
  0
VERTEX
  5
1454
  8
0
 10
177.1892399455144
 20
50.9583903937985
 30
-8.749999999999988
 70
   192
  0
VERTEX
  5
1455
  8
0
 10
178.4888876212817
 20
55.26878643257602
 30
-7.614661582136449
 70
   192
  0
VERTEX
  5
1456
  8
0
 10
182.9977760086305
 20
70.98359306030738
 30
0.0
 70
   192
  0
VERTEX
  5
1457
  8
0
 10
163.4453567922207
 20
93.64854335839485
 30
-94.36782782547697
 70
   192
  0
VERTEX
  5
1458
  8
0
 10
179.5128707035013
 20
58.49267011051871
 30
-4.449008622461675
 70
   192
  0
VERTEX
  5
1459
  8
0
 10
179.9103387519987
 20
59.7083903937698
 30
0.0
 70
   192
  0
VERTEX
  5
145A
  8
0
 10
185.9382091226228
 20
82.29802265650343
 30
0.0
 70
   192
  0
VERTEX
  5
145B
  8
0
 10
188.7311400201388
 20
93.64976265470766
 30
-0.0000000000001362
 70
   192
  0
VERTEX
  5
145C
  8
0
 10
0.0
 20
0.0
 30
0.0
 70
   128
 71
     1
 72
     2
 73
     3
  0
VERTEX
  5
145D
  8
0
 10
0.0
 20
0.0
 30
0.0
 70
   128
 71
     4
 72
     5
 73
     1
  0
VERTEX
  5
145E
  8
0
 10
0.0
 20
0.0
 30
0.0
 70
   128
 71
     3
 72
     4
 73
     1
  0
VERTEX
  5
145F
  8
0
 10
0.0
 20
0.0
 30
0.0
 70
   128
 71
     4
 72
     6
 73
     5
  0
VERTEX
  5
1460
  8
0
 10
0.0
 20
0.0
 30
0.0
 70
   128
 71
     7
 72
     8
 73
    -9
  0
VERTEX
  5
1461
  8
0
 10
0.0
 20
0.0
 30
0.0
 70
   128
 71
    10
 72
    -7
 73
     9
  0
VERTEX
  5
1462
  8
0
 10
0.0
 20
0.0
 30
0.0
 70
   128
 71
     8
 72
     7
 73
   -11
  0
VERTEX
  5
1463
  8
0
 10
0.0
 20
0.0
 30
0.0
 70
   128
 71
    12
 72
    -8
 73
    11
  0
VERTEX
  5
1464
  8
0
 10
0.0
 20
0.0
 30
0.0
 70
   128
 71
    13
 72
    14
 73
    15
  0
VERTEX
  5
1465
  8
0
 10
0.0
 20
0.0
 30
0.0
 70
   128
 71
    16
 72
    13
 73
    15
  0
VERTEX
  5
1466
  8
0
 10
0.0
 20
0.0
 30
0.0
 70
   128
 71
    15
 72
    17
 73
    16
  0
VERTEX
  5
1467
  8
0
 10
0.0
 20
0.0
 30
0.0
 70
   128
 71
    16
 72
    18
 73
    13
  0
VERTEX
  5
1468
  8
0
 10
0.0
 20
0.0
 30
0.0
 70
   128
 71
    19
 72
    13
 73
    18
  0
VERTEX
  5
1469
  8
0
 10
0.0
 20
0.0
 30
0.0
 70
   128
 71
    18
 72
    20
 73
    19
  0
VERTEX
  5
146A
  8
0
 10
0.0
 20
0.0
 30
0.0
 70
   128
 71
    20
 72
    21
 73
    19
  0
VERTEX
  5
146B
  8
0
 10
0.0
 20
0.0
 30
0.0
 70
   128
 71
    22
 72
    23
 73
    19
  0
VERTEX
  5
146C
  8
0
 10
0.0
 20
0.0
 30
0.0
 70
   128
 71
    21
 72
    22
 73
    19
  0
VERTEX
  5
146D
  8
0
 10
0.0
 20
0.0
 30
0.0
 70
   128
 71
    21
 72
    24
 73
    22
  0
VERTEX
  5
146E
  8
0
 10
0.0
 20
0.0
 30
0.0
 70
   128
 71
    24
 72
    25
 73
    22
  0
VERTEX
  5
146F
  8
0
 10
0.0
 20
0.0
 30
0.0
 70
   128
 71
    22
 72
    26
 73
    23
  0
VERTEX
  5
1470
  8
0
 10
0.0
 20
0.0
 30
0.0
 70
   128
 71
    26
 72
    27
 73
    23
  0
VERTEX
  5
1471
  8
0
 10
0.0
 20
0.0
 30
0.0
 70
   128
 71
     9
 72
     1
 73
    -5
  0
VERTEX
  5
1472
  8
0
 10
0.0
 20
0.0
 30
0.0
 70
   128
 71
    10
 72
    -9
 73
     5
  0
VERTEX
  5
1473
  8
0
 10
0.0
 20
0.0
 30
0.0
 70
   128
 71
    23
 72
    12
 73
   -11
  0
VERTEX
  5
1474
  8
0
 10
0.0
 20
0.0
 30
0.0
 70
   128
 71
    19
 72
   -23
 73
    11
  0
SEQEND
  5
1A7E
  8
0
  0
POLYLINE
  5
1475
  8
0
 66
     1
 10
0.0
 20
0.0
 30
0.0
 70
    64
 71
    24
 72
    22
  0
VERTEX
  5
1476
  8
0
 10
189.8333200378722
 20
56.96687079909417
 30
6.360768413503967
 70
   192
  0
VERTEX
  5
1477
  8
0
 10
190.2676370147509
 20
58.90921195611987
 30
3.653345929920851
 70
   192
  0
VERTEX
  5
1478
  8
0
 10
163.2632506960511
 20
58.90790978768902
 30
97.77722138389706
 70
   192
  0
VERTEX
  5
1479
  8
0
 10
189.2100023954166
 20
54.18113977322915
 30
8.13491085581832
 70
   192
  0
VERTEX
  5
147A
  8
0
 10
188.4883008820343
 20
50.95839039378701
 30
8.749999999999988
 70
   192
  0
VERTEX
  5
147B
  8
0
 10
187.5171200529745
 20
46.62600175181925
 30
7.602139745126675
 70
   192
  0
VERTEX
  5
147C
  8
0
 10
148.9239459378705
 20
4.262004305989112
 30
85.98139883106482
 70
   192
  0
VERTEX
  5
147D
  8
0
 10
182.530631589131
 20
29.2412375273246
 30
0.0
 70
   192
  0
VERTEX
  5
147E
  8
0
 10
186.7941221050825
 20
43.40391329543586
 30
4.415179094977465
 70
   192
  0
VERTEX
  5
147F
  8
0
 10
186.5257116530949
 20
42.20839039376997
 30
0.0
 70
   192
  0
VERTEX
  5
1480
  8
0
 10
177.6688571801684
 20
16.57352787736818
 30
0.0
 70
   192
  0
VERTEX
  5
1481
  8
0
 10
171.9625922919675
 20
4.26311524395369
 30
0.0
 70
   192
  0
VERTEX
  5
1482
  8
0
 10
93.03280780088542
 20
58.90452323172205
 30
166.0137635874772
 70
   192
  0
VERTEX
  5
1483
  8
0
 10
-0.0002051702356642
 20
4.254823090097962
 30
171.9627976621297
 70
   192
  0
VERTEX
  5
1484
  8
0
 10
85.98119356086595
 20
4.258969167025827
 30
148.9241512812476
 70
   192
  0
VERTEX
  5
1485
  8
0
 10
-1.829597322208026
 20
58.8999489071006
 30
190.2967799972749
 70
   192
  0
VERTEX
  5
1486
  8
0
 10
-96.2083532905557
 20
58.89539790434448
 30
164.1971398890988
 70
   192
  0
VERTEX
  5
1487
  8
0
 10
-85.9816039013373
 20
4.250677013170097
 30
148.9241512812476
 70
   192
  0
VERTEX
  5
1488
  8
0
 10
-179.8205361427196
 20
21.84511953916879
 30
0.000000000000022
 70
   192
  0
VERTEX
  5
1489
  8
0
 10
-171.963002632439
 20
4.246530936242308
 30
0.0000000000000211
 70
   192
  0
VERTEX
  5
148A
  8
0
 10
-148.9243562783419
 20
4.247641874206812
 30
85.98139883106491
 70
   192
  0
VERTEX
  5
148B
  8
0
 10
-165.115898861056
 20
58.89207513931551
 30
94.62494023270224
 70
   192
  0
VERTEX
  5
148C
  8
0
 10
-185.9545046453152
 20
40.11601399153221
 30
0.0000000000000228
 70
   192
  0
VERTEX
  5
148D
  8
0
 10
-190.3083877635574
 20
58.89086034171352
 30
0.0000000000000211
 70
   192
  0
VERTEX
  5
148E
  8
0
 10
0.0
 20
0.0
 30
0.0
 70
   128
 71
     1
 72
     2
 73
     3
  0
VERTEX
  5
148F
  8
0
 10
0.0
 20
0.0
 30
0.0
 70
   128
 71
     3
 72
     4
 73
     1
  0
VERTEX
  5
1490
  8
0
 10
0.0
 20
0.0
 30
0.0
 70
   128
 71
     5
 72
     4
 73
     3
  0
VERTEX
  5
1491
  8
0
 10
0.0
 20
0.0
 30
0.0
 70
   128
 71
     3
 72
     6
 73
     5
  0
VERTEX
  5
1492
  8
0
 10
0.0
 20
0.0
 30
0.0
 70
   128
 71
     3
 72
     7
 73
     8
  0
VERTEX
  5
1493
  8
0
 10
0.0
 20
0.0
 30
0.0
 70
   128
 71
     3
 72
     8
 73
     6
  0
VERTEX
  5
1494
  8
0
 10
0.0
 20
0.0
 30
0.0
 70
   128
 71
     8
 72
     9
 73
     6
  0
VERTEX
  5
1495
  8
0
 10
0.0
 20
0.0
 30
0.0
 70
   128
 71
     8
 72
    10
 73
     9
  0
VERTEX
  5
1496
  8
0
 10
0.0
 20
0.0
 30
0.0
 70
   128
 71
     7
 72
    11
 73
     8
  0
VERTEX
  5
1497
  8
0
 10
0.0
 20
0.0
 30
0.0
 70
   128
 71
     7
 72
    12
 73
    11
  0
VERTEX
  5
1498
  8
0
 10
0.0
 20
0.0
 30
0.0
 70
   128
 71
    13
 72
    14
 73
    15
  0
VERTEX
  5
1499
  8
0
 10
0.0
 20
0.0
 30
0.0
 70
   128
 71
    16
 72
    17
 73
    18
  0
VERTEX
  5
149A
  8
0
 10
0.0
 20
0.0
 30
0.0
 70
   128
 71
    16
 72
    18
 73
    14
  0
VERTEX
  5
149B
  8
0
 10
0.0
 20
0.0
 30
0.0
 70
   128
 71
    19
 72
    20
 73
    21
  0
VERTEX
  5
149C
  8
0
 10
0.0
 20
0.0
 30
0.0
 70
   128
 71
    21
 72
    22
 73
    23
  0
VERTEX
  5
149D
  8
0
 10
0.0
 20
0.0
 30
0.0
 70
   128
 71
    21
 72
    23
 73
    19
  0
VERTEX
  5
149E
  8
0
 10
0.0
 20
0.0
 30
0.0
 70
   128
 71
    22
 72
    24
 73
    23
  0
VERTEX
  5
149F
  8
0
 10
0.0
 20
0.0
 30
0.0
 70
   128
 71
    13
 72
    16
 73
    14
  0
VERTEX
  5
14A0
  8
0
 10
0.0
 20
0.0
 30
0.0
 70
   128
 71
     7
 72
     3
 73
    13
  0
VERTEX
  5
14A1
  8
0
 10
0.0
 20
0.0
 30
0.0
 70
   128
 71
     7
 72
    13
 73
    15
  0
VERTEX
  5
14A2
  8
0
 10
0.0
 20
0.0
 30
0.0
 70
   128
 71
    18
 72
    17
 73
    22
  0
VERTEX
  5
14A3
  8
0
 10
0.0
 20
0.0
 30
0.0
 70
   128
 71
    18
 72
    22
 73
    21
  0
SEQEND
  5
1A7F
  8
0
  0
POLYLINE
  5
14A4
  8
0
 66
     1
 10
0.0
 20
0.0
 30
0.0
 70
    64
 71
    30
 72
    37
  0
VERTEX
  5
14A5
  8
0
 10
-0.003001585452084
 20
62.24691921393213
 30
-193.2015885153091
 70
   192
  0
VERTEX
  5
14A6
  8
0
 10
-0.00301899790997
 20
62.60801899645536
 30
-194.6816069488012
 70
   192
  0
VERTEX
  5
14A7
  8
0
 10
97.33778436332084
 20
62.61271283099297
 30
-168.599217267239
 70
   192
  0
VERTEX
  5
14A8
  8
0
 10
136.6111516309063
 20
62.25350683401076
 30
-136.614153375188
 70
   192
  0
VERTEX
  5
14A9
  8
0
 10
168.5961980733132
 20
62.61614895635682
 30
-97.34080347440073
 70
   192
  0
VERTEX
  5
14AA
  8
0
 10
194.6785877245517
 20
62.61740666553057
 30
-0.0000000000001405
 70
   192
  0
VERTEX
  5
14AB
  8
0
 10
-136.6171548018105
 20
62.2403315938535
 30
-136.614153375188
 70
   192
  0
VERTEX
  5
14AC
  8
0
 10
-97.34382235914076
 20
62.60332516191776
 30
-168.5992172672389
 70
   192
  0
VERTEX
  5
14AD
  8
0
 10
135.6919247446646
 20
61.45926438378662
 30
-135.6948881911465
 70
   192
  0
VERTEX
  5
14AE
  8
0
 10
-0.0029632887209167
 20
61.45272109125118
 30
-191.9015512246201
 70
   192
  0
VERTEX
  5
14AF
  8
0
 10
-135.6978513221065
 20
61.44617779871573
 30
-135.6948881911465
 70
   192
  0
VERTEX
  5
14B0
  8
0
 10
-192.7446783998028
 20
62.01808888980067
 30
0.0000000000000236
 70
   192
  0
VERTEX
  5
14B1
  8
0
 10
134.9871079423449
 20
60.30720715610285
 30
-134.9900158367248
 70
   192
  0
VERTEX
  5
14B2
  8
0
 10
-0.0029077374384399
 20
60.30069785295401
 30
-190.904711181255
 70
   192
  0
VERTEX
  5
14B3
  8
0
 10
-134.9929234172218
 20
60.29418854980517
 30
-134.9900158367248
 70
   192
  0
VERTEX
  5
14B4
  8
0
 10
163.2632506960511
 20
58.90790978768902
 30
-97.77722138389699
 70
   192
  0
VERTEX
  5
14B5
  8
0
 10
190.5377008828367
 20
59.6181985550414
 30
-1.252814375788225
 70
   192
  0
VERTEX
  5
14B6
  8
0
 10
190.420705572693
 20
59.34942960067039
 30
-2.481028284939944
 70
   192
  0
VERTEX
  5
14B7
  8
0
 10
190.267637014751
 20
58.90921195611986
 30
-3.653345929920716
 70
   192
  0
VERTEX
  5
14B8
  8
0
 10
-165.115898861056
 20
58.89207513931551
 30
-94.62494023270223
 70
   192
  0
VERTEX
  5
14B9
  8
0
 10
-190.3083877635574
 20
58.89086034171352
 30
0.0000000000000233
 70
   192
  0
VERTEX
  5
14BA
  8
0
 10
-96.20835329055568
 20
58.89539790434448
 30
-164.1971398890988
 70
   192
  0
VERTEX
  5
14BB
  8
0
 10
-1.829597322208005
 20
58.8999489071006
 30
-190.2967799972749
 70
   192
  0
VERTEX
  5
14BC
  8
0
 10
191.5656102962615
 20
61.15242923241072
 30
0.0
 70
   192
  0
VERTEX
  5
14BD
  8
0
 10
192.9906826972089
 20
62.16416867832997
 30
0.0
 70
   192
  0
VERTEX
  5
14BE
  8
0
 10
-191.1996948398604
 20
60.70910037651232
 30
0.0000000000000234
 70
   192
  0
VERTEX
  5
14BF
  8
0
 10
190.5811307957803
 20
59.70839039376977
 30
0.0
 70
   192
  0
VERTEX
  5
14C0
  8
0
 10
-168.602236069133
 20
62.59988903655391
 30
-97.34080347440059
 70
   192
  0
VERTEX
  5
14C1
  8
0
 10
-194.6846257203716
 20
62.59863132738013
 30
0.0000000000000238
 70
   192
  0
VERTEX
  5
14C2
  8
0
 10
93.03280780088545
 20
58.90452323172205
 30
-166.0137635874772
 70
   192
  0
VERTEX
  5
14C3
  8
0
 10
0.0
 20
0.0
 30
0.0
 70
   128
 71
     1
 72
     2
 73
     3
  0
VERTEX
  5
14C4
  8
0
 10
0.0
 20
0.0
 30
0.0
 70
   128
 71
     4
 72
     1
 73
     3
  0
VERTEX
  5
14C5
  8
0
 10
0.0
 20
0.0
 30
0.0
 70
   128
 71
     5
 72
     6
 73
     4
  0
VERTEX
  5
14C6
  8
0
 10
0.0
 20
0.0
 30
0.0
 70
   128
 71
     2
 72
     1
 73
     7
  0
VERTEX
  5
14C7
  8
0
 10
0.0
 20
0.0
 30
0.0
 70
   128
 71
     8
 72
     2
 73
     7
  0
VERTEX
  5
14C8
  8
0
 10
0.0
 20
0.0
 30
0.0
 70
   128
 71
     4
 72
     9
 73
   -10
  0
VERTEX
  5
14C9
  8
0
 10
0.0
 20
0.0
 30
0.0
 70
   128
 71
     1
 72
    -4
 73
    10
  0
VERTEX
  5
14CA
  8
0
 10
0.0
 20
0.0
 30
0.0
 70
   128
 71
     7
 72
    11
 73
    12
  0
VERTEX
  5
14CB
  8
0
 10
0.0
 20
0.0
 30
0.0
 70
   128
 71
     1
 72
    10
 73
   -11
  0
VERTEX
  5
14CC
  8
0
 10
0.0
 20
0.0
 30
0.0
 70
   128
 71
     7
 72
    -1
 73
    11
  0
VERTEX
  5
14CD
  8
0
 10
0.0
 20
0.0
 30
0.0
 70
   128
 71
     9
 72
    13
 73
   -14
  0
VERTEX
  5
14CE
  8
0
 10
0.0
 20
0.0
 30
0.0
 70
   128
 71
    10
 72
    -9
 73
    14
  0
VERTEX
  5
14CF
  8
0
 10
0.0
 20
0.0
 30
0.0
 70
   128
 71
    10
 72
    14
 73
   -15
  0
VERTEX
  5
14D0
  8
0
 10
0.0
 20
0.0
 30
0.0
 70
   128
 71
    11
 72
   -10
 73
    15
  0
VERTEX
  5
14D1
  8
0
 10
0.0
 20
0.0
 30
0.0
 70
   128
 71
    16
 72
    13
 73
    17
  0
VERTEX
  5
14D2
  8
0
 10
0.0
 20
0.0
 30
0.0
 70
   128
 71
    17
 72
    18
 73
    16
  0
VERTEX
  5
14D3
  8
0
 10
0.0
 20
0.0
 30
0.0
 70
   128
 71
    18
 72
    19
 73
    16
  0
VERTEX
  5
14D4
  8
0
 10
0.0
 20
0.0
 30
0.0
 70
   128
 71
    20
 72
    21
 73
    15
  0
VERTEX
  5
14D5
  8
0
 10
0.0
 20
0.0
 30
0.0
 70
   128
 71
    22
 72
    15
 73
    14
  0
VERTEX
  5
14D6
  8
0
 10
0.0
 20
0.0
 30
0.0
 70
   128
 71
    23
 72
    22
 73
    14
  0
VERTEX
  5
14D7
  8
0
 10
0.0
 20
0.0
 30
0.0
 70
   128
 71
    24
 72
     9
 73
     4
  0
VERTEX
  5
14D8
  8
0
 10
0.0
 20
0.0
 30
0.0
 70
   128
 71
    25
 72
    24
 73
     4
  0
VERTEX
  5
14D9
  8
0
 10
0.0
 20
0.0
 30
0.0
 70
   128
 71
    11
 72
    15
 73
    26
  0
VERTEX
  5
14DA
  8
0
 10
0.0
 20
0.0
 30
0.0
 70
   128
 71
    12
 72
    11
 73
    26
  0
VERTEX
  5
14DB
  8
0
 10
0.0
 20
0.0
 30
0.0
 70
   128
 71
    13
 72
     9
 73
    24
  0
VERTEX
  5
14DC
  8
0
 10
0.0
 20
0.0
 30
0.0
 70
   128
 71
    17
 72
    13
 73
    24
  0
VERTEX
  5
14DD
  8
0
 10
0.0
 20
0.0
 30
0.0
 70
   128
 71
    27
 72
    17
 73
    24
  0
VERTEX
  5
14DE
  8
0
 10
0.0
 20
0.0
 30
0.0
 70
   128
 71
    26
 72
    15
 73
    21
  0
VERTEX
  5
14DF
  8
0
 10
0.0
 20
0.0
 30
0.0
 70
   128
 71
    25
 72
     4
 73
     6
  0
VERTEX
  5
14E0
  8
0
 10
0.0
 20
0.0
 30
0.0
 70
   128
 71
    28
 72
     7
 73
    12
  0
VERTEX
  5
14E1
  8
0
 10
0.0
 20
0.0
 30
0.0
 70
   128
 71
    29
 72
    28
 73
    12
  0
VERTEX
  5
14E2
  8
0
 10
0.0
 20
0.0
 30
0.0
 70
   128
 71
     5
 72
     4
 73
     3
  0
VERTEX
  5
14E3
  8
0
 10
0.0
 20
0.0
 30
0.0
 70
   128
 71
     8
 72
     7
 73
    28
  0
VERTEX
  5
14E4
  8
0
 10
0.0
 20
0.0
 30
0.0
 70
   128
 71
    13
 72
    30
 73
    23
  0
VERTEX
  5
14E5
  8
0
 10
0.0
 20
0.0
 30
0.0
 70
   128
 71
    14
 72
    13
 73
    23
  0
VERTEX
  5
14E6
  8
0
 10
0.0
 20
0.0
 30
0.0
 70
   128
 71
    13
 72
    16
 73
    30
  0
VERTEX
  5
14E7
  8
0
 10
0.0
 20
0.0
 30
0.0
 70
   128
 71
    15
 72
    22
 73
    20
  0
SEQEND
  5
1A80
  8
0
  0
POLYLINE
  5
14E8
  8
0
 66
     1
 10
0.0
 20
0.0
 30
0.0
 70
    64
 71
    30
 72
    37
  0
VERTEX
  5
14E9
  8
0
 10
-0.003001585452084
 20
62.24691921393214
 30
193.2015885153091
 70
   192
  0
VERTEX
  5
14EA
  8
0
 10
-0.0030189979098404
 20
62.60801899645536
 30
194.6816069488012
 70
   192
  0
VERTEX
  5
14EB
  8
0
 10
-97.34382235914063
 20
62.60332516191776
 30
168.599217267239
 70
   192
  0
VERTEX
  5
14EC
  8
0
 10
-136.6171548018106
 20
62.24033159385351
 30
136.6141533751881
 70
   192
  0
VERTEX
  5
14ED
  8
0
 10
-168.602236069133
 20
62.59988903655391
 30
97.3408034744007
 70
   192
  0
VERTEX
  5
14EE
  8
0
 10
-194.6846257203716
 20
62.59863132738013
 30
0.0000000000000238
 70
   192
  0
VERTEX
  5
14EF
  8
0
 10
136.6111516309063
 20
62.25350683401079
 30
136.6141533751881
 70
   192
  0
VERTEX
  5
14F0
  8
0
 10
97.33778436332095
 20
62.61271283099297
 30
168.5992172672389
 70
   192
  0
VERTEX
  5
14F1
  8
0
 10
-135.6978513221065
 20
61.44617779871575
 30
135.6948881911465
 70
   192
  0
VERTEX
  5
14F2
  8
0
 10
-0.0029632887209167
 20
61.4527210912512
 30
191.9015512246201
 70
   192
  0
VERTEX
  5
14F3
  8
0
 10
135.6919247446646
 20
61.45926438378665
 30
135.6948881911465
 70
   192
  0
VERTEX
  5
14F4
  8
0
 10
192.9906826972089
 20
62.16416867832997
 30
0.0
 70
   192
  0
VERTEX
  5
14F5
  8
0
 10
-134.9929234172218
 20
60.29418854980518
 30
134.9900158367248
 70
   192
  0
VERTEX
  5
14F6
  8
0
 10
-0.0029077374384399
 20
60.30069785295402
 30
190.904711181255
 70
   192
  0
VERTEX
  5
14F7
  8
0
 10
-191.1996948398604
 20
60.70910037651232
 30
0.0000000000000234
 70
   192
  0
VERTEX
  5
14F8
  8
0
 10
134.9871079423449
 20
60.30720715610286
 30
134.9900158367248
 70
   192
  0
VERTEX
  5
14F9
  8
0
 10
191.5656102962615
 20
61.15242923241072
 30
0.0
 70
   192
  0
VERTEX
  5
14FA
  8
0
 10
-1.829597322208026
 20
58.8999489071006
 30
190.2967799972749
 70
   192
  0
VERTEX
  5
14FB
  8
0
 10
-96.2083532905557
 20
58.89539790434448
 30
164.1971398890988
 70
   192
  0
VERTEX
  5
14FC
  8
0
 10
163.2632506960511
 20
58.90790978768902
 30
97.77722138389706
 70
   192
  0
VERTEX
  5
14FD
  8
0
 10
190.267637014751
 20
58.90921195611986
 30
3.653345929920808
 70
   192
  0
VERTEX
  5
14FE
  8
0
 10
190.4208868372466
 20
59.34986794372237
 30
2.47955317189484
 70
   192
  0
VERTEX
  5
14FF
  8
0
 10
190.5379358395649
 20
59.61870263839748
 30
1.249392523226514
 70
   192
  0
VERTEX
  5
1500
  8
0
 10
93.03280780088542
 20
58.90452323172205
 30
166.0137635874772
 70
   192
  0
VERTEX
  5
1501
  8
0
 10
-192.7446783998028
 20
62.01808888980067
 30
0.0000000000000236
 70
   192
  0
VERTEX
  5
1502
  8
0
 10
-190.3083877635574
 20
58.89086034171351
 30
0.0000000000000233
 70
   192
  0
VERTEX
  5
1503
  8
0
 10
-165.115898861056
 20
58.89207513931551
 30
94.62494023270224
 70
   192
  0
VERTEX
  5
1504
  8
0
 10
190.5811307957802
 20
59.7083903937698
 30
0.0
 70
   192
  0
VERTEX
  5
1505
  8
0
 10
168.5961980733132
 20
62.61614895635682
 30
97.3408034744006
 70
   192
  0
VERTEX
  5
1506
  8
0
 10
194.6785877245518
 20
62.61740666553055
 30
0.0
 70
   192
  0
VERTEX
  5
1507
  8
0
 10
0.0
 20
0.0
 30
0.0
 70
   128
 71
     1
 72
     2
 73
     3
  0
VERTEX
  5
1508
  8
0
 10
0.0
 20
0.0
 30
0.0
 70
   128
 71
     4
 72
     1
 73
     3
  0
VERTEX
  5
1509
  8
0
 10
0.0
 20
0.0
 30
0.0
 70
   128
 71
     5
 72
     6
 73
     4
  0
VERTEX
  5
150A
  8
0
 10
0.0
 20
0.0
 30
0.0
 70
   128
 71
     2
 72
     1
 73
     7
  0
VERTEX
  5
150B
  8
0
 10
0.0
 20
0.0
 30
0.0
 70
   128
 71
     8
 72
     2
 73
     7
  0
VERTEX
  5
150C
  8
0
 10
0.0
 20
0.0
 30
0.0
 70
   128
 71
     4
 72
     9
 73
   -10
  0
VERTEX
  5
150D
  8
0
 10
0.0
 20
0.0
 30
0.0
 70
   128
 71
     1
 72
    -4
 73
    10
  0
VERTEX
  5
150E
  8
0
 10
0.0
 20
0.0
 30
0.0
 70
   128
 71
     7
 72
    11
 73
    12
  0
VERTEX
  5
150F
  8
0
 10
0.0
 20
0.0
 30
0.0
 70
   128
 71
     1
 72
    10
 73
   -11
  0
VERTEX
  5
1510
  8
0
 10
0.0
 20
0.0
 30
0.0
 70
   128
 71
     7
 72
    -1
 73
    11
  0
VERTEX
  5
1511
  8
0
 10
0.0
 20
0.0
 30
0.0
 70
   128
 71
     9
 72
    13
 73
   -14
  0
VERTEX
  5
1512
  8
0
 10
0.0
 20
0.0
 30
0.0
 70
   128
 71
    10
 72
    -9
 73
    14
  0
VERTEX
  5
1513
  8
0
 10
0.0
 20
0.0
 30
0.0
 70
   128
 71
    13
 72
     9
 73
    15
  0
VERTEX
  5
1514
  8
0
 10
0.0
 20
0.0
 30
0.0
 70
   128
 71
    11
 72
    16
 73
    17
  0
VERTEX
  5
1515
  8
0
 10
0.0
 20
0.0
 30
0.0
 70
   128
 71
    10
 72
    14
 73
   -16
  0
VERTEX
  5
1516
  8
0
 10
0.0
 20
0.0
 30
0.0
 70
   128
 71
    11
 72
   -10
 73
    16
  0
VERTEX
  5
1517
  8
0
 10
0.0
 20
0.0
 30
0.0
 70
   128
 71
    18
 72
    14
 73
    13
  0
VERTEX
  5
1518
  8
0
 10
0.0
 20
0.0
 30
0.0
 70
   128
 71
    19
 72
    18
 73
    13
  0
VERTEX
  5
1519
  8
0
 10
0.0
 20
0.0
 30
0.0
 70
   128
 71
    20
 72
    21
 73
    22
  0
VERTEX
  5
151A
  8
0
 10
0.0
 20
0.0
 30
0.0
 70
   128
 71
    22
 72
    23
 73
    20
  0
VERTEX
  5
151B
  8
0
 10
0.0
 20
0.0
 30
0.0
 70
   128
 71
    16
 72
    14
 73
    24
  0
VERTEX
  5
151C
  8
0
 10
0.0
 20
0.0
 30
0.0
 70
   128
 71
    15
 72
     9
 73
     4
  0
VERTEX
  5
151D
  8
0
 10
0.0
 20
0.0
 30
0.0
 70
   128
 71
    25
 72
    15
 73
     4
  0
VERTEX
  5
151E
  8
0
 10
0.0
 20
0.0
 30
0.0
 70
   128
 71
    12
 72
    11
 73
    17
  0
VERTEX
  5
151F
  8
0
 10
0.0
 20
0.0
 30
0.0
 70
   128
 71
    26
 72
    27
 73
    13
  0
VERTEX
  5
1520
  8
0
 10
0.0
 20
0.0
 30
0.0
 70
   128
 71
    15
 72
    26
 73
    13
  0
VERTEX
  5
1521
  8
0
 10
0.0
 20
0.0
 30
0.0
 70
   128
 71
    20
 72
    23
 73
    28
  0
VERTEX
  5
1522
  8
0
 10
0.0
 20
0.0
 30
0.0
 70
   128
 71
    16
 72
    20
 73
    28
  0
VERTEX
  5
1523
  8
0
 10
0.0
 20
0.0
 30
0.0
 70
   128
 71
    17
 72
    16
 73
    28
  0
VERTEX
  5
1524
  8
0
 10
0.0
 20
0.0
 30
0.0
 70
   128
 71
     6
 72
    25
 73
     4
  0
VERTEX
  5
1525
  8
0
 10
0.0
 20
0.0
 30
0.0
 70
   128
 71
    29
 72
     7
 73
    12
  0
VERTEX
  5
1526
  8
0
 10
0.0
 20
0.0
 30
0.0
 70
   128
 71
    30
 72
    29
 73
    12
  0
VERTEX
  5
1527
  8
0
 10
0.0
 20
0.0
 30
0.0
 70
   128
 71
     5
 72
     4
 73
     3
  0
VERTEX
  5
1528
  8
0
 10
0.0
 20
0.0
 30
0.0
 70
   128
 71
     8
 72
     7
 73
    29
  0
VERTEX
  5
1529
  8
0
 10
0.0
 20
0.0
 30
0.0
 70
   128
 71
    14
 72
    18
 73
    24
  0
VERTEX
  5
152A
  8
0
 10
0.0
 20
0.0
 30
0.0
 70
   128
 71
    13
 72
    27
 73
    19
  0
VERTEX
  5
152B
  8
0
 10
0.0
 20
0.0
 30
0.0
 70
   128
 71
    16
 72
    24
 73
    20
  0
SEQEND
  5
1A81
  8
0
  0
POLYLINE
  5
152C
  8
0
 66
     1
 10
0.0
 20
0.0
 30
0.0
 70
    64
 71
    24
 72
    22
  0
VERTEX
  5
152D
  8
0
 10
-185.9545046453152
 20
40.11601399153221
 30
0.0000000000000228
 70
   192
  0
VERTEX
  5
152E
  8
0
 10
-190.3083877635573
 20
58.89086034171368
 30
0.0000000000000233
 70
   192
  0
VERTEX
  5
152F
  8
0
 10
-165.115898861056
 20
58.89207513931551
 30
-94.62494023270223
 70
   192
  0
VERTEX
  5
1530
  8
0
 10
-148.9243562783419
 20
4.247641874206812
 30
-85.98139883106481
 70
   192
  0
VERTEX
  5
1531
  8
0
 10
-179.8205361427196
 20
21.84511953916879
 30
0.000000000000022
 70
   192
  0
VERTEX
  5
1532
  8
0
 10
-171.963002632439
 20
4.246530936242234
 30
0.0000000000000211
 70
   192
  0
VERTEX
  5
1533
  8
0
 10
-0.0002051702357787
 20
4.254823090097962
 30
-171.9627976621297
 70
   192
  0
VERTEX
  5
1534
  8
0
 10
-85.9816039013374
 20
4.250677013170097
 30
-148.9241512812476
 70
   192
  0
VERTEX
  5
1535
  8
0
 10
-96.20835329055568
 20
58.89539790434448
 30
-164.1971398890988
 70
   192
  0
VERTEX
  5
1536
  8
0
 10
-1.829597322208005
 20
58.8999489071006
 30
-190.2967799972749
 70
   192
  0
VERTEX
  5
1537
  8
0
 10
177.6688571801684
 20
16.57352787736818
 30
0.0
 70
   192
  0
VERTEX
  5
1538
  8
0
 10
171.9625922919675
 20
4.26311524395372
 30
0.0
 70
   192
  0
VERTEX
  5
1539
  8
0
 10
186.7942442818428
 20
43.4044575649623
 30
-4.416110784124557
 70
   192
  0
VERTEX
  5
153A
  8
0
 10
182.530631589131
 20
29.2412375273246
 30
0.0
 70
   192
  0
VERTEX
  5
153B
  8
0
 10
186.5257116530949
 20
42.20839039376983
 30
0.0
 70
   192
  0
VERTEX
  5
153C
  8
0
 10
187.5174048691895
 20
46.62727160605124
 30
-7.602924772753145
 70
   192
  0
VERTEX
  5
153D
  8
0
 10
148.9239459378705
 20
4.262004305989112
 30
-85.98139883106494
 70
   192
  0
VERTEX
  5
153E
  8
0
 10
163.2632506960511
 20
58.90790978768902
 30
-97.77722138389699
 70
   192
  0
VERTEX
  5
153F
  8
0
 10
188.4883008820295
 20
50.95839039376558
 30
-8.749999999999988
 70
   192
  0
VERTEX
  5
1540
  8
0
 10
189.2101423851994
 20
54.18176517422793
 30
-8.134663638444763
 70
   192
  0
VERTEX
  5
1541
  8
0
 10
189.8333221785645
 20
56.96688037967446
 30
-6.360747638867913
 70
   192
  0
VERTEX
  5
1542
  8
0
 10
190.267637014751
 20
58.90921195611986
 30
-3.653345929920716
 70
   192
  0
VERTEX
  5
1543
  8
0
 10
93.03280780088545
 20
58.90452323172205
 30
-166.0137635874772
 70
   192
  0
VERTEX
  5
1544
  8
0
 10
85.98119356086583
 20
4.258969167025827
 30
-148.9241512812476
 70
   192
  0
VERTEX
  5
1545
  8
0
 10
0.0
 20
0.0
 30
0.0
 70
   128
 71
     1
 72
     2
 73
     3
  0
VERTEX
  5
1546
  8
0
 10
0.0
 20
0.0
 30
0.0
 70
   128
 71
     3
 72
     4
 73
     5
  0
VERTEX
  5
1547
  8
0
 10
0.0
 20
0.0
 30
0.0
 70
   128
 71
     3
 72
     5
 73
     1
  0
VERTEX
  5
1548
  8
0
 10
0.0
 20
0.0
 30
0.0
 70
   128
 71
     4
 72
     6
 73
     5
  0
VERTEX
  5
1549
  8
0
 10
0.0
 20
0.0
 30
0.0
 70
   128
 71
     7
 72
     8
 73
     9
  0
VERTEX
  5
154A
  8
0
 10
0.0
 20
0.0
 30
0.0
 70
   128
 71
     7
 72
     9
 73
    10
  0
VERTEX
  5
154B
  8
0
 10
0.0
 20
0.0
 30
0.0
 70
   128
 71
    11
 72
    12
 73
    13
  0
VERTEX
  5
154C
  8
0
 10
0.0
 20
0.0
 30
0.0
 70
   128
 71
    13
 72
    14
 73
    11
  0
VERTEX
  5
154D
  8
0
 10
0.0
 20
0.0
 30
0.0
 70
   128
 71
    13
 72
    15
 73
    14
  0
VERTEX
  5
154E
  8
0
 10
0.0
 20
0.0
 30
0.0
 70
   128
 71
    12
 72
    16
 73
    13
  0
VERTEX
  5
154F
  8
0
 10
0.0
 20
0.0
 30
0.0
 70
   128
 71
    16
 72
    12
 73
    17
  0
VERTEX
  5
1550
  8
0
 10
0.0
 20
0.0
 30
0.0
 70
   128
 71
    16
 72
    17
 73
    18
  0
VERTEX
  5
1551
  8
0
 10
0.0
 20
0.0
 30
0.0
 70
   128
 71
    18
 72
    19
 73
    16
  0
VERTEX
  5
1552
  8
0
 10
0.0
 20
0.0
 30
0.0
 70
   128
 71
    18
 72
    20
 73
    19
  0
VERTEX
  5
1553
  8
0
 10
0.0
 20
0.0
 30
0.0
 70
   128
 71
    18
 72
    21
 73
    20
  0
VERTEX
  5
1554
  8
0
 10
0.0
 20
0.0
 30
0.0
 70
   128
 71
    18
 72
    22
 73
    21
  0
VERTEX
  5
1555
  8
0
 10
0.0
 20
0.0
 30
0.0
 70
   128
 71
    10
 72
    23
 73
    24
  0
VERTEX
  5
1556
  8
0
 10
0.0
 20
0.0
 30
0.0
 70
   128
 71
    10
 72
    24
 73
     7
  0
VERTEX
  5
1557
  8
0
 10
0.0
 20
0.0
 30
0.0
 70
   128
 71
     4
 72
     3
 73
     9
  0
VERTEX
  5
1558
  8
0
 10
0.0
 20
0.0
 30
0.0
 70
   128
 71
     4
 72
     9
 73
     8
  0
VERTEX
  5
1559
  8
0
 10
0.0
 20
0.0
 30
0.0
 70
   128
 71
    24
 72
    23
 73
    18
  0
VERTEX
  5
155A
  8
0
 10
0.0
 20
0.0
 30
0.0
 70
   128
 71
    24
 72
    18
 73
    17
  0
SEQEND
  5
1A82
  8
0
  0
POLYLINE
  5
155B
  8
0
 66
     1
 10
0.0
 20
0.0
 30
0.0
 70
    64
 71
    27
 72
    25
  0
VERTEX
  5
155C
  8
0
 10
188.7311400201388
 20
93.64976265470766
 30
0.0
 70
   192
  0
VERTEX
  5
155D
  8
0
 10
185.9382091226228
 20
82.29802265650343
 30
0.0
 70
   192
  0
VERTEX
  5
155E
  8
0
 10
182.9977760086305
 20
70.98359306030738
 30
0.0
 70
   192
  0
VERTEX
  5
155F
  8
0
 10
179.512516279786
 20
58.49157686997364
 30
4.450812252470137
 70
   192
  0
VERTEX
  5
1560
  8
0
 10
179.9103387519986
 20
59.70839039377
 30
0.0
 70
   192
  0
VERTEX
  5
1561
  8
0
 10
178.4889124826047
 20
55.26886944890543
 30
7.614697834730539
 70
   192
  0
VERTEX
  5
1562
  8
0
 10
147.277566574158
 20
27.03534071287021
 30
85.03149527739463
 70
   192
  0
VERTEX
  5
1563
  8
0
 10
163.4453567922207
 20
93.64854335839485
 30
94.36782782547685
 70
   192
  0
VERTEX
  5
1564
  8
0
 10
177.1892399455052
 20
50.95839039376657
 30
8.749999999999988
 70
   192
  0
VERTEX
  5
1565
  8
0
 10
175.9720158829276
 20
46.65167826616335
 30
7.616827649049402
 70
   192
  0
VERTEX
  5
1566
  8
0
 10
175.1120718130573
 20
43.41533618004041
 30
4.434659025479176
 70
   192
  0
VERTEX
  5
1567
  8
0
 10
173.2528077130921
 20
37.14177841665247
 30
0.0
 70
   192
  0
VERTEX
  5
1568
  8
0
 10
174.803604084184
 20
42.2083903937697
 30
-0.0000000000000025
 70
   192
  0
VERTEX
  5
1569
  8
0
 10
171.6721503629914
 20
32.08440274810351
 30
0.0
 70
   192
  0
VERTEX
  5
156A
  8
0
 10
170.0616870384572
 20
27.03643937743715
 30
0.0
 70
   192
  0
VERTEX
  5
156B
  8
0
 10
-0.0013033186139848
 20
27.02823883347029
 30
170.0629905547893
 70
   192
  0
VERTEX
  5
156C
  8
0
 10
-0.0045154113880547
 20
93.64066170312978
 30
188.7356556509537
 70
   192
  0
VERTEX
  5
156D
  8
0
 10
94.3633123043754
 20
93.64521217891873
 30
163.449872393638
 70
   192
  0
VERTEX
  5
156E
  8
0
 10
85.0301918599218
 20
27.03233910545358
 30
147.2788700640006
 70
   192
  0
VERTEX
  5
156F
  8
0
 10
-85.03279849714978
 20
27.024138561487
 30
147.2788700640006
 70
   192
  0
VERTEX
  5
1570
  8
0
 10
-94.37234312715152
 20
93.63611122734083
 30
163.449872393638
 70
   192
  0
VERTEX
  5
1571
  8
0
 10
-147.280173211386
 20
27.02113695407037
 30
85.03149527739471
 70
   192
  0
VERTEX
  5
1572
  8
0
 10
-170.0642936756855
 20
27.02003828950336
 30
0.0000000000000208
 70
   192
  0
VERTEX
  5
1573
  8
0
 10
-176.8591443228876
 20
49.06155945499808
 30
0.0000000000000217
 70
   192
  0
VERTEX
  5
1574
  8
0
 10
-183.0858053155561
 20
71.27028169399946
 30
0.0000000000000224
 70
   192
  0
VERTEX
  5
1575
  8
0
 10
-188.7401708429148
 20
93.63156075155229
 30
0.0000000000000231
 70
   192
  0
VERTEX
  5
1576
  8
0
 10
-163.4543876149969
 20
93.63278004786471
 30
94.36782782547695
 70
   192
  0
VERTEX
  5
1577
  8
0
 10
0.0
 20
0.0
 30
0.0
 70
   128
 71
     1
 72
     2
 73
     3
  0
VERTEX
  5
1578
  8
0
 10
0.0
 20
0.0
 30
0.0
 70
   128
 71
     4
 72
     1
 73
     3
  0
VERTEX
  5
1579
  8
0
 10
0.0
 20
0.0
 30
0.0
 70
   128
 71
     3
 72
     5
 73
     4
  0
VERTEX
  5
157A
  8
0
 10
0.0
 20
0.0
 30
0.0
 70
   128
 71
     4
 72
     6
 73
     1
  0
VERTEX
  5
157B
  8
0
 10
0.0
 20
0.0
 30
0.0
 70
   128
 71
     7
 72
     8
 73
     1
  0
VERTEX
  5
157C
  8
0
 10
0.0
 20
0.0
 30
0.0
 70
   128
 71
     9
 72
     7
 73
     1
  0
VERTEX
  5
157D
  8
0
 10
0.0
 20
0.0
 30
0.0
 70
   128
 71
     6
 72
     9
 73
     1
  0
VERTEX
  5
157E
  8
0
 10
0.0
 20
0.0
 30
0.0
 70
   128
 71
     9
 72
    10
 73
     7
  0
VERTEX
  5
157F
  8
0
 10
0.0
 20
0.0
 30
0.0
 70
   128
 71
    10
 72
    11
 73
     7
  0
VERTEX
  5
1580
  8
0
 10
0.0
 20
0.0
 30
0.0
 70
   128
 71
    11
 72
    12
 73
     7
  0
VERTEX
  5
1581
  8
0
 10
0.0
 20
0.0
 30
0.0
 70
   128
 71
    11
 72
    13
 73
    12
  0
VERTEX
  5
1582
  8
0
 10
0.0
 20
0.0
 30
0.0
 70
   128
 71
    12
 72
    14
 73
     7
  0
VERTEX
  5
1583
  8
0
 10
0.0
 20
0.0
 30
0.0
 70
   128
 71
    14
 72
    15
 73
     7
  0
VERTEX
  5
1584
  8
0
 10
0.0
 20
0.0
 30
0.0
 70
   128
 71
    16
 72
    17
 73
   -18
  0
VERTEX
  5
1585
  8
0
 10
0.0
 20
0.0
 30
0.0
 70
   128
 71
    19
 72
   -16
 73
    18
  0
VERTEX
  5
1586
  8
0
 10
0.0
 20
0.0
 30
0.0
 70
   128
 71
    17
 72
    16
 73
   -20
  0
VERTEX
  5
1587
  8
0
 10
0.0
 20
0.0
 30
0.0
 70
   128
 71
    21
 72
   -17
 73
    20
  0
VERTEX
  5
1588
  8
0
 10
0.0
 20
0.0
 30
0.0
 70
   128
 71
    22
 72
    23
 73
    24
  0
VERTEX
  5
1589
  8
0
 10
0.0
 20
0.0
 30
0.0
 70
   128
 71
    25
 72
    26
 73
    27
  0
VERTEX
  5
158A
  8
0
 10
0.0
 20
0.0
 30
0.0
 70
   128
 71
    18
 72
     8
 73
    -7
  0
VERTEX
  5
158B
  8
0
 10
0.0
 20
0.0
 30
0.0
 70
   128
 71
    19
 72
   -18
 73
     7
  0
VERTEX
  5
158C
  8
0
 10
0.0
 20
0.0
 30
0.0
 70
   128
 71
    21
 72
    20
 73
   -22
  0
VERTEX
  5
158D
  8
0
 10
0.0
 20
0.0
 30
0.0
 70
   128
 71
    24
 72
    25
 73
    27
  0
VERTEX
  5
158E
  8
0
 10
0.0
 20
0.0
 30
0.0
 70
   128
 71
    22
 72
    24
 73
    27
  0
VERTEX
  5
158F
  8
0
 10
0.0
 20
0.0
 30
0.0
 70
   128
 71
    27
 72
   -21
 73
    22
  0
SEQEND
  5
1A83
  8
0
  0
POLYLINE
  5
1590
  8
0
 66
     1
 10
0.0
 20
0.0
 30
0.0
 70
    64
 71
    16
 72
    14
  0
VERTEX
  5
1591
  8
0
 10
33.79559870274035
 20
-86.71952200418897
 30
-3.375103861050801
 70
   192
  0
VERTEX
  5
1592
  8
0
 10
33.9637338908713
 20
-86.71952200418896
 30
0.0000000000000042
 70
   192
  0
VERTEX
  5
1593
  8
0
 10
33.90195126124364
 20
-94.994772937102
 30
0.0000000000000042
 70
   192
  0
VERTEX
  5
1594
  8
0
 10
33.29119313834752
 20
-86.71952200418897
 30
-6.725033159357275
 70
   192
  0
VERTEX
  5
1595
  8
0
 10
32.45801386075654
 20
-86.71952200418896
 30
-10.0
 70
   192
  0
VERTEX
  5
1596
  8
0
 10
23.97364131352517
 20
-94.99525168642934
 30
-23.9690605550924
 70
   192
  0
VERTEX
  5
1597
  8
0
 10
32.5130307790781
 20
-79.67870614350771
 30
-9.999999999999998
 70
   192
  0
VERTEX
  5
1598
  8
0
 10
-23.96447974092608
 20
-94.99756329266746
 30
-23.96906055509239
 70
   192
  0
VERTEX
  5
1599
  8
0
 10
-33.89278968864453
 20
-94.99804204199481
 30
0.0000000000000042
 70
   192
  0
VERTEX
  5
159A
  8
0
 10
-34.11510720436856
 20
-65.600292386835
 30
0.0
 70
   192
  0
VERTEX
  5
159B
  8
0
 10
-25.84787295672634
 20
-65.59989373561883
 30
-22.26612463569386
 70
   192
  0
VERTEX
  5
159C
  8
0
 10
18.1927246052084
 20
-65.59777007040594
 30
-28.86513873226668
 70
   192
  0
VERTEX
  5
159D
  8
0
 10
0.0045807862995501
 20
-94.9964074895484
 30
-33.89737051435365
 70
   192
  0
VERTEX
  5
159E
  8
0
 10
-5.052654791098852
 20
-65.59889097716737
 30
-33.74159277407481
 70
   192
  0
VERTEX
  5
159F
  8
0
 10
32.56803955101555
 20
-72.63789021918427
 30
-10.0
 70
   192
  0
VERTEX
  5
15A0
  8
0
 10
32.6230402179975
 20
-65.5970742315442
 30
-10.00000000000001
 70
   192
  0
VERTEX
  5
15A1
  8
0
 10
0.0
 20
0.0
 30
0.0
 70
   128
 71
     1
 72
     2
 73
     3
  0
VERTEX
  5
15A2
  8
0
 10
0.0
 20
0.0
 30
0.0
 70
   128
 71
     3
 72
     4
 73
     1
  0
VERTEX
  5
15A3
  8
0
 10
0.0
 20
0.0
 30
0.0
 70
   128
 71
     5
 72
     4
 73
     3
  0
VERTEX
  5
15A4
  8
0
 10
0.0
 20
0.0
 30
0.0
 70
   128
 71
     5
 72
     3
 73
     6
  0
VERTEX
  5
15A5
  8
0
 10
0.0
 20
0.0
 30
0.0
 70
   128
 71
     6
 72
     7
 73
     5
  0
VERTEX
  5
15A6
  8
0
 10
0.0
 20
0.0
 30
0.0
 70
   128
 71
     8
 72
     9
 73
    10
  0
VERTEX
  5
15A7
  8
0
 10
0.0
 20
0.0
 30
0.0
 70
   128
 71
     8
 72
    10
 73
    11
  0
VERTEX
  5
15A8
  8
0
 10
0.0
 20
0.0
 30
0.0
 70
   128
 71
    12
 72
     6
 73
    13
  0
VERTEX
  5
15A9
  8
0
 10
0.0
 20
0.0
 30
0.0
 70
   128
 71
    12
 72
    13
 73
    14
  0
VERTEX
  5
15AA
  8
0
 10
0.0
 20
0.0
 30
0.0
 70
   128
 71
    15
 72
     7
 73
     6
  0
VERTEX
  5
15AB
  8
0
 10
0.0
 20
0.0
 30
0.0
 70
   128
 71
    15
 72
     6
 73
    12
  0
VERTEX
  5
15AC
  8
0
 10
0.0
 20
0.0
 30
0.0
 70
   128
 71
    12
 72
    16
 73
    15
  0
VERTEX
  5
15AD
  8
0
 10
0.0
 20
0.0
 30
0.0
 70
   128
 71
    14
 72
    13
 73
     8
  0
VERTEX
  5
15AE
  8
0
 10
0.0
 20
0.0
 30
0.0
 70
   128
 71
    14
 72
     8
 73
    11
  0
SEQEND
  5
1A84
  8
0
  0
POLYLINE
  5
15AF
  8
0
 66
     1
 10
0.0
 20
0.0
 30
0.0
 70
    64
 71
    20
 72
    18
  0
VERTEX
  5
15B0
  8
0
 10
22.51190149720253
 20
-61.49589985241035
 30
0.0
 70
   192
  0
VERTEX
  5
15B1
  8
0
 10
-22.50597065086992
 20
-61.4980706424162
 30
0.0000000000000028
 70
   192
  0
VERTEX
  5
15B2
  8
0
 10
-22.50597065086991
 20
-94.99804204199471
 30
0.0000000000000028
 70
   192
  0
VERTEX
  5
15B3
  8
0
 10
22.51513227642294
 20
-94.99587109619866
 30
0.0
 70
   192
  0
VERTEX
  5
15B4
  8
0
 10
0.0045808127765138
 20
-94.99695656909668
 30
22.51055148981752
 70
   192
  0
VERTEX
  5
15B5
  8
0
 10
0.0029654231663108
 20
-61.49698524741327
 30
22.50893610020543
 70
   192
  0
VERTEX
  5
15B6
  8
0
 10
15.92194440096967
 20
-94.9961890238497
 30
15.91736360669891
 70
   192
  0
VERTEX
  5
15B7
  8
0
 10
15.91918675841183
 20
-61.49621775724643
 30
15.91622135374994
 70
   192
  0
VERTEX
  5
15B8
  8
0
 10
-15.91278277541664
 20
-94.99772411434367
 30
15.91736360669891
 70
   192
  0
VERTEX
  5
15B9
  8
0
 10
-15.91325591207921
 20
-61.49775273758011
 30
15.91622135374994
 70
   192
  0
VERTEX
  5
15BA
  8
0
 10
22.51229103101594
 20
-65.5349785567417
 30
0.0
 70
   192
  0
VERTEX
  5
15BB
  8
0
 10
22.24883710127033
 20
-65.53704668073172
 30
3.433779095450297
 70
   192
  0
VERTEX
  5
15BC
  8
0
 10
21.45847531203348
 20
-65.54325105270175
 30
6.806648161878435
 70
   192
  0
VERTEX
  5
15BD
  8
0
 10
20.16899879621288
 20
-65.55337349543584
 30
10.0
 70
   192
  0
VERTEX
  5
15BE
  8
0
 10
20.16971875885236
 20
-72.60875633168673
 30
9.999999999999998
 70
   192
  0
VERTEX
  5
15BF
  8
0
 10
20.1704387200805
 20
-79.66413916793778
 30
10.0
 70
   192
  0
VERTEX
  5
15C0
  8
0
 10
20.17115867989738
 20
-86.71952200418896
 30
10.0
 70
   192
  0
VERTEX
  5
15C1
  8
0
 10
21.46057211801774
 20
-86.71952200418895
 30
6.806634331218915
 70
   192
  0
VERTEX
  5
15C2
  8
0
 10
22.25089360071074
 20
-86.71952200418895
 30
3.433769126084323
 70
   192
  0
VERTEX
  5
15C3
  8
0
 10
22.51433409494175
 20
-86.71952200418896
 30
0.0
 70
   192
  0
VERTEX
  5
15C4
  8
0
 10
0.0
 20
0.0
 30
0.0
 70
   128
 71
     1
 72
    11
 73
    12
  0
VERTEX
  5
15C5
  8
0
 10
0.0
 20
0.0
 30
0.0
 70
   128
 71
    12
 72
    13
 73
     1
  0
VERTEX
  5
15C6
  8
0
 10
0.0
 20
0.0
 30
0.0
 70
   128
 71
    14
 72
     8
 73
     1
  0
VERTEX
  5
15C7
  8
0
 10
0.0
 20
0.0
 30
0.0
 70
   128
 71
    13
 72
    14
 73
     1
  0
VERTEX
  5
15C8
  8
0
 10
0.0
 20
0.0
 30
0.0
 70
   128
 71
    14
 72
   -15
 73
     8
  0
VERTEX
  5
15C9
  8
0
 10
0.0
 20
0.0
 30
0.0
 70
   128
 71
    16
 72
     7
 73
     8
  0
VERTEX
  5
15CA
  8
0
 10
0.0
 20
0.0
 30
0.0
 70
   128
 71
    15
 72
    16
 73
    -8
  0
VERTEX
  5
15CB
  8
0
 10
0.0
 20
0.0
 30
0.0
 70
   128
 71
    16
 72
    17
 73
     7
  0
VERTEX
  5
15CC
  8
0
 10
0.0
 20
0.0
 30
0.0
 70
   128
 71
    18
 72
     4
 73
     7
  0
VERTEX
  5
15CD
  8
0
 10
0.0
 20
0.0
 30
0.0
 70
   128
 71
    17
 72
    18
 73
     7
  0
VERTEX
  5
15CE
  8
0
 10
0.0
 20
0.0
 30
0.0
 70
   128
 71
    18
 72
    19
 73
     4
  0
VERTEX
  5
15CF
  8
0
 10
0.0
 20
0.0
 30
0.0
 70
   128
 71
    19
 72
    20
 73
     4
  0
VERTEX
  5
15D0
  8
0
 10
0.0
 20
0.0
 30
0.0
 70
   128
 71
     6
 72
     8
 73
    -7
  0
VERTEX
  5
15D1
  8
0
 10
0.0
 20
0.0
 30
0.0
 70
   128
 71
     5
 72
    -6
 73
     7
  0
VERTEX
  5
15D2
  8
0
 10
0.0
 20
0.0
 30
0.0
 70
   128
 71
    10
 72
     6
 73
    -5
  0
VERTEX
  5
15D3
  8
0
 10
0.0
 20
0.0
 30
0.0
 70
   128
 71
     9
 72
   -10
 73
     5
  0
VERTEX
  5
15D4
  8
0
 10
0.0
 20
0.0
 30
0.0
 70
   128
 71
     3
 72
     2
 73
   -10
  0
VERTEX
  5
15D5
  8
0
 10
0.0
 20
0.0
 30
0.0
 70
   128
 71
     9
 72
    -3
 73
    10
  0
SEQEND
  5
1A85
  8
0
  0
POLYLINE
  5
15D6
  8
0
 66
     1
 10
0.0
 20
0.0
 30
0.0
 70
    64
 71
    27
 72
    34
  0
VERTEX
  5
15D7
  8
0
 10
99.78662185912921
 20
94.06860448708228
 30
-172.8433554386937
 70
   192
  0
VERTEX
  5
15D8
  8
0
 10
-0.0045358150201238
 20
94.06379249492417
 30
-199.5823155803359
 70
   192
  0
VERTEX
  5
15D9
  8
0
 10
-0.0045547344289323
 20
94.4561434488238
 30
-199.2629117794596
 70
   192
  0
VERTEX
  5
15DA
  8
0
 10
140.8956012599912
 20
94.46293774264225
 30
-140.9001561582327
 70
   192
  0
VERTEX
  5
15DB
  8
0
 10
199.5777795332787
 20
94.07341647924045
 30
0.0
 70
   192
  0
VERTEX
  5
15DC
  8
0
 10
172.8388194227234
 20
94.07212710982765
 30
-99.79115779016809
 70
   192
  0
VERTEX
  5
15DD
  8
0
 10
-140.9047107288491
 20
94.44934915500535
 30
-140.9001561582327
 70
   192
  0
VERTEX
  5
15DE
  8
0
 10
-99.79569348916945
 20
94.05898050276606
 30
-172.8433554386937
 70
   192
  0
VERTEX
  5
15DF
  8
0
 10
-0.0045691846508445
 20
94.75581234392878
 30
-198.855288653894
 70
   192
  0
VERTEX
  5
15E0
  8
0
 10
140.6073537338485
 20
94.7625927389677
 30
-140.6119230819768
 70
   192
  0
VERTEX
  5
15E1
  8
0
 10
-199.1402132531126
 20
94.55781080184722
 30
0.0000000000000244
 70
   192
  0
VERTEX
  5
15E2
  8
0
 10
-140.6164921031502
 20
94.74903194888986
 30
-140.6119230819768
 70
   192
  0
VERTEX
  5
15E3
  8
0
 10
-0.0045782413629031
 20
94.94363055962042
 30
-198.3855202245902
 70
   192
  0
VERTEX
  5
15E4
  8
0
 10
140.2751682355745
 20
94.95039493690315
 30
-140.2797466400287
 70
   192
  0
VERTEX
  5
15E5
  8
0
 10
198.5426452718332
 20
94.9039257565114
 30
0.0
 70
   192
  0
VERTEX
  5
15E6
  8
0
 10
-140.2843247183004
 20
94.93686618233767
 30
-140.2797466400287
 70
   192
  0
VERTEX
  5
15E7
  8
0
 10
-0.0045813252435209
 20
95.00758411586709
 30
-197.8836556990138
 70
   192
  0
VERTEX
  5
15E8
  8
0
 10
98.93724640923219
 20
95.01235515280328
 30
-171.3722728290793
 70
   192
  0
VERTEX
  5
15E9
  8
0
 10
-197.8882367941948
 20
94.99804204199476
 30
0.0000000000000242
 70
   192
  0
VERTEX
  5
15EA
  8
0
 10
-171.3768539550829
 20
94.99932043748883
 30
-98.94182784950688
 70
   192
  0
VERTEX
  5
15EB
  8
0
 10
-98.94640905971923
 20
95.0028130789309
 30
-171.3722728290793
 70
   192
  0
VERTEX
  5
15EC
  8
0
 10
199.131093053199
 20
94.57701569386344
 30
0.0
 70
   192
  0
VERTEX
  5
15ED
  8
0
 10
-198.5517970021802
 20
94.88477761361358
 30
0.0000000000000243
 70
   192
  0
VERTEX
  5
15EE
  8
0
 10
171.3676913045959
 20
95.01584779424535
 30
-98.94182784950702
 70
   192
  0
VERTEX
  5
15EF
  8
0
 10
197.879074143708
 20
95.01712618973946
 30
-0.0000000000001428
 70
   192
  0
VERTEX
  5
15F0
  8
0
 10
-172.8478910527636
 20
94.0554578800207
 30
-99.79115779016794
 70
   192
  0
VERTEX
  5
15F1
  8
0
 10
-199.5868511633187
 20
94.05416851060795
 30
0.0000000000000244
 70
   192
  0
VERTEX
  5
15F2
  8
0
 10
0.0
 20
0.0
 30
0.0
 70
   128
 71
     1
 72
     2
 73
     3
  0
VERTEX
  5
15F3
  8
0
 10
0.0
 20
0.0
 30
0.0
 70
   128
 71
     1
 72
     3
 73
     4
  0
VERTEX
  5
15F4
  8
0
 10
0.0
 20
0.0
 30
0.0
 70
   128
 71
     4
 72
     5
 73
     6
  0
VERTEX
  5
15F5
  8
0
 10
0.0
 20
0.0
 30
0.0
 70
   128
 71
     7
 72
     3
 73
     2
  0
VERTEX
  5
15F6
  8
0
 10
0.0
 20
0.0
 30
0.0
 70
   128
 71
     7
 72
     2
 73
     8
  0
VERTEX
  5
15F7
  8
0
 10
0.0
 20
0.0
 30
0.0
 70
   128
 71
     9
 72
    10
 73
    -4
  0
VERTEX
  5
15F8
  8
0
 10
0.0
 20
0.0
 30
0.0
 70
   128
 71
    -9
 72
     4
 73
     3
  0
VERTEX
  5
15F9
  8
0
 10
0.0
 20
0.0
 30
0.0
 70
   128
 71
    11
 72
    12
 73
     7
  0
VERTEX
  5
15FA
  8
0
 10
0.0
 20
0.0
 30
0.0
 70
   128
 71
    12
 72
     9
 73
    -3
  0
VERTEX
  5
15FB
  8
0
 10
0.0
 20
0.0
 30
0.0
 70
   128
 71
   -12
 72
     3
 73
     7
  0
VERTEX
  5
15FC
  8
0
 10
0.0
 20
0.0
 30
0.0
 70
   128
 71
    13
 72
    14
 73
   -10
  0
VERTEX
  5
15FD
  8
0
 10
0.0
 20
0.0
 30
0.0
 70
   128
 71
   -13
 72
    10
 73
     9
  0
VERTEX
  5
15FE
  8
0
 10
0.0
 20
0.0
 30
0.0
 70
   128
 71
    15
 72
    10
 73
    14
  0
VERTEX
  5
15FF
  8
0
 10
0.0
 20
0.0
 30
0.0
 70
   128
 71
    16
 72
    13
 73
    -9
  0
VERTEX
  5
1600
  8
0
 10
0.0
 20
0.0
 30
0.0
 70
   128
 71
   -16
 72
     9
 73
    12
  0
VERTEX
  5
1601
  8
0
 10
0.0
 20
0.0
 30
0.0
 70
   128
 71
    14
 72
    13
 73
    17
  0
VERTEX
  5
1602
  8
0
 10
0.0
 20
0.0
 30
0.0
 70
   128
 71
    14
 72
    17
 73
    18
  0
VERTEX
  5
1603
  8
0
 10
0.0
 20
0.0
 30
0.0
 70
   128
 71
    16
 72
    19
 73
    20
  0
VERTEX
  5
1604
  8
0
 10
0.0
 20
0.0
 30
0.0
 70
   128
 71
    21
 72
    17
 73
    13
  0
VERTEX
  5
1605
  8
0
 10
0.0
 20
0.0
 30
0.0
 70
   128
 71
    21
 72
    13
 73
    16
  0
VERTEX
  5
1606
  8
0
 10
0.0
 20
0.0
 30
0.0
 70
   128
 71
     4
 72
    10
 73
    15
  0
VERTEX
  5
1607
  8
0
 10
0.0
 20
0.0
 30
0.0
 70
   128
 71
     4
 72
    15
 73
    22
  0
VERTEX
  5
1608
  8
0
 10
0.0
 20
0.0
 30
0.0
 70
   128
 71
    23
 72
    16
 73
    12
  0
VERTEX
  5
1609
  8
0
 10
0.0
 20
0.0
 30
0.0
 70
   128
 71
    23
 72
    12
 73
    11
  0
VERTEX
  5
160A
  8
0
 10
0.0
 20
0.0
 30
0.0
 70
   128
 71
    14
 72
    24
 73
    25
  0
VERTEX
  5
160B
  8
0
 10
0.0
 20
0.0
 30
0.0
 70
   128
 71
    14
 72
    25
 73
    15
  0
VERTEX
  5
160C
  8
0
 10
0.0
 20
0.0
 30
0.0
 70
   128
 71
    19
 72
    16
 73
    23
  0
VERTEX
  5
160D
  8
0
 10
0.0
 20
0.0
 30
0.0
 70
   128
 71
     4
 72
    22
 73
     5
  0
VERTEX
  5
160E
  8
0
 10
0.0
 20
0.0
 30
0.0
 70
   128
 71
    11
 72
     7
 73
    26
  0
VERTEX
  5
160F
  8
0
 10
0.0
 20
0.0
 30
0.0
 70
   128
 71
    11
 72
    26
 73
    27
  0
VERTEX
  5
1610
  8
0
 10
0.0
 20
0.0
 30
0.0
 70
   128
 71
     1
 72
     4
 73
     6
  0
VERTEX
  5
1611
  8
0
 10
0.0
 20
0.0
 30
0.0
 70
   128
 71
    26
 72
     7
 73
     8
  0
VERTEX
  5
1612
  8
0
 10
0.0
 20
0.0
 30
0.0
 70
   128
 71
    18
 72
    24
 73
    14
  0
VERTEX
  5
1613
  8
0
 10
0.0
 20
0.0
 30
0.0
 70
   128
 71
    20
 72
    21
 73
    16
  0
SEQEND
  5
1A86
  8
0
  0
POLYLINE
  5
1614
  8
0
 66
     1
 10
0.0
 20
0.0
 30
0.0
 70
    64
 71
    14
 72
    12
  0
VERTEX
  5
1615
  8
0
 10
-173.1780810638835
 20
93.44245219460643
 30
-99.98181014794592
 70
   192
  0
VERTEX
  5
1616
  8
0
 10
-199.9681263196809
 20
93.44116036183597
 30
0.0000000000000245
 70
   192
  0
VERTEX
  5
1617
  8
0
 10
-199.5868511633188
 20
94.05416851060794
 30
0.0000000000000244
 70
   192
  0
VERTEX
  5
1618
  8
0
 10
-172.8478910527636
 20
94.0554578800207
 30
-99.79115779016794
 70
   192
  0
VERTEX
  5
1619
  8
0
 10
-99.79569348916945
 20
94.05898050276606
 30
-172.8433554386937
 70
   192
  0
VERTEX
  5
161A
  8
0
 10
-0.0045358150201238
 20
94.06379249492417
 30
-199.5823155803359
 70
   192
  0
VERTEX
  5
161B
  8
0
 10
-0.0045062562696636
 20
93.4508027329045
 30
-199.9636202958919
 70
   192
  0
VERTEX
  5
161C
  8
0
 10
-99.9863162879753
 20
93.44598154737024
 30
-173.1735750089479
 70
   192
  0
VERTEX
  5
161D
  8
0
 10
99.977303775436
 20
93.45562391843877
 30
-173.173575008948
 70
   192
  0
VERTEX
  5
161E
  8
0
 10
99.78662185912921
 20
94.06860448708228
 30
-172.8433554386937
 70
   192
  0
VERTEX
  5
161F
  8
0
 10
172.8388194227234
 20
94.07212710982765
 30
-99.79115779016809
 70
   192
  0
VERTEX
  5
1620
  8
0
 10
199.5777795332786
 20
94.0734164792404
 30
-0.000000000000144
 70
   192
  0
VERTEX
  5
1621
  8
0
 10
199.9591138071417
 20
93.46044510397304
 30
0.0
 70
   192
  0
VERTEX
  5
1622
  8
0
 10
173.1690685513442
 20
93.45915327120258
 30
-99.98181014794606
 70
   192
  0
VERTEX
  5
1623
  8
0
 10
0.0
 20
0.0
 30
0.0
 70
   128
 71
     1
 72
     2
 73
    -3
  0
VERTEX
  5
1624
  8
0
 10
0.0
 20
0.0
 30
0.0
 70
   128
 71
    -1
 72
     3
 73
     4
  0
VERTEX
  5
1625
  8
0
 10
0.0
 20
0.0
 30
0.0
 70
   128
 71
     5
 72
     6
 73
    -7
  0
VERTEX
  5
1626
  8
0
 10
0.0
 20
0.0
 30
0.0
 70
   128
 71
    -5
 72
     7
 73
     8
  0
VERTEX
  5
1627
  8
0
 10
0.0
 20
0.0
 30
0.0
 70
   128
 71
     9
 72
     7
 73
    -6
  0
VERTEX
  5
1628
  8
0
 10
0.0
 20
0.0
 30
0.0
 70
   128
 71
    -9
 72
     6
 73
    10
  0
VERTEX
  5
1629
  8
0
 10
0.0
 20
0.0
 30
0.0
 70
   128
 71
    11
 72
    12
 73
   -13
  0
VERTEX
  5
162A
  8
0
 10
0.0
 20
0.0
 30
0.0
 70
   128
 71
   -11
 72
    13
 73
    14
  0
VERTEX
  5
162B
  8
0
 10
0.0
 20
0.0
 30
0.0
 70
   128
 71
     1
 72
     4
 73
    -5
  0
VERTEX
  5
162C
  8
0
 10
0.0
 20
0.0
 30
0.0
 70
   128
 71
    -1
 72
     5
 73
     8
  0
VERTEX
  5
162D
  8
0
 10
0.0
 20
0.0
 30
0.0
 70
   128
 71
     9
 72
    10
 73
   -11
  0
VERTEX
  5
162E
  8
0
 10
0.0
 20
0.0
 30
0.0
 70
   128
 71
    -9
 72
    11
 73
    14
  0
SEQEND
  5
1A87
  8
0
  0
POLYLINE
  5
162F
  8
0
 66
     1
 10
0.0
 20
0.0
 30
0.0
 70
    64
 71
    27
 72
    34
  0
VERTEX
  5
1630
  8
0
 10
-0.0044778848598933
 20
92.86243605984126
 30
200.4425965866166
 70
   192
  0
VERTEX
  5
1631
  8
0
 10
-0.0045062562695304
 20
93.4508027329045
 30
199.9636202958919
 70
   192
  0
VERTEX
  5
1632
  8
0
 10
-99.98631628797517
 20
93.44598154737024
 30
173.173575008948
 70
   192
  0
VERTEX
  5
1633
  8
0
 10
-141.7387970051137
 20
92.85560154215413
 30
141.7343192850362
 70
   192
  0
VERTEX
  5
1634
  8
0
 10
-173.1780810638834
 20
93.44245219460643
 30
99.98181014794604
 70
   192
  0
VERTEX
  5
1635
  8
0
 10
-199.9681263196809
 20
93.44116036183594
 30
0.0000000000000245
 70
   192
  0
VERTEX
  5
1636
  8
0
 10
141.7298412353939
 20
92.86927057752837
 30
141.7343192850362
 70
   192
  0
VERTEX
  5
1637
  8
0
 10
99.97730377543611
 20
93.45562391843877
 30
173.1735750089479
 70
   192
  0
VERTEX
  5
1638
  8
0
 10
-142.1710084464663
 20
92.40620034350253
 30
142.1665523962937
 70
   192
  0
VERTEX
  5
1639
  8
0
 10
-0.0044562154575137
 20
92.41305570374112
 30
201.0538665146638
 70
   192
  0
VERTEX
  5
163A
  8
0
 10
142.1620960155513
 20
92.41991106397971
 30
142.1665523962937
 70
   192
  0
VERTEX
  5
163B
  8
0
 10
200.6289626530588
 20
92.7052515378621
 30
0.0
 70
   192
  0
VERTEX
  5
163C
  8
0
 10
-142.6691251948544
 20
92.12452764528656
 30
142.6646827265367
 70
   192
  0
VERTEX
  5
163D
  8
0
 10
-0.0044426341817599
 20
92.1314070256818
 30
201.7583291835227
 70
   192
  0
VERTEX
  5
163E
  8
0
 10
-201.5202888614804
 20
92.19558718811916
 30
0.0000000000000247
 70
   192
  0
VERTEX
  5
163F
  8
0
 10
142.6602399264909
 20
92.13828640607703
 30
142.6646827265367
 70
   192
  0
VERTEX
  5
1640
  8
0
 10
-0.0044380097814552
 20
92.03550615128601
 30
202.5109224677468
 70
   192
  0
VERTEX
  5
1641
  8
0
 10
-101.2598991259338
 20
92.0306235494983
 30
175.3796034008896
 70
   192
  0
VERTEX
  5
1642
  8
0
 10
175.3751651872092
 20
92.04396306565545
 30
101.2554612338734
 70
   192
  0
VERTEX
  5
1643
  8
0
 10
202.5064842225231
 20
92.04527135486143
 30
0.0
 70
   192
  0
VERTEX
  5
1644
  8
0
 10
101.2510231063709
 20
92.04038875307373
 30
175.3796034008895
 70
   192
  0
VERTEX
  5
1645
  8
0
 10
-200.6379023307026
 20
92.68590219814794
 30
0.0000000000000246
 70
   192
  0
VERTEX
  5
1646
  8
0
 10
201.5113964662794
 20
92.21502162857786
 30
0.0
 70
   192
  0
VERTEX
  5
1647
  8
0
 10
-202.5153602425264
 20
92.02574094771053
 30
0.0000000000000248
 70
   192
  0
VERTEX
  5
1648
  8
0
 10
-175.3840412067722
 20
92.02704923691658
 30
101.2554612338735
 70
   192
  0
VERTEX
  5
1649
  8
0
 10
199.9591138071417
 20
93.46044510397302
 30
0.0
 70
   192
  0
VERTEX
  5
164A
  8
0
 10
173.1690685513443
 20
93.45915327120258
 30
99.98181014794594
 70
   192
  0
VERTEX
  5
164B
  8
0
 10
0.0
 20
0.0
 30
0.0
 70
   128
 71
     1
 72
     2
 73
     3
  0
VERTEX
  5
164C
  8
0
 10
0.0
 20
0.0
 30
0.0
 70
   128
 71
     4
 72
     1
 73
     3
  0
VERTEX
  5
164D
  8
0
 10
0.0
 20
0.0
 30
0.0
 70
   128
 71
     5
 72
     6
 73
     4
  0
VERTEX
  5
164E
  8
0
 10
0.0
 20
0.0
 30
0.0
 70
   128
 71
     2
 72
     1
 73
     7
  0
VERTEX
  5
164F
  8
0
 10
0.0
 20
0.0
 30
0.0
 70
   128
 71
     8
 72
     2
 73
     7
  0
VERTEX
  5
1650
  8
0
 10
0.0
 20
0.0
 30
0.0
 70
   128
 71
     4
 72
     9
 73
   -10
  0
VERTEX
  5
1651
  8
0
 10
0.0
 20
0.0
 30
0.0
 70
   128
 71
     1
 72
    -4
 73
    10
  0
VERTEX
  5
1652
  8
0
 10
0.0
 20
0.0
 30
0.0
 70
   128
 71
     7
 72
    11
 73
    12
  0
VERTEX
  5
1653
  8
0
 10
0.0
 20
0.0
 30
0.0
 70
   128
 71
     1
 72
    10
 73
   -11
  0
VERTEX
  5
1654
  8
0
 10
0.0
 20
0.0
 30
0.0
 70
   128
 71
     7
 72
    -1
 73
    11
  0
VERTEX
  5
1655
  8
0
 10
0.0
 20
0.0
 30
0.0
 70
   128
 71
     9
 72
    13
 73
   -14
  0
VERTEX
  5
1656
  8
0
 10
0.0
 20
0.0
 30
0.0
 70
   128
 71
    10
 72
    -9
 73
    14
  0
VERTEX
  5
1657
  8
0
 10
0.0
 20
0.0
 30
0.0
 70
   128
 71
    13
 72
     9
 73
    15
  0
VERTEX
  5
1658
  8
0
 10
0.0
 20
0.0
 30
0.0
 70
   128
 71
    10
 72
    14
 73
   -16
  0
VERTEX
  5
1659
  8
0
 10
0.0
 20
0.0
 30
0.0
 70
   128
 71
    11
 72
   -10
 73
    16
  0
VERTEX
  5
165A
  8
0
 10
0.0
 20
0.0
 30
0.0
 70
   128
 71
    17
 72
    14
 73
    13
  0
VERTEX
  5
165B
  8
0
 10
0.0
 20
0.0
 30
0.0
 70
   128
 71
    18
 72
    17
 73
    13
  0
VERTEX
  5
165C
  8
0
 10
0.0
 20
0.0
 30
0.0
 70
   128
 71
    19
 72
    20
 73
    16
  0
VERTEX
  5
165D
  8
0
 10
0.0
 20
0.0
 30
0.0
 70
   128
 71
    14
 72
    17
 73
    21
  0
VERTEX
  5
165E
  8
0
 10
0.0
 20
0.0
 30
0.0
 70
   128
 71
    16
 72
    14
 73
    21
  0
VERTEX
  5
165F
  8
0
 10
0.0
 20
0.0
 30
0.0
 70
   128
 71
    15
 72
     9
 73
     4
  0
VERTEX
  5
1660
  8
0
 10
0.0
 20
0.0
 30
0.0
 70
   128
 71
    22
 72
    15
 73
     4
  0
VERTEX
  5
1661
  8
0
 10
0.0
 20
0.0
 30
0.0
 70
   128
 71
    16
 72
    23
 73
    12
  0
VERTEX
  5
1662
  8
0
 10
0.0
 20
0.0
 30
0.0
 70
   128
 71
    11
 72
    16
 73
    12
  0
VERTEX
  5
1663
  8
0
 10
0.0
 20
0.0
 30
0.0
 70
   128
 71
    24
 72
    25
 73
    13
  0
VERTEX
  5
1664
  8
0
 10
0.0
 20
0.0
 30
0.0
 70
   128
 71
    15
 72
    24
 73
    13
  0
VERTEX
  5
1665
  8
0
 10
0.0
 20
0.0
 30
0.0
 70
   128
 71
    16
 72
    20
 73
    23
  0
VERTEX
  5
1666
  8
0
 10
0.0
 20
0.0
 30
0.0
 70
   128
 71
     6
 72
    22
 73
     4
  0
VERTEX
  5
1667
  8
0
 10
0.0
 20
0.0
 30
0.0
 70
   128
 71
     7
 72
    12
 73
    26
  0
VERTEX
  5
1668
  8
0
 10
0.0
 20
0.0
 30
0.0
 70
   128
 71
    27
 72
     7
 73
    26
  0
VERTEX
  5
1669
  8
0
 10
0.0
 20
0.0
 30
0.0
 70
   128
 71
     5
 72
     4
 73
     3
  0
VERTEX
  5
166A
  8
0
 10
0.0
 20
0.0
 30
0.0
 70
   128
 71
     8
 72
     7
 73
    27
  0
VERTEX
  5
166B
  8
0
 10
0.0
 20
0.0
 30
0.0
 70
   128
 71
    13
 72
    25
 73
    18
  0
VERTEX
  5
166C
  8
0
 10
0.0
 20
0.0
 30
0.0
 70
   128
 71
    16
 72
    21
 73
    19
  0
SEQEND
  5
1A88
  8
0
  0
POLYLINE
  5
166D
  8
0
 66
     1
 10
0.0
 20
0.0
 30
0.0
 70
    64
 71
    14
 72
    12
  0
VERTEX
  5
166E
  8
0
 10
-202.5153602420862
 20
92.0257409477106
 30
0.0000000000001124
 70
   192
  0
VERTEX
  5
166F
  8
0
 10
-207.9590343841469
 20
92.02576963799811
 30
0.0
 70
   192
  0
VERTEX
  5
1670
  8
0
 10
-180.098401305691
 20
92.02711309518428
 30
103.9772983010988
 70
   192
  0
VERTEX
  5
1671
  8
0
 10
-175.3840412067722
 20
92.02704923691658
 30
101.2554612338735
 70
   192
  0
VERTEX
  5
1672
  8
0
 10
-0.00443802382274
 20
92.0357973389513
 30
207.9545966021974
 70
   192
  0
VERTEX
  5
1673
  8
0
 10
-0.0044380097814552
 20
92.03550615128601
 30
202.5109224677468
 70
   192
  0
VERTEX
  5
1674
  8
0
 10
-101.2598991259338
 20
92.0306235494983
 30
175.3796034008896
 70
   192
  0
VERTEX
  5
1675
  8
0
 10
-103.9817362040359
 20
92.0307834884747
 30
180.0939634912481
 70
   192
  0
VERTEX
  5
1676
  8
0
 10
103.9728601563905
 20
92.0408111894279
 30
180.0939634912481
 70
   192
  0
VERTEX
  5
1677
  8
0
 10
101.2510231063709
 20
92.04038875307373
 30
175.3796034008895
 70
   192
  0
VERTEX
  5
1678
  8
0
 10
207.950158336706
 20
92.04582503990451
 30
0.0000000000000255
 70
   192
  0
VERTEX
  5
1679
  8
0
 10
202.506484222834
 20
92.04527135486146
 30
0.0000000000000248
 70
   192
  0
VERTEX
  5
167A
  8
0
 10
175.3751651872092
 20
92.04396306565545
 30
101.2554612338734
 70
   192
  0
VERTEX
  5
167B
  8
0
 10
180.0895252580455
 20
92.04448158271832
 30
103.9772983010987
 70
   192
  0
VERTEX
  5
167C
  8
0
 10
0.0
 20
0.0
 30
0.0
 70
   128
 71
     1
 72
     2
 73
    -3
  0
VERTEX
  5
167D
  8
0
 10
0.0
 20
0.0
 30
0.0
 70
   128
 71
     4
 72
    -1
 73
     3
  0
VERTEX
  5
167E
  8
0
 10
0.0
 20
0.0
 30
0.0
 70
   128
 71
     5
 72
     6
 73
    -7
  0
VERTEX
  5
167F
  8
0
 10
0.0
 20
0.0
 30
0.0
 70
   128
 71
     8
 72
    -5
 73
     7
  0
VERTEX
  5
1680
  8
0
 10
0.0
 20
0.0
 30
0.0
 70
   128
 71
     6
 72
     5
 73
    -9
  0
VERTEX
  5
1681
  8
0
 10
0.0
 20
0.0
 30
0.0
 70
   128
 71
    10
 72
    -6
 73
     9
  0
VERTEX
  5
1682
  8
0
 10
0.0
 20
0.0
 30
0.0
 70
   128
 71
    11
 72
    12
 73
   -13
  0
VERTEX
  5
1683
  8
0
 10
0.0
 20
0.0
 30
0.0
 70
   128
 71
    14
 72
   -11
 73
    13
  0
VERTEX
  5
1684
  8
0
 10
0.0
 20
0.0
 30
0.0
 70
   128
 71
     7
 72
     4
 73
    -3
  0
VERTEX
  5
1685
  8
0
 10
0.0
 20
0.0
 30
0.0
 70
   128
 71
     8
 72
    -7
 73
     3
  0
VERTEX
  5
1686
  8
0
 10
0.0
 20
0.0
 30
0.0
 70
   128
 71
    13
 72
    10
 73
    -9
  0
VERTEX
  5
1687
  8
0
 10
0.0
 20
0.0
 30
0.0
 70
   128
 71
    14
 72
   -13
 73
     9
  0
SEQEND
  5
1A89
  8
0
  0
POLYLINE
  5
1688
  8
0
 66
     1
 10
0.0
 20
0.0
 30
0.0
 70
    64
 71
    27
 72
    34
  0
VERTEX
  5
1689
  8
0
 10
-0.0044426520097627
 20
92.13177674320336
 30
208.7071719707401
 70
   192
  0
VERTEX
  5
168A
  8
0
 10
-0.00443802382274
 20
92.0357973389513
 30
207.9545966021974
 70
   192
  0
VERTEX
  5
168B
  8
0
 10
-103.9817362040359
 20
92.0307834884747
 30
180.0939634912481
 70
   192
  0
VERTEX
  5
168C
  8
0
 10
-147.5826990632104
 20
92.12466042719791
 30
147.5782565827772
 70
   192
  0
VERTEX
  5
168D
  8
0
 10
-180.098401305691
 20
92.02711309518428
 30
103.9772983010988
 70
   192
  0
VERTEX
  5
168E
  8
0
 10
-207.9590343841469
 20
92.0257696379981
 30
0.0000000000000255
 70
   192
  0
VERTEX
  5
168F
  8
0
 10
147.5738137591908
 20
92.13889305920881
 30
147.5782565827772
 70
   192
  0
VERTEX
  5
1690
  8
0
 10
103.9728601563905
 20
92.0408111894279
 30
180.0939634912481
 70
   192
  0
VERTEX
  5
1691
  8
0
 10
-148.0808173076631
 20
92.40635475335206
 30
148.0763612431739
 70
   192
  0
VERTEX
  5
1692
  8
0
 10
-0.0044562366449036
 20
92.41349508827635
 30
209.4115983369543
 70
   192
  0
VERTEX
  5
1693
  8
0
 10
148.0719048343732
 20
92.42063542320064
 30
148.0763612431739
 70
   192
  0
VERTEX
  5
1694
  8
0
 10
208.9452015986635
 20
92.21577423694929
 30
0.0
 70
   192
  0
VERTEX
  5
1695
  8
0
 10
-148.513035720047
 20
92.85577098896816
 30
148.5085579839228
 70
   192
  0
VERTEX
  5
1696
  8
0
 10
-0.0044779087823722
 20
92.86293216469011
 30
210.0228168293348
 70
   192
  0
VERTEX
  5
1697
  8
0
 10
-209.8364688965037
 20
92.68593748507037
 30
0.0000000000000257
 70
   192
  0
VERTEX
  5
1698
  8
0
 10
148.5040799024822
 20
92.87009334041204
 30
148.5085579839228
 70
   192
  0
VERTEX
  5
1699
  8
0
 10
-0.0045062821565072
 20
93.45133957743677
 30
210.5017306497374
 70
   192
  0
VERTEX
  5
169A
  8
0
 10
-105.2553714846591
 20
93.44626431476027
 30
182.299846283262
 70
   192
  0
VERTEX
  5
169B
  8
0
 10
182.295339789161
 20
93.46013019025423
 30
105.2508653248687
 70
   192
  0
VERTEX
  5
169C
  8
0
 10
210.4972241228485
 20
93.46149010278978
 30
0.0
 70
   192
  0
VERTEX
  5
169D
  8
0
 10
105.246358920346
 20
93.45641484011327
 30
182.299846283262
 70
   192
  0
VERTEX
  5
169E
  8
0
 10
-208.9540940316665
 20
92.19562287098823
 30
0.0000000000000256
 70
   192
  0
VERTEX
  5
169F
  8
0
 10
209.827529172766
 20
92.70617394608632
 30
0.0
 70
   192
  0
VERTEX
  5
16A0
  8
0
 10
-210.5062366871617
 20
93.44118905208377
 30
0.0000000000000258
 70
   192
  0
VERTEX
  5
16A1
  8
0
 10
-182.3043523534741
 20
93.4425489646193
 30
105.2508653248688
 70
   192
  0
VERTEX
  5
16A2
  8
0
 10
207.950158336706
 20
92.04582503990451
 30
0.0
 70
   192
  0
VERTEX
  5
16A3
  8
0
 10
180.0895252580455
 20
92.04448158271832
 30
103.9772983010987
 70
   192
  0
VERTEX
  5
16A4
  8
0
 10
0.0
 20
0.0
 30
0.0
 70
   128
 71
     1
 72
     2
 73
     3
  0
VERTEX
  5
16A5
  8
0
 10
0.0
 20
0.0
 30
0.0
 70
   128
 71
     4
 72
     1
 73
     3
  0
VERTEX
  5
16A6
  8
0
 10
0.0
 20
0.0
 30
0.0
 70
   128
 71
     5
 72
     6
 73
     4
  0
VERTEX
  5
16A7
  8
0
 10
0.0
 20
0.0
 30
0.0
 70
   128
 71
     2
 72
     1
 73
     7
  0
VERTEX
  5
16A8
  8
0
 10
0.0
 20
0.0
 30
0.0
 70
   128
 71
     8
 72
     2
 73
     7
  0
VERTEX
  5
16A9
  8
0
 10
0.0
 20
0.0
 30
0.0
 70
   128
 71
     4
 72
     9
 73
   -10
  0
VERTEX
  5
16AA
  8
0
 10
0.0
 20
0.0
 30
0.0
 70
   128
 71
     1
 72
    -4
 73
    10
  0
VERTEX
  5
16AB
  8
0
 10
0.0
 20
0.0
 30
0.0
 70
   128
 71
     7
 72
    11
 73
    12
  0
VERTEX
  5
16AC
  8
0
 10
0.0
 20
0.0
 30
0.0
 70
   128
 71
     1
 72
    10
 73
   -11
  0
VERTEX
  5
16AD
  8
0
 10
0.0
 20
0.0
 30
0.0
 70
   128
 71
     7
 72
    -1
 73
    11
  0
VERTEX
  5
16AE
  8
0
 10
0.0
 20
0.0
 30
0.0
 70
   128
 71
     9
 72
    13
 73
   -14
  0
VERTEX
  5
16AF
  8
0
 10
0.0
 20
0.0
 30
0.0
 70
   128
 71
    10
 72
    -9
 73
    14
  0
VERTEX
  5
16B0
  8
0
 10
0.0
 20
0.0
 30
0.0
 70
   128
 71
    13
 72
     9
 73
    15
  0
VERTEX
  5
16B1
  8
0
 10
0.0
 20
0.0
 30
0.0
 70
   128
 71
    10
 72
    14
 73
   -16
  0
VERTEX
  5
16B2
  8
0
 10
0.0
 20
0.0
 30
0.0
 70
   128
 71
    11
 72
   -10
 73
    16
  0
VERTEX
  5
16B3
  8
0
 10
0.0
 20
0.0
 30
0.0
 70
   128
 71
    17
 72
    14
 73
    13
  0
VERTEX
  5
16B4
  8
0
 10
0.0
 20
0.0
 30
0.0
 70
   128
 71
    18
 72
    17
 73
    13
  0
VERTEX
  5
16B5
  8
0
 10
0.0
 20
0.0
 30
0.0
 70
   128
 71
    19
 72
    20
 73
    16
  0
VERTEX
  5
16B6
  8
0
 10
0.0
 20
0.0
 30
0.0
 70
   128
 71
    14
 72
    17
 73
    21
  0
VERTEX
  5
16B7
  8
0
 10
0.0
 20
0.0
 30
0.0
 70
   128
 71
    16
 72
    14
 73
    21
  0
VERTEX
  5
16B8
  8
0
 10
0.0
 20
0.0
 30
0.0
 70
   128
 71
    15
 72
     9
 73
     4
  0
VERTEX
  5
16B9
  8
0
 10
0.0
 20
0.0
 30
0.0
 70
   128
 71
    22
 72
    15
 73
     4
  0
VERTEX
  5
16BA
  8
0
 10
0.0
 20
0.0
 30
0.0
 70
   128
 71
    11
 72
    16
 73
    23
  0
VERTEX
  5
16BB
  8
0
 10
0.0
 20
0.0
 30
0.0
 70
   128
 71
    12
 72
    11
 73
    23
  0
VERTEX
  5
16BC
  8
0
 10
0.0
 20
0.0
 30
0.0
 70
   128
 71
    24
 72
    25
 73
    13
  0
VERTEX
  5
16BD
  8
0
 10
0.0
 20
0.0
 30
0.0
 70
   128
 71
    15
 72
    24
 73
    13
  0
VERTEX
  5
16BE
  8
0
 10
0.0
 20
0.0
 30
0.0
 70
   128
 71
    23
 72
    16
 73
    20
  0
VERTEX
  5
16BF
  8
0
 10
0.0
 20
0.0
 30
0.0
 70
   128
 71
     6
 72
    22
 73
     4
  0
VERTEX
  5
16C0
  8
0
 10
0.0
 20
0.0
 30
0.0
 70
   128
 71
     7
 72
    12
 73
    26
  0
VERTEX
  5
16C1
  8
0
 10
0.0
 20
0.0
 30
0.0
 70
   128
 71
    27
 72
     7
 73
    26
  0
VERTEX
  5
16C2
  8
0
 10
0.0
 20
0.0
 30
0.0
 70
   128
 71
     5
 72
     4
 73
     3
  0
VERTEX
  5
16C3
  8
0
 10
0.0
 20
0.0
 30
0.0
 70
   128
 71
     8
 72
     7
 73
    27
  0
VERTEX
  5
16C4
  8
0
 10
0.0
 20
0.0
 30
0.0
 70
   128
 71
    13
 72
    25
 73
    18
  0
VERTEX
  5
16C5
  8
0
 10
0.0
 20
0.0
 30
0.0
 70
   128
 71
    16
 72
    21
 73
    19
  0
SEQEND
  5
1A8A
  8
0
  0
POLYLINE
  5
16C6
  8
0
 66
     1
 10
0.0
 20
0.0
 30
0.0
 70
    64
 71
    14
 72
    12
  0
VERTEX
  5
16C7
  8
0
 10
-210.5062366871616
 20
93.44118905208376
 30
0.0000000000001169
 70
   192
  0
VERTEX
  5
16C8
  8
0
 10
-210.8866603580871
 20
94.05282819607622
 30
0.0
 70
   192
  0
VERTEX
  5
16C9
  8
0
 10
-182.6338128682112
 20
94.0541905660871
 30
105.441062413299
 70
   192
  0
VERTEX
  5
16CA
  8
0
 10
-182.3043523534741
 20
93.4425489646193
 30
105.2508653248688
 70
   192
  0
VERTEX
  5
16CB
  8
0
 10
-0.0045357766638234
 20
94.0629970642748
 30
210.8821248265978
 70
   192
  0
VERTEX
  5
16CC
  8
0
 10
-0.0045062821565072
 20
93.45133957743677
 30
210.5017306497374
 70
   192
  0
VERTEX
  5
16CD
  8
0
 10
-105.2553714846591
 20
93.44626431476027
 30
182.299846283262
 70
   192
  0
VERTEX
  5
16CE
  8
0
 10
-105.4455980673755
 20
94.05791263017551
 30
182.6292773038748
 70
   192
  0
VERTEX
  5
16CF
  8
0
 10
105.4365265140478
 20
94.06808149837408
 30
182.6292773038748
 70
   192
  0
VERTEX
  5
16D0
  8
0
 10
105.246358920346
 20
93.45641484011327
 30
182.299846283262
 70
   192
  0
VERTEX
  5
16D1
  8
0
 10
210.8775888047593
 20
94.07316593247337
 30
0.0000000000000258
 70
   192
  0
VERTEX
  5
16D2
  8
0
 10
210.4972241228485
 20
93.4614901027898
 30
0.0000000000000258
 70
   192
  0
VERTEX
  5
16D3
  8
0
 10
182.295339789161
 20
93.46013019025423
 30
105.2508653248687
 70
   192
  0
VERTEX
  5
16D4
  8
0
 10
182.6247413148835
 20
94.07180356246249
 30
105.4410624132989
 70
   192
  0
VERTEX
  5
16D5
  8
0
 10
0.0
 20
0.0
 30
0.0
 70
   128
 71
     1
 72
     2
 73
    -3
  0
VERTEX
  5
16D6
  8
0
 10
0.0
 20
0.0
 30
0.0
 70
   128
 71
     4
 72
    -1
 73
     3
  0
VERTEX
  5
16D7
  8
0
 10
0.0
 20
0.0
 30
0.0
 70
   128
 71
     5
 72
     6
 73
    -7
  0
VERTEX
  5
16D8
  8
0
 10
0.0
 20
0.0
 30
0.0
 70
   128
 71
     8
 72
    -5
 73
     7
  0
VERTEX
  5
16D9
  8
0
 10
0.0
 20
0.0
 30
0.0
 70
   128
 71
     6
 72
     5
 73
    -9
  0
VERTEX
  5
16DA
  8
0
 10
0.0
 20
0.0
 30
0.0
 70
   128
 71
    10
 72
    -6
 73
     9
  0
VERTEX
  5
16DB
  8
0
 10
0.0
 20
0.0
 30
0.0
 70
   128
 71
    11
 72
    12
 73
   -13
  0
VERTEX
  5
16DC
  8
0
 10
0.0
 20
0.0
 30
0.0
 70
   128
 71
    14
 72
   -11
 73
    13
  0
VERTEX
  5
16DD
  8
0
 10
0.0
 20
0.0
 30
0.0
 70
   128
 71
     7
 72
     4
 73
    -3
  0
VERTEX
  5
16DE
  8
0
 10
0.0
 20
0.0
 30
0.0
 70
   128
 71
     8
 72
    -7
 73
     3
  0
VERTEX
  5
16DF
  8
0
 10
0.0
 20
0.0
 30
0.0
 70
   128
 71
    13
 72
    10
 73
    -9
  0
VERTEX
  5
16E0
  8
0
 10
0.0
 20
0.0
 30
0.0
 70
   128
 71
    14
 72
   -13
 73
     9
  0
SEQEND
  5
1A8B
  8
0
  0
POLYLINE
  5
16E1
  8
0
 66
     1
 10
0.0
 20
0.0
 30
0.0
 70
    64
 71
    27
 72
    34
  0
VERTEX
  5
16E2
  8
0
 10
106.2869713533759
 20
95.01341837783595
 30
-184.1023699279936
 70
   192
  0
VERTEX
  5
16E3
  8
0
 10
-0.0045813594231115
 20
95.00829293255553
 30
-212.5831056727502
 70
   192
  0
VERTEX
  5
16E4
  8
0
 10
-0.0045782688261345
 20
94.94420009244006
 30
-212.0805346709474
 70
   192
  0
VERTEX
  5
16E5
  8
0
 10
149.9590057803196
 20
94.951431430439
 30
-149.9635842234956
 70
   192
  0
VERTEX
  5
16E6
  8
0
 10
212.5785240662431
 20
95.01854382311636
 30
0.0
 70
   192
  0
VERTEX
  5
16E7
  8
0
 10
184.0977883545304
 20
95.01717046419262
 30
-106.2915528363752
 70
   192
  0
VERTEX
  5
16E8
  8
0
 10
-149.9681623179719
 20
94.93696875444112
 30
-149.9635842234956
 70
   192
  0
VERTEX
  5
16E9
  8
0
 10
-106.2961340722221
 20
95.00316748727512
 30
-184.1023699279935
 70
   192
  0
VERTEX
  5
16EA
  8
0
 10
-0.0045691970657111
 20
94.75606980356166
 30
-211.6101173047612
 70
   192
  0
VERTEX
  5
16EB
  8
0
 10
149.6263795428486
 20
94.76328510167754
 30
-149.6309489138775
 70
   192
  0
VERTEX
  5
16EC
  8
0
 10
-211.9231843116585
 20
94.88461677644624
 30
0.000000000000026
 70
   192
  0
VERTEX
  5
16ED
  8
0
 10
-149.63551793698
 20
94.74885450544578
 30
-149.6309489138774
 70
   192
  0
VERTEX
  5
16EE
  8
0
 10
-0.0045547244260087
 20
94.45593600802624
 30
-211.2019442916242
 70
   192
  0
VERTEX
  5
16EF
  8
0
 10
149.3377721103374
 20
94.46313738861298
 30
-149.342327008391
 70
   192
  0
VERTEX
  5
16F0
  8
0
 10
211.3248123045495
 20
94.57756653645359
 30
0.0
 70
   192
  0
VERTEX
  5
16F1
  8
0
 10
-149.3468815591894
 20
94.44873462743949
 30
-149.3423270083909
 70
   192
  0
VERTEX
  5
16F2
  8
0
 10
-0.0045357766639638
 20
94.0629970642748
 30
-210.8821248265978
 70
   192
  0
VERTEX
  5
16F3
  8
0
 10
105.4365265140477
 20
94.06808149837408
 30
-182.6292773038749
 70
   192
  0
VERTEX
  5
16F4
  8
0
 10
-210.8866603580871
 20
94.05282819607623
 30
0.0000000000000258
 70
   192
  0
VERTEX
  5
16F5
  8
0
 10
-182.6338128682113
 20
94.0541905660871
 30
-105.4410624132989
 70
   192
  0
VERTEX
  5
16F6
  8
0
 10
-105.4455980673756
 20
94.05791263017551
 30
-182.6292773038748
 70
   192
  0
VERTEX
  5
16F7
  8
0
 10
211.9140325347775
 20
94.90505447264414
 30
0.0
 70
   192
  0
VERTEX
  5
16F8
  8
0
 10
-211.3339325008238
 20
94.55718566691601
 30
0.0000000000000259
 70
   192
  0
VERTEX
  5
16F9
  8
0
 10
182.6247413148834
 20
94.07180356246249
 30
-105.441062413299
 70
   192
  0
VERTEX
  5
16FA
  8
0
 10
210.8775888047594
 20
94.07316593247337
 30
-0.0000000000001522
 70
   192
  0
VERTEX
  5
16FB
  8
0
 10
-184.1069510733765
 20
94.99941540091845
 30
-106.2915528363751
 70
   192
  0
VERTEX
  5
16FC
  8
0
 10
-212.5876867850211
 20
94.99804204199471
 30
0.000000000000026
 70
   192
  0
VERTEX
  5
16FD
  8
0
 10
0.0
 20
0.0
 30
0.0
 70
   128
 71
     1
 72
     2
 73
     3
  0
VERTEX
  5
16FE
  8
0
 10
0.0
 20
0.0
 30
0.0
 70
   128
 71
     1
 72
     3
 73
     4
  0
VERTEX
  5
16FF
  8
0
 10
0.0
 20
0.0
 30
0.0
 70
   128
 71
     4
 72
     5
 73
     6
  0
VERTEX
  5
1700
  8
0
 10
0.0
 20
0.0
 30
0.0
 70
   128
 71
     7
 72
     3
 73
     2
  0
VERTEX
  5
1701
  8
0
 10
0.0
 20
0.0
 30
0.0
 70
   128
 71
     7
 72
     2
 73
     8
  0
VERTEX
  5
1702
  8
0
 10
0.0
 20
0.0
 30
0.0
 70
   128
 71
     9
 72
    10
 73
    -4
  0
VERTEX
  5
1703
  8
0
 10
0.0
 20
0.0
 30
0.0
 70
   128
 71
    -9
 72
     4
 73
     3
  0
VERTEX
  5
1704
  8
0
 10
0.0
 20
0.0
 30
0.0
 70
   128
 71
    11
 72
    12
 73
     7
  0
VERTEX
  5
1705
  8
0
 10
0.0
 20
0.0
 30
0.0
 70
   128
 71
    12
 72
     9
 73
    -3
  0
VERTEX
  5
1706
  8
0
 10
0.0
 20
0.0
 30
0.0
 70
   128
 71
   -12
 72
     3
 73
     7
  0
VERTEX
  5
1707
  8
0
 10
0.0
 20
0.0
 30
0.0
 70
   128
 71
    13
 72
    14
 73
   -10
  0
VERTEX
  5
1708
  8
0
 10
0.0
 20
0.0
 30
0.0
 70
   128
 71
   -13
 72
    10
 73
     9
  0
VERTEX
  5
1709
  8
0
 10
0.0
 20
0.0
 30
0.0
 70
   128
 71
    15
 72
    10
 73
    14
  0
VERTEX
  5
170A
  8
0
 10
0.0
 20
0.0
 30
0.0
 70
   128
 71
    16
 72
    13
 73
    -9
  0
VERTEX
  5
170B
  8
0
 10
0.0
 20
0.0
 30
0.0
 70
   128
 71
   -16
 72
     9
 73
    12
  0
VERTEX
  5
170C
  8
0
 10
0.0
 20
0.0
 30
0.0
 70
   128
 71
    14
 72
    13
 73
    17
  0
VERTEX
  5
170D
  8
0
 10
0.0
 20
0.0
 30
0.0
 70
   128
 71
    14
 72
    17
 73
    18
  0
VERTEX
  5
170E
  8
0
 10
0.0
 20
0.0
 30
0.0
 70
   128
 71
    16
 72
    19
 73
    20
  0
VERTEX
  5
170F
  8
0
 10
0.0
 20
0.0
 30
0.0
 70
   128
 71
    21
 72
    17
 73
    13
  0
VERTEX
  5
1710
  8
0
 10
0.0
 20
0.0
 30
0.0
 70
   128
 71
    21
 72
    13
 73
    16
  0
VERTEX
  5
1711
  8
0
 10
0.0
 20
0.0
 30
0.0
 70
   128
 71
     4
 72
    10
 73
    15
  0
VERTEX
  5
1712
  8
0
 10
0.0
 20
0.0
 30
0.0
 70
   128
 71
     4
 72
    15
 73
    22
  0
VERTEX
  5
1713
  8
0
 10
0.0
 20
0.0
 30
0.0
 70
   128
 71
    23
 72
    16
 73
    12
  0
VERTEX
  5
1714
  8
0
 10
0.0
 20
0.0
 30
0.0
 70
   128
 71
    23
 72
    12
 73
    11
  0
VERTEX
  5
1715
  8
0
 10
0.0
 20
0.0
 30
0.0
 70
   128
 71
    14
 72
    24
 73
    25
  0
VERTEX
  5
1716
  8
0
 10
0.0
 20
0.0
 30
0.0
 70
   128
 71
    14
 72
    25
 73
    15
  0
VERTEX
  5
1717
  8
0
 10
0.0
 20
0.0
 30
0.0
 70
   128
 71
    19
 72
    16
 73
    23
  0
VERTEX
  5
1718
  8
0
 10
0.0
 20
0.0
 30
0.0
 70
   128
 71
     4
 72
    22
 73
     5
  0
VERTEX
  5
1719
  8
0
 10
0.0
 20
0.0
 30
0.0
 70
   128
 71
    11
 72
     7
 73
    26
  0
VERTEX
  5
171A
  8
0
 10
0.0
 20
0.0
 30
0.0
 70
   128
 71
    11
 72
    26
 73
    27
  0
VERTEX
  5
171B
  8
0
 10
0.0
 20
0.0
 30
0.0
 70
   128
 71
     1
 72
     4
 73
     6
  0
VERTEX
  5
171C
  8
0
 10
0.0
 20
0.0
 30
0.0
 70
   128
 71
    26
 72
     7
 73
     8
  0
VERTEX
  5
171D
  8
0
 10
0.0
 20
0.0
 30
0.0
 70
   128
 71
    18
 72
    24
 73
    14
  0
VERTEX
  5
171E
  8
0
 10
0.0
 20
0.0
 30
0.0
 70
   128
 71
    20
 72
    21
 73
    16
  0
SEQEND
  5
1A8C
  8
0
  0
POLYLINE
  5
171F
  8
0
 66
     1
 10
0.0
 20
0.0
 30
0.0
 70
    64
 71
    14
 72
    12
  0
VERTEX
  5
1720
  8
0
 10
-106.296134072222
 20
95.00316748727512
 30
184.1023699279935
 70
   192
  0
VERTEX
  5
1721
  8
0
 10
-184.1069510733765
 20
94.99941540091845
 30
106.2915528363752
 70
   192
  0
VERTEX
  5
1722
  8
0
 10
-190.5401120104091
 20
94.99946339073506
 30
110.005740029457
 70
   192
  0
VERTEX
  5
1723
  8
0
 10
-110.0103212782583
 20
95.0033465877089
 30
190.5355308552328
 70
   192
  0
VERTEX
  5
1724
  8
0
 10
184.0977883545304
 20
95.01717046419262
 30
106.2915528363751
 70
   192
  0
VERTEX
  5
1725
  8
0
 10
106.286971353376
 20
95.01341837783595
 30
184.1023699279935
 70
   192
  0
VERTEX
  5
1726
  8
0
 10
110.001158524867
 20
95.01395567913727
 30
190.5355308552328
 70
   192
  0
VERTEX
  5
1727
  8
0
 10
190.5309492570177
 20
95.01783887611111
 30
110.0057400294569
 70
   192
  0
VERTEX
  5
1728
  8
0
 10
212.5785240662431
 20
95.01854382311636
 30
0.000000000000026
 70
   192
  0
VERTEX
  5
1729
  8
0
 10
220.0068984265542
 20
95.01926022485146
 30
0.0000000000000269
 70
   192
  0
VERTEX
  5
172A
  8
0
 10
-0.0045813594229699
 20
95.00829293255553
 30
212.5831056727502
 70
   192
  0
VERTEX
  5
172B
  8
0
 10
-0.0045813766956382
 20
95.00865113342309
 30
220.0114800589138
 70
   192
  0
VERTEX
  5
172C
  8
0
 10
-212.5876867850211
 20
94.99804204199471
 30
0.000000000000118
 70
   192
  0
VERTEX
  5
172D
  8
0
 10
-220.0160611796965
 20
94.99804204199474
 30
0.0
 70
   192
  0
VERTEX
  5
172E
  8
0
 10
0.0
 20
0.0
 30
0.0
 70
   128
 71
     1
 72
     2
 73
    -3
  0
VERTEX
  5
172F
  8
0
 10
0.0
 20
0.0
 30
0.0
 70
   128
 71
     4
 72
    -1
 73
     3
  0
VERTEX
  5
1730
  8
0
 10
0.0
 20
0.0
 30
0.0
 70
   128
 71
     5
 72
     6
 73
    -7
  0
VERTEX
  5
1731
  8
0
 10
0.0
 20
0.0
 30
0.0
 70
   128
 71
     8
 72
    -5
 73
     7
  0
VERTEX
  5
1732
  8
0
 10
0.0
 20
0.0
 30
0.0
 70
   128
 71
     9
 72
     5
 73
    -8
  0
VERTEX
  5
1733
  8
0
 10
0.0
 20
0.0
 30
0.0
 70
   128
 71
    10
 72
    -9
 73
     8
  0
VERTEX
  5
1734
  8
0
 10
0.0
 20
0.0
 30
0.0
 70
   128
 71
     6
 72
    11
 73
   -12
  0
VERTEX
  5
1735
  8
0
 10
0.0
 20
0.0
 30
0.0
 70
   128
 71
     7
 72
    -6
 73
    12
  0
VERTEX
  5
1736
  8
0
 10
0.0
 20
0.0
 30
0.0
 70
   128
 71
    11
 72
     1
 73
    -4
  0
VERTEX
  5
1737
  8
0
 10
0.0
 20
0.0
 30
0.0
 70
   128
 71
    12
 72
   -11
 73
     4
  0
VERTEX
  5
1738
  8
0
 10
0.0
 20
0.0
 30
0.0
 70
   128
 71
     2
 72
    13
 73
   -14
  0
VERTEX
  5
1739
  8
0
 10
0.0
 20
0.0
 30
0.0
 70
   128
 71
     3
 72
    -2
 73
    14
  0
SEQEND
  5
1A8D
  8
0
  0
POLYLINE
  5
173A
  8
0
 66
     1
 10
0.0
 20
0.0
 30
0.0
 70
    64
 71
    14
 72
    12
  0
VERTEX
  5
173B
  8
0
 10
190.5309492570177
 20
95.01783887611111
 30
-110.005740029457
 70
   192
  0
VERTEX
  5
173C
  8
0
 10
189.2732719093488
 20
67.24506728323284
 30
-109.2788464757843
 70
   192
  0
VERTEX
  5
173D
  8
0
 10
109.275604189562
 20
67.2412097455641
 30
-189.2765142885774
 70
   192
  0
VERTEX
  5
173E
  8
0
 10
110.0011585248669
 20
95.01395567913727
 30
-190.5355308552328
 70
   192
  0
VERTEX
  5
173F
  8
0
 10
-110.0103212782584
 20
95.0033465877089
 30
-190.5355308552328
 70
   192
  0
VERTEX
  5
1740
  8
0
 10
-109.282088507908
 20
67.230670756661
 30
-189.2765142885773
 70
   192
  0
VERTEX
  5
1741
  8
0
 10
-189.2797562276947
 20
67.22681321899226
 30
-109.2788464757841
 70
   192
  0
VERTEX
  5
1742
  8
0
 10
-190.5401120104092
 20
94.99946339073506
 30
-110.0057400294569
 70
   192
  0
VERTEX
  5
1743
  8
0
 10
-218.5609348566429
 20
67.22540126220945
 30
0.0000000000000268
 70
   192
  0
VERTEX
  5
1744
  8
0
 10
-220.0160611798207
 20
94.99804204198823
 30
0.0
 70
   192
  0
VERTEX
  5
1745
  8
0
 10
-0.0045813766957847
 20
95.00865113342309
 30
-220.0114800589138
 70
   192
  0
VERTEX
  5
1746
  8
0
 10
-0.0032421591730092
 20
67.23594025111255
 30
-218.5576929515683
 70
   192
  0
VERTEX
  5
1747
  8
0
 10
220.0068984264296
 20
95.01926022485145
 30
-0.0000000000001588
 70
   192
  0
VERTEX
  5
1748
  8
0
 10
218.5544505382971
 20
67.24647924001566
 30
0.0000000000000268
 70
   192
  0
VERTEX
  5
1749
  8
0
 10
0.0
 20
0.0
 30
0.0
 70
   128
 71
     1
 72
     2
 73
    -3
  0
VERTEX
  5
174A
  8
0
 10
0.0
 20
0.0
 30
0.0
 70
   128
 71
    -1
 72
     3
 73
     4
  0
VERTEX
  5
174B
  8
0
 10
0.0
 20
0.0
 30
0.0
 70
   128
 71
     5
 72
     6
 73
    -7
  0
VERTEX
  5
174C
  8
0
 10
0.0
 20
0.0
 30
0.0
 70
   128
 71
    -5
 72
     7
 73
     8
  0
VERTEX
  5
174D
  8
0
 10
0.0
 20
0.0
 30
0.0
 70
   128
 71
     8
 72
     7
 73
    -9
  0
VERTEX
  5
174E
  8
0
 10
0.0
 20
0.0
 30
0.0
 70
   128
 71
    -8
 72
     9
 73
    10
  0
VERTEX
  5
174F
  8
0
 10
0.0
 20
0.0
 30
0.0
 70
   128
 71
    11
 72
    12
 73
    -6
  0
VERTEX
  5
1750
  8
0
 10
0.0
 20
0.0
 30
0.0
 70
   128
 71
   -11
 72
     6
 73
     5
  0
VERTEX
  5
1751
  8
0
 10
0.0
 20
0.0
 30
0.0
 70
   128
 71
     4
 72
     3
 73
   -12
  0
VERTEX
  5
1752
  8
0
 10
0.0
 20
0.0
 30
0.0
 70
   128
 71
    -4
 72
    12
 73
    11
  0
VERTEX
  5
1753
  8
0
 10
0.0
 20
0.0
 30
0.0
 70
   128
 71
    13
 72
    14
 73
    -2
  0
VERTEX
  5
1754
  8
0
 10
0.0
 20
0.0
 30
0.0
 70
   128
 71
   -13
 72
     2
 73
     1
  0
SEQEND
  5
1A8E
  8
0
  0
POLYLINE
  5
1755
  8
0
 66
     1
 10
0.0
 20
0.0
 30
0.0
 70
    64
 71
    39
 72
    58
  0
VERTEX
  5
1756
  8
0
 10
186.8995634046939
 20
64.41279113647145
 30
-107.9083063821264
 70
   192
  0
VERTEX
  5
1757
  8
0
 10
153.3321658881257
 20
64.69038152465069
 30
-153.3352851205919
 70
   192
  0
VERTEX
  5
1758
  8
0
 10
200.3390854602079
 20
64.69264822776978
 30
-82.98445832206963
 70
   192
  0
VERTEX
  5
1759
  8
0
 10
82.98133917139432
 20
64.6869891637004
 30
-200.342204747325
 70
   192
  0
VERTEX
  5
175A
  8
0
 10
-0.0031055905620719
 20
64.40377857264819
 30
-215.8166127642526
 70
   192
  0
VERTEX
  5
175B
  8
0
 10
-0.0031190541963394
 20
64.68298760112178
 30
-216.8488398078864
 70
   192
  0
VERTEX
  5
175C
  8
0
 10
-107.9114118472326
 20
64.39857516649874
 30
-186.9026692125516
 70
   192
  0
VERTEX
  5
175D
  8
0
 10
-153.3384039965184
 20
64.67559367759286
 30
-153.3352851205918
 70
   192
  0
VERTEX
  5
175E
  8
0
 10
-82.98757727978699
 20
64.67898603854314
 30
-200.342204747325
 70
   192
  0
VERTEX
  5
175F
  8
0
 10
153.9464076069393
 20
65.31394197437353
 30
-153.9495569071669
 70
   192
  0
VERTEX
  5
1760
  8
0
 10
201.1416401589349
 20
65.31621775806252
 30
-83.31689981739387
 70
   192
  0
VERTEX
  5
1761
  8
0
 10
-0.0031491212436628
 20
65.30651843027417
 30
-217.717551299444
 70
   192
  0
VERTEX
  5
1762
  8
0
 10
83.31375059928475
 20
65.31053602339
 30
-201.1447895140324
 70
   192
  0
VERTEX
  5
1763
  8
0
 10
-153.9527058494266
 20
65.2990948861748
 30
-153.9495569071669
 70
   192
  0
VERTEX
  5
1764
  8
0
 10
-83.32004884177206
 20
65.30250083715832
 30
-201.1447895140324
 70
   192
  0
VERTEX
  5
1765
  8
0
 10
-217.1657344358755
 20
64.84518881542114
 30
0.0000000000000266
 70
   192
  0
VERTEX
  5
1766
  8
0
 10
-201.1479384014223
 20
65.2968191024858
 30
-83.31689981739372
 70
   192
  0
VERTEX
  5
1767
  8
0
 10
-200.3453235686007
 20
64.67332697447377
 30
-82.98445832206947
 70
   192
  0
VERTEX
  5
1768
  8
0
 10
154.3669598967365
 20
66.20258467588206
 30
-154.3701520473832
 70
   192
  0
VERTEX
  5
1769
  8
0
 10
201.6911313417796
 20
66.20486667708528
 30
-83.54452426701937
 70
   192
  0
VERTEX
  5
176A
  8
0
 10
218.1468579410322
 20
65.88641788410368
 30
0.0
 70
   192
  0
VERTEX
  5
176B
  8
0
 10
-0.003191971173626
 20
66.1951408504215
 30
-218.3123626510061
 70
   192
  0
VERTEX
  5
176C
  8
0
 10
83.54133219871564
 20
66.19916941973092
 30
-201.6943235474459
 70
   192
  0
VERTEX
  5
176D
  8
0
 10
-154.3733438390838
 20
66.18769702496091
 30
-154.3701520473831
 70
   192
  0
VERTEX
  5
176E
  8
0
 10
-83.54771614106288
 20
66.19111228111205
 30
-201.6943235474459
 70
   192
  0
VERTEX
  5
176F
  8
0
 10
-201.6975152841269
 20
66.1854150237577
 30
-83.5445242670192
 70
   192
  0
VERTEX
  5
1770
  8
0
 10
109.275604189562
 20
67.2412097455641
 30
-189.2765142885774
 70
   192
  0
VERTEX
  5
1771
  8
0
 10
-0.0032421591730092
 20
67.23594025111255
 30
-218.5576929515683
 70
   192
  0
VERTEX
  5
1772
  8
0
 10
-189.2797562276947
 20
67.22681321899226
 30
-109.2788464757841
 70
   192
  0
VERTEX
  5
1773
  8
0
 10
217.1594796746889
 20
64.86613224941945
 30
0.0
 70
   192
  0
VERTEX
  5
1774
  8
0
 10
-218.1532110952521
 20
65.86537922136328
 30
0.0000000000000267
 70
   192
  0
VERTEX
  5
1775
  8
0
 10
218.5544505382971
 20
67.24647924001566
 30
-0.0000000000001577
 70
   192
  0
VERTEX
  5
1776
  8
0
 10
-218.5609348566429
 20
67.22540126220946
 30
0.0000000000000268
 70
   192
  0
VERTEX
  5
1777
  8
0
 10
-215.8197181039031
 20
64.3933717603493
 30
0.0000000000000264
 70
   192
  0
VERTEX
  5
1778
  8
0
 10
107.9052006661085
 20
64.40898197879764
 30
-186.9026692125517
 70
   192
  0
VERTEX
  5
1779
  8
0
 10
215.813506922779
 20
64.41418538494707
 30
0.0
 70
   192
  0
VERTEX
  5
177A
  8
0
 10
-186.905774585818
 20
64.39476600882493
 30
-107.9083063821262
 70
   192
  0
VERTEX
  5
177B
  8
0
 10
189.2732719093488
 20
67.24506728323284
 30
-109.2788464757843
 70
   192
  0
VERTEX
  5
177C
  8
0
 10
-109.282088507908
 20
67.230670756661
 30
-189.2765142885773
 70
   192
  0
VERTEX
  5
177D
  8
0
 10
0.0
 20
0.0
 30
0.0
 70
   128
 71
     1
 72
     2
 73
     3
  0
VERTEX
  5
177E
  8
0
 10
0.0
 20
0.0
 30
0.0
 70
   128
 71
     4
 72
     5
 73
     6
  0
VERTEX
  5
177F
  8
0
 10
0.0
 20
0.0
 30
0.0
 70
   128
 71
     7
 72
     8
 73
     9
  0
VERTEX
  5
1780
  8
0
 10
0.0
 20
0.0
 30
0.0
 70
   128
 71
    10
 72
    11
 73
    -3
  0
VERTEX
  5
1781
  8
0
 10
0.0
 20
0.0
 30
0.0
 70
   128
 71
   -10
 72
     3
 73
     2
  0
VERTEX
  5
1782
  8
0
 10
0.0
 20
0.0
 30
0.0
 70
   128
 71
    12
 72
    13
 73
    -4
  0
VERTEX
  5
1783
  8
0
 10
0.0
 20
0.0
 30
0.0
 70
   128
 71
   -12
 72
     4
 73
     6
  0
VERTEX
  5
1784
  8
0
 10
0.0
 20
0.0
 30
0.0
 70
   128
 71
    13
 72
    10
 73
    -2
  0
VERTEX
  5
1785
  8
0
 10
0.0
 20
0.0
 30
0.0
 70
   128
 71
   -13
 72
     2
 73
     4
  0
VERTEX
  5
1786
  8
0
 10
0.0
 20
0.0
 30
0.0
 70
   128
 71
    14
 72
    15
 73
    -9
  0
VERTEX
  5
1787
  8
0
 10
0.0
 20
0.0
 30
0.0
 70
   128
 71
   -14
 72
     9
 73
     8
  0
VERTEX
  5
1788
  8
0
 10
0.0
 20
0.0
 30
0.0
 70
   128
 71
    15
 72
    12
 73
    -6
  0
VERTEX
  5
1789
  8
0
 10
0.0
 20
0.0
 30
0.0
 70
   128
 71
   -15
 72
     6
 73
     9
  0
VERTEX
  5
178A
  8
0
 10
0.0
 20
0.0
 30
0.0
 70
   128
 71
    16
 72
    17
 73
    18
  0
VERTEX
  5
178B
  8
0
 10
0.0
 20
0.0
 30
0.0
 70
   128
 71
    17
 72
    14
 73
    -8
  0
VERTEX
  5
178C
  8
0
 10
0.0
 20
0.0
 30
0.0
 70
   128
 71
   -17
 72
     8
 73
    18
  0
VERTEX
  5
178D
  8
0
 10
0.0
 20
0.0
 30
0.0
 70
   128
 71
    19
 72
    20
 73
   -11
  0
VERTEX
  5
178E
  8
0
 10
0.0
 20
0.0
 30
0.0
 70
   128
 71
   -19
 72
    11
 73
    10
  0
VERTEX
  5
178F
  8
0
 10
0.0
 20
0.0
 30
0.0
 70
   128
 71
    21
 72
    11
 73
    20
  0
VERTEX
  5
1790
  8
0
 10
0.0
 20
0.0
 30
0.0
 70
   128
 71
    22
 72
    23
 73
   -13
  0
VERTEX
  5
1791
  8
0
 10
0.0
 20
0.0
 30
0.0
 70
   128
 71
   -22
 72
    13
 73
    12
  0
VERTEX
  5
1792
  8
0
 10
0.0
 20
0.0
 30
0.0
 70
   128
 71
    23
 72
    19
 73
   -10
  0
VERTEX
  5
1793
  8
0
 10
0.0
 20
0.0
 30
0.0
 70
   128
 71
   -23
 72
    10
 73
    13
  0
VERTEX
  5
1794
  8
0
 10
0.0
 20
0.0
 30
0.0
 70
   128
 71
    24
 72
    25
 73
   -15
  0
VERTEX
  5
1795
  8
0
 10
0.0
 20
0.0
 30
0.0
 70
   128
 71
   -24
 72
    15
 73
    14
  0
VERTEX
  5
1796
  8
0
 10
0.0
 20
0.0
 30
0.0
 70
   128
 71
    25
 72
    22
 73
   -12
  0
VERTEX
  5
1797
  8
0
 10
0.0
 20
0.0
 30
0.0
 70
   128
 71
   -25
 72
    12
 73
    15
  0
VERTEX
  5
1798
  8
0
 10
0.0
 20
0.0
 30
0.0
 70
   128
 71
    26
 72
    24
 73
   -14
  0
VERTEX
  5
1799
  8
0
 10
0.0
 20
0.0
 30
0.0
 70
   128
 71
   -26
 72
    14
 73
    17
  0
VERTEX
  5
179A
  8
0
 10
0.0
 20
0.0
 30
0.0
 70
   128
 71
    27
 72
    19
 73
    23
  0
VERTEX
  5
179B
  8
0
 10
0.0
 20
0.0
 30
0.0
 70
   128
 71
    25
 72
    28
 73
    22
  0
VERTEX
  5
179C
  8
0
 10
0.0
 20
0.0
 30
0.0
 70
   128
 71
    29
 72
    24
 73
    26
  0
VERTEX
  5
179D
  8
0
 10
0.0
 20
0.0
 30
0.0
 70
   128
 71
     3
 72
    11
 73
    21
  0
VERTEX
  5
179E
  8
0
 10
0.0
 20
0.0
 30
0.0
 70
   128
 71
     3
 72
    21
 73
    30
  0
VERTEX
  5
179F
  8
0
 10
0.0
 20
0.0
 30
0.0
 70
   128
 71
    31
 72
    26
 73
    17
  0
VERTEX
  5
17A0
  8
0
 10
0.0
 20
0.0
 30
0.0
 70
   128
 71
    31
 72
    17
 73
    16
  0
VERTEX
  5
17A1
  8
0
 10
0.0
 20
0.0
 30
0.0
 70
   128
 71
    20
 72
    32
 73
    21
  0
VERTEX
  5
17A2
  8
0
 10
0.0
 20
0.0
 30
0.0
 70
   128
 71
    33
 72
    26
 73
    31
  0
VERTEX
  5
17A3
  8
0
 10
0.0
 20
0.0
 30
0.0
 70
   128
 71
    16
 72
    18
 73
    34
  0
VERTEX
  5
17A4
  8
0
 10
0.0
 20
0.0
 30
0.0
 70
   128
 71
    35
 72
     4
 73
     2
  0
VERTEX
  5
17A5
  8
0
 10
0.0
 20
0.0
 30
0.0
 70
   128
 71
    35
 72
     2
 73
     1
  0
VERTEX
  5
17A6
  8
0
 10
0.0
 20
0.0
 30
0.0
 70
   128
 71
     1
 72
     3
 73
    30
  0
VERTEX
  5
17A7
  8
0
 10
0.0
 20
0.0
 30
0.0
 70
   128
 71
     1
 72
    30
 73
    36
  0
VERTEX
  5
17A8
  8
0
 10
0.0
 20
0.0
 30
0.0
 70
   128
 71
     5
 72
     4
 73
    35
  0
VERTEX
  5
17A9
  8
0
 10
0.0
 20
0.0
 30
0.0
 70
   128
 71
    37
 72
    18
 73
     8
  0
VERTEX
  5
17AA
  8
0
 10
0.0
 20
0.0
 30
0.0
 70
   128
 71
    37
 72
     8
 73
     7
  0
VERTEX
  5
17AB
  8
0
 10
0.0
 20
0.0
 30
0.0
 70
   128
 71
     7
 72
     9
 73
     6
  0
VERTEX
  5
17AC
  8
0
 10
0.0
 20
0.0
 30
0.0
 70
   128
 71
     7
 72
     6
 73
     5
  0
VERTEX
  5
17AD
  8
0
 10
0.0
 20
0.0
 30
0.0
 70
   128
 71
    34
 72
    18
 73
    37
  0
VERTEX
  5
17AE
  8
0
 10
0.0
 20
0.0
 30
0.0
 70
   128
 71
    27
 72
    38
 73
    20
  0
VERTEX
  5
17AF
  8
0
 10
0.0
 20
0.0
 30
0.0
 70
   128
 71
    27
 72
    20
 73
    19
  0
VERTEX
  5
17B0
  8
0
 10
0.0
 20
0.0
 30
0.0
 70
   128
 71
    38
 72
    32
 73
    20
  0
VERTEX
  5
17B1
  8
0
 10
0.0
 20
0.0
 30
0.0
 70
   128
 71
    22
 72
    28
 73
    27
  0
VERTEX
  5
17B2
  8
0
 10
0.0
 20
0.0
 30
0.0
 70
   128
 71
    22
 72
    27
 73
    23
  0
VERTEX
  5
17B3
  8
0
 10
0.0
 20
0.0
 30
0.0
 70
   128
 71
    29
 72
    39
 73
    25
  0
VERTEX
  5
17B4
  8
0
 10
0.0
 20
0.0
 30
0.0
 70
   128
 71
    29
 72
    25
 73
    24
  0
VERTEX
  5
17B5
  8
0
 10
0.0
 20
0.0
 30
0.0
 70
   128
 71
    39
 72
    28
 73
    25
  0
VERTEX
  5
17B6
  8
0
 10
0.0
 20
0.0
 30
0.0
 70
   128
 71
    33
 72
    29
 73
    26
  0
SEQEND
  5
1A8F
  8
0
  0
POLYLINE
  5
17B7
  8
0
 66
     1
 10
0.0
 20
0.0
 30
0.0
 70
    64
 71
    14
 72
    12
  0
VERTEX
  5
17B8
  8
0
 10
186.8995634046939
 20
64.41279113647145
 30
-107.9083063821264
 70
   192
  0
VERTEX
  5
17B9
  8
0
 10
215.8135069227791
 20
64.41418538494709
 30
-0.0000000000001557
 70
   192
  0
VERTEX
  5
17BA
  8
0
 10
194.6785877245518
 20
62.61740666553059
 30
0.0000000000000238
 70
   192
  0
VERTEX
  5
17BB
  8
0
 10
168.5961980733132
 20
62.61614895635682
 30
-97.34080347440073
 70
   192
  0
VERTEX
  5
17BC
  8
0
 10
97.33778436332084
 20
62.61271283099297
 30
-168.599217267239
 70
   192
  0
VERTEX
  5
17BD
  8
0
 10
-0.00301899790997
 20
62.60801899645536
 30
-194.6816069488012
 70
   192
  0
VERTEX
  5
17BE
  8
0
 10
-0.0031055905620719
 20
64.40377857264819
 30
-215.8166127642526
 70
   192
  0
VERTEX
  5
17BF
  8
0
 10
107.9052006661085
 20
64.40898197879764
 30
-186.9026692125517
 70
   192
  0
VERTEX
  5
17C0
  8
0
 10
-107.9114118472326
 20
64.39857516649874
 30
-186.9026692125516
 70
   192
  0
VERTEX
  5
17C1
  8
0
 10
-97.34382235914076
 20
62.60332516191776
 30
-168.5992172672389
 70
   192
  0
VERTEX
  5
17C2
  8
0
 10
-168.602236069133
 20
62.59988903655391
 30
-97.34080347440059
 70
   192
  0
VERTEX
  5
17C3
  8
0
 10
-194.6846257203715
 20
62.59863132738015
 30
0.0000000000000238
 70
   192
  0
VERTEX
  5
17C4
  8
0
 10
-215.8197181039032
 20
64.3933717603493
 30
0.0
 70
   192
  0
VERTEX
  5
17C5
  8
0
 10
-186.905774585818
 20
64.39476600882493
 30
-107.9083063821262
 70
   192
  0
VERTEX
  5
17C6
  8
0
 10
0.0
 20
0.0
 30
0.0
 70
   128
 71
     1
 72
     2
 73
    -3
  0
VERTEX
  5
17C7
  8
0
 10
0.0
 20
0.0
 30
0.0
 70
   128
 71
    -1
 72
     3
 73
     4
  0
VERTEX
  5
17C8
  8
0
 10
0.0
 20
0.0
 30
0.0
 70
   128
 71
     5
 72
     6
 73
    -7
  0
VERTEX
  5
17C9
  8
0
 10
0.0
 20
0.0
 30
0.0
 70
   128
 71
    -5
 72
     7
 73
     8
  0
VERTEX
  5
17CA
  8
0
 10
0.0
 20
0.0
 30
0.0
 70
   128
 71
     9
 72
     7
 73
    -6
  0
VERTEX
  5
17CB
  8
0
 10
0.0
 20
0.0
 30
0.0
 70
   128
 71
    -9
 72
     6
 73
    10
  0
VERTEX
  5
17CC
  8
0
 10
0.0
 20
0.0
 30
0.0
 70
   128
 71
    11
 72
    12
 73
   -13
  0
VERTEX
  5
17CD
  8
0
 10
0.0
 20
0.0
 30
0.0
 70
   128
 71
   -11
 72
    13
 73
    14
  0
VERTEX
  5
17CE
  8
0
 10
0.0
 20
0.0
 30
0.0
 70
   128
 71
     1
 72
     4
 73
    -5
  0
VERTEX
  5
17CF
  8
0
 10
0.0
 20
0.0
 30
0.0
 70
   128
 71
    -1
 72
     5
 73
     8
  0
VERTEX
  5
17D0
  8
0
 10
0.0
 20
0.0
 30
0.0
 70
   128
 71
     9
 72
    10
 73
   -11
  0
VERTEX
  5
17D1
  8
0
 10
0.0
 20
0.0
 30
0.0
 70
   128
 71
    -9
 72
    11
 73
    14
  0
SEQEND
  5
1A90
  8
0
  0
POLYLINE
  5
17D2
  8
0
 66
     1
 10
0.0
 20
0.0
 30
0.0
 70
    64
 71
    17
 72
    15
  0
VERTEX
  5
17D3
  8
0
 10
-158.1594895179565
 20
-16.53418002588285
 30
0.0000000000000194
 70
   192
  0
VERTEX
  5
17D4
  8
0
 10
-171.963002632439
 20
4.246530936242287
 30
0.0000000000000211
 70
   192
  0
VERTEX
  5
17D5
  8
0
 10
-148.9243562783419
 20
4.247641874206812
 30
-85.98139883106481
 70
   192
  0
VERTEX
  5
17D6
  8
0
 10
-95.54890985332493
 20
-45.69554537740304
 30
-69.4219473453703
 70
   192
  0
VERTEX
  5
17D7
  8
0
 10
-139.8667541034627
 20
-33.49739768788319
 30
0.0000000000000171
 70
   192
  0
VERTEX
  5
17D8
  8
0
 10
-118.1054678704549
 20
-45.6966330687659
 30
0.0000000000000145
 70
   192
  0
VERTEX
  5
17D9
  8
0
 10
36.49948078658065
 20
-45.68917792125701
 30
-112.3270703700147
 70
   192
  0
VERTEX
  5
17DA
  8
0
 10
-0.0002051702357787
 20
4.254823090097962
 30
-171.9627976621297
 70
   192
  0
VERTEX
  5
17DB
  8
0
 10
85.98119356086583
 20
4.258969167025827
 30
-148.9241512812476
 70
   192
  0
VERTEX
  5
17DC
  8
0
 10
139.8699839840268
 20
-33.48390860707291
 30
0.0
 70
   192
  0
VERTEX
  5
17DD
  8
0
 10
118.1098743617659
 20
-45.68524261693687
 30
0.0
 70
   192
  0
VERTEX
  5
17DE
  8
0
 10
95.55331634463582
 20
-45.68633030829976
 30
-69.42194734537034
 70
   192
  0
VERTEX
  5
17DF
  8
0
 10
148.9239459378705
 20
4.262004305989112
 30
-85.98139883106494
 70
   192
  0
VERTEX
  5
17E0
  8
0
 10
158.1610833594831
 20
-16.51892684963341
 30
0.0
 70
   192
  0
VERTEX
  5
17E1
  8
0
 10
171.9625922919675
 20
4.26311524395369
 30
-0.0000000000001241
 70
   192
  0
VERTEX
  5
17E2
  8
0
 10
-36.49507429526977
 20
-45.69269776444578
 30
-112.3270703700147
 70
   192
  0
VERTEX
  5
17E3
  8
0
 10
-85.9816039013374
 20
4.250677013170097
 30
-148.9241512812476
 70
   192
  0
VERTEX
  5
17E4
  8
0
 10
0.0
 20
0.0
 30
0.0
 70
   128
 71
     1
 72
     2
 73
     3
  0
VERTEX
  5
17E5
  8
0
 10
0.0
 20
0.0
 30
0.0
 70
   128
 71
     3
 72
     4
 73
     5
  0
VERTEX
  5
17E6
  8
0
 10
0.0
 20
0.0
 30
0.0
 70
   128
 71
     3
 72
     5
 73
     1
  0
VERTEX
  5
17E7
  8
0
 10
0.0
 20
0.0
 30
0.0
 70
   128
 71
     4
 72
     6
 73
     5
  0
VERTEX
  5
17E8
  8
0
 10
0.0
 20
0.0
 30
0.0
 70
   128
 71
     7
 72
     8
 73
     9
  0
VERTEX
  5
17E9
  8
0
 10
0.0
 20
0.0
 30
0.0
 70
   128
 71
    10
 72
    11
 73
    12
  0
VERTEX
  5
17EA
  8
0
 10
0.0
 20
0.0
 30
0.0
 70
   128
 71
    12
 72
    13
 73
    14
  0
VERTEX
  5
17EB
  8
0
 10
0.0
 20
0.0
 30
0.0
 70
   128
 71
    12
 72
    14
 73
    10
  0
VERTEX
  5
17EC
  8
0
 10
0.0
 20
0.0
 30
0.0
 70
   128
 71
    13
 72
    15
 73
    14
  0
VERTEX
  5
17ED
  8
0
 10
0.0
 20
0.0
 30
0.0
 70
   128
 71
    16
 72
    17
 73
     8
  0
VERTEX
  5
17EE
  8
0
 10
0.0
 20
0.0
 30
0.0
 70
   128
 71
    16
 72
     8
 73
     7
  0
VERTEX
  5
17EF
  8
0
 10
0.0
 20
0.0
 30
0.0
 70
   128
 71
     4
 72
     3
 73
    17
  0
VERTEX
  5
17F0
  8
0
 10
0.0
 20
0.0
 30
0.0
 70
   128
 71
     4
 72
    17
 73
    16
  0
VERTEX
  5
17F1
  8
0
 10
0.0
 20
0.0
 30
0.0
 70
   128
 71
     7
 72
     9
 73
    13
  0
VERTEX
  5
17F2
  8
0
 10
0.0
 20
0.0
 30
0.0
 70
   128
 71
     7
 72
    13
 73
    12
  0
SEQEND
  5
1A91
  8
0
  0
POLYLINE
  5
17F3
  8
0
 66
     1
 10
0.0
 20
0.0
 30
0.0
 70
    64
 71
    15
 72
    13
  0
VERTEX
  5
17F4
  8
0
 10
-107.9110021200682
 20
-49.52049063989347
 30
0.0000000000000132
 70
   192
  0
VERTEX
  5
17F5
  8
0
 10
-118.1054678704549
 20
-45.69663306876592
 30
0.0000000000000145
 70
   192
  0
VERTEX
  5
17F6
  8
0
 10
-95.54890985332493
 20
-45.69554537740304
 30
-69.4219473453703
 70
   192
  0
VERTEX
  5
17F7
  8
0
 10
-61.42287951753583
 20
-55.06656386646466
 30
-61.42553479033924
 70
   192
  0
VERTEX
  5
17F8
  8
0
 10
-86.86616907413398
 20
-55.06779075783135
 30
0.0000000000000106
 70
   192
  0
VERTEX
  5
17F9
  8
0
 10
-97.48211058530572
 20
-52.64894713091846
 30
0.0000000000000119
 70
   192
  0
VERTEX
  5
17FA
  8
0
 10
36.49948078658065
 20
-45.68917792125701
 30
-112.3270703700147
 70
   192
  0
VERTEX
  5
17FB
  8
0
 10
61.42818992031424
 20
-55.06063991091059
 30
-61.42553479033926
 70
   192
  0
VERTEX
  5
17FC
  8
0
 10
0.0026552013892033
 20
-55.06360188868762
 30
-86.86882437651815
 70
   192
  0
VERTEX
  5
17FD
  8
0
 10
97.48718766240485
 20
-52.63954558917757
 30
0.0
 70
   192
  0
VERTEX
  5
17FE
  8
0
 10
86.87147947691251
 20
-55.05941301954388
 30
0.0
 70
   192
  0
VERTEX
  5
17FF
  8
0
 10
107.915777436404
 20
-49.51008333733336
 30
0.0
 70
   192
  0
VERTEX
  5
1800
  8
0
 10
95.55331634463582
 20
-45.68633030829976
 30
-69.42194734537034
 70
   192
  0
VERTEX
  5
1801
  8
0
 10
118.1098743617658
 20
-45.6852426169369
 30
-0.0000000000000197
 70
   192
  0
VERTEX
  5
1802
  8
0
 10
-36.49507429526977
 20
-45.69269776444578
 30
-112.3270703700147
 70
   192
  0
VERTEX
  5
1803
  8
0
 10
0.0
 20
0.0
 30
0.0
 70
   128
 71
     1
 72
     2
 73
     3
  0
VERTEX
  5
1804
  8
0
 10
0.0
 20
0.0
 30
0.0
 70
   128
 71
     4
 72
     5
 73
     6
  0
VERTEX
  5
1805
  8
0
 10
0.0
 20
0.0
 30
0.0
 70
   128
 71
     7
 72
     8
 73
     9
  0
VERTEX
  5
1806
  8
0
 10
0.0
 20
0.0
 30
0.0
 70
   128
 71
    10
 72
    11
 73
     8
  0
VERTEX
  5
1807
  8
0
 10
0.0
 20
0.0
 30
0.0
 70
   128
 71
    12
 72
    10
 73
     8
  0
VERTEX
  5
1808
  8
0
 10
0.0
 20
0.0
 30
0.0
 70
   128
 71
    12
 72
     8
 73
    13
  0
VERTEX
  5
1809
  8
0
 10
0.0
 20
0.0
 30
0.0
 70
   128
 71
    13
 72
    14
 73
    12
  0
VERTEX
  5
180A
  8
0
 10
0.0
 20
0.0
 30
0.0
 70
   128
 71
    15
 72
     7
 73
     9
  0
VERTEX
  5
180B
  8
0
 10
0.0
 20
0.0
 30
0.0
 70
   128
 71
     4
 72
     6
 73
     1
  0
VERTEX
  5
180C
  8
0
 10
0.0
 20
0.0
 30
0.0
 70
   128
 71
     4
 72
     1
 73
     3
  0
VERTEX
  5
180D
  8
0
 10
0.0
 20
0.0
 30
0.0
 70
   128
 71
     3
 72
    15
 73
     9
  0
VERTEX
  5
180E
  8
0
 10
0.0
 20
0.0
 30
0.0
 70
   128
 71
     3
 72
     9
 73
     4
  0
VERTEX
  5
180F
  8
0
 10
0.0
 20
0.0
 30
0.0
 70
   128
 71
     7
 72
    13
 73
     8
  0
SEQEND
  5
1A92
  8
0
  0
POLYLINE
  5
1810
  8
0
 66
     1
 10
0.0
 20
0.0
 30
0.0
 70
    64
 71
    14
 72
    12
  0
VERTEX
  5
1811
  8
0
 10
-86.86616907413408
 20
-55.06779075783135
 30
0.0000000000000106
 70
   192
  0
VERTEX
  5
1812
  8
0
 10
86.87147947691241
 20
-55.05941301954389
 30
-0.0000000000000096
 70
   192
  0
VERTEX
  5
1813
  8
0
 10
38.84408592725833
 20
-60.70125169408584
 30
0.0
 70
   192
  0
VERTEX
  5
1814
  8
0
 10
-38.83823164183779
 20
-60.70499758411929
 30
0.0000000000000048
 70
   192
  0
VERTEX
  5
1815
  8
0
 10
0.0029271427102935
 20
-60.70312463910253
 30
-38.84115882970539
 70
   192
  0
VERTEX
  5
1816
  8
0
 10
0.0026552013892033
 20
-55.06360188868762
 30
-86.86882437651815
 70
   192
  0
VERTEX
  5
1817
  8
0
 10
-27.4619196229871
 20
-60.70444901122467
 30
-27.46484679762842
 70
   192
  0
VERTEX
  5
1818
  8
0
 10
-61.42287951753583
 20
-55.06656386646466
 30
-61.42553479033924
 70
   192
  0
VERTEX
  5
1819
  8
0
 10
27.46777390840769
 20
-60.70180026698038
 30
-27.46484679762843
 70
   192
  0
VERTEX
  5
181A
  8
0
 10
61.42818992031424
 20
-55.06063991091059
 30
-61.42553479033926
 70
   192
  0
VERTEX
  5
181B
  8
0
 10
-70.9553499859834
 20
-57.73066797883274
 30
0.0000000000000087
 70
   192
  0
VERTEX
  5
181C
  8
0
 10
-54.93322388993329
 20
-59.61124090011685
 30
0.0000000000000067
 70
   192
  0
VERTEX
  5
181D
  8
0
 10
54.93897261723809
 20
-59.60594279394894
 30
0.0
 70
   192
  0
VERTEX
  5
181E
  8
0
 10
70.96091727396951
 20
-57.72382468749242
 30
0.0
 70
   192
  0
VERTEX
  5
181F
  8
0
 10
0.0
 20
0.0
 30
0.0
 70
   128
 71
    11
 72
     1
 73
     8
  0
VERTEX
  5
1820
  8
0
 10
0.0
 20
0.0
 30
0.0
 70
   128
 71
     8
 72
     7
 73
    12
  0
VERTEX
  5
1821
  8
0
 10
0.0
 20
0.0
 30
0.0
 70
   128
 71
     8
 72
    12
 73
    11
  0
VERTEX
  5
1822
  8
0
 10
0.0
 20
0.0
 30
0.0
 70
   128
 71
     7
 72
     4
 73
    12
  0
VERTEX
  5
1823
  8
0
 10
0.0
 20
0.0
 30
0.0
 70
   128
 71
     6
 72
     5
 73
    -7
  0
VERTEX
  5
1824
  8
0
 10
0.0
 20
0.0
 30
0.0
 70
   128
 71
    -6
 72
     7
 73
     8
  0
VERTEX
  5
1825
  8
0
 10
0.0
 20
0.0
 30
0.0
 70
   128
 71
    10
 72
     9
 73
    -5
  0
VERTEX
  5
1826
  8
0
 10
0.0
 20
0.0
 30
0.0
 70
   128
 71
   -10
 72
     5
 73
     6
  0
VERTEX
  5
1827
  8
0
 10
0.0
 20
0.0
 30
0.0
 70
   128
 71
    13
 72
     3
 73
     9
  0
VERTEX
  5
1828
  8
0
 10
0.0
 20
0.0
 30
0.0
 70
   128
 71
    14
 72
    13
 73
     9
  0
VERTEX
  5
1829
  8
0
 10
0.0
 20
0.0
 30
0.0
 70
   128
 71
    14
 72
     9
 73
    10
  0
VERTEX
  5
182A
  8
0
 10
0.0
 20
0.0
 30
0.0
 70
   128
 71
    10
 72
     2
 73
    14
  0
SEQEND
  5
1A93
  8
0
  0
POLYLINE
  5
182B
  8
0
 66
     1
 10
0.0
 20
0.0
 30
0.0
 70
    64
 71
    23
 72
    24
  0
VERTEX
  5
182C
  8
0
 10
27.4677739084077
 20
-60.70180026698038
 30
27.46484679762843
 70
   192
  0
VERTEX
  5
182D
  8
0
 10
0.0029271427102978
 20
-60.70312463910253
 30
38.84115882970539
 70
   192
  0
VERTEX
  5
182E
  8
0
 10
0.0029479390417661
 20
-61.13439923899305
 30
37.02697198419245
 70
   192
  0
VERTEX
  5
182F
  8
0
 10
-27.4619196229871
 20
-60.70444901122467
 30
27.46484679762843
 70
   192
  0
VERTEX
  5
1830
  8
0
 10
0.0029996981484291
 20
-62.20778028459063
 30
35.50213598656664
 70
   192
  0
VERTEX
  5
1831
  8
0
 10
36.47758132732775
 20
-61.42492421969083
 30
0.0
 70
   192
  0
VERTEX
  5
1832
  8
0
 10
0.0030750367158522
 20
-63.77015250250734
 30
34.48416509386452
 70
   192
  0
VERTEX
  5
1833
  8
0
 10
-34.7533914951036
 20
-63.20934297080535
 30
0.0000000000000043
 70
   192
  0
VERTEX
  5
1834
  8
0
 10
18.1927246052084
 20
-65.59777007040594
 30
28.86513873226667
 70
   192
  0
VERTEX
  5
1835
  8
0
 10
32.62304021799751
 20
-65.5970742315442
 30
10.00000000000001
 70
   192
  0
VERTEX
  5
1836
  8
0
 10
32.62307102408268
 20
-65.5933213571998
 30
10.0
 70
   192
  0
VERTEX
  5
1837
  8
0
 10
32.62310481349979
 20
-65.58956854703803
 30
10.0
 70
   192
  0
VERTEX
  5
1838
  8
0
 10
32.62314158615348
 20
-65.5858158010568
 30
10.0
 70
   192
  0
VERTEX
  5
1839
  8
0
 10
-36.47165726102843
 20
-61.42844187768919
 30
0.0000000000000045
 70
   192
  0
VERTEX
  5
183A
  8
0
 10
34.75948732172751
 20
-63.20599101622848
 30
0.0
 70
   192
  0
VERTEX
  5
183B
  8
0
 10
-34.11510720436855
 20
-65.600292386835
 30
0.0000000000000042
 70
   192
  0
VERTEX
  5
183C
  8
0
 10
-25.84787295672633
 20
-65.59989373561883
 30
22.26612463569386
 70
   192
  0
VERTEX
  5
183D
  8
0
 10
-5.052654791098846
 20
-65.59889097716737
 30
33.74159277407481
 70
   192
  0
VERTEX
  5
183E
  8
0
 10
33.45385978555061
 20
-65.59201790359778
 30
6.716933975696382
 70
   192
  0
VERTEX
  5
183F
  8
0
 10
33.95335539119658
 20
-65.59574711401744
 30
3.383168110734691
 70
   192
  0
VERTEX
  5
1840
  8
0
 10
34.12143362011886
 20
-65.59700197807535
 30
0.0
 70
   192
  0
VERTEX
  5
1841
  8
0
 10
-38.8382316418398
 20
-60.70499758411925
 30
0.0000000000000048
 70
   192
  0
VERTEX
  5
1842
  8
0
 10
38.84408592725839
 20
-60.7012516940858
 30
0.0
 70
   192
  0
VERTEX
  5
1843
  8
0
 10
0.0
 20
0.0
 30
0.0
 70
   128
 71
     1
 72
     2
 73
     3
  0
VERTEX
  5
1844
  8
0
 10
0.0
 20
0.0
 30
0.0
 70
   128
 71
     3
 72
     2
 73
     4
  0
VERTEX
  5
1845
  8
0
 10
0.0
 20
0.0
 30
0.0
 70
   128
 71
     3
 72
     5
 73
     6
  0
VERTEX
  5
1846
  8
0
 10
0.0
 20
0.0
 30
0.0
 70
   128
 71
     7
 72
     5
 73
     8
  0
VERTEX
  5
1847
  8
0
 10
0.0
 20
0.0
 30
0.0
 70
   128
 71
     9
 72
    10
 73
    11
  0
VERTEX
  5
1848
  8
0
 10
0.0
 20
0.0
 30
0.0
 70
   128
 71
    11
 72
    12
 73
     9
  0
VERTEX
  5
1849
  8
0
 10
0.0
 20
0.0
 30
0.0
 70
   128
 71
    12
 72
    13
 73
     9
  0
VERTEX
  5
184A
  8
0
 10
0.0
 20
0.0
 30
0.0
 70
   128
 71
     7
 72
     9
 73
    13
  0
VERTEX
  5
184B
  8
0
 10
0.0
 20
0.0
 30
0.0
 70
   128
 71
     8
 72
     5
 73
     3
  0
VERTEX
  5
184C
  8
0
 10
0.0
 20
0.0
 30
0.0
 70
   128
 71
    14
 72
     8
 73
     3
  0
VERTEX
  5
184D
  8
0
 10
0.0
 20
0.0
 30
0.0
 70
   128
 71
     5
 72
     7
 73
    15
  0
VERTEX
  5
184E
  8
0
 10
0.0
 20
0.0
 30
0.0
 70
   128
 71
     6
 72
     5
 73
    15
  0
VERTEX
  5
184F
  8
0
 10
0.0
 20
0.0
 30
0.0
 70
   128
 71
     8
 72
    16
 73
    17
  0
VERTEX
  5
1850
  8
0
 10
0.0
 20
0.0
 30
0.0
 70
   128
 71
    18
 72
     7
 73
     8
  0
VERTEX
  5
1851
  8
0
 10
0.0
 20
0.0
 30
0.0
 70
   128
 71
    17
 72
    18
 73
     8
  0
VERTEX
  5
1852
  8
0
 10
0.0
 20
0.0
 30
0.0
 70
   128
 71
     7
 72
    13
 73
    19
  0
VERTEX
  5
1853
  8
0
 10
0.0
 20
0.0
 30
0.0
 70
   128
 71
    15
 72
     7
 73
    19
  0
VERTEX
  5
1854
  8
0
 10
0.0
 20
0.0
 30
0.0
 70
   128
 71
    19
 72
    20
 73
    15
  0
VERTEX
  5
1855
  8
0
 10
0.0
 20
0.0
 30
0.0
 70
   128
 71
    20
 72
    21
 73
    15
  0
VERTEX
  5
1856
  8
0
 10
0.0
 20
0.0
 30
0.0
 70
   128
 71
    14
 72
     3
 73
     4
  0
VERTEX
  5
1857
  8
0
 10
0.0
 20
0.0
 30
0.0
 70
   128
 71
    22
 72
    14
 73
     4
  0
VERTEX
  5
1858
  8
0
 10
0.0
 20
0.0
 30
0.0
 70
   128
 71
     3
 72
     6
 73
    23
  0
VERTEX
  5
1859
  8
0
 10
0.0
 20
0.0
 30
0.0
 70
   128
 71
     1
 72
     3
 73
    23
  0
VERTEX
  5
185A
  8
0
 10
0.0
 20
0.0
 30
0.0
 70
   128
 71
     7
 72
    18
 73
     9
  0
SEQEND
  5
1A94
  8
0
  0
POLYLINE
  5
185B
  8
0
 66
     1
 10
0.0
 20
0.0
 30
0.0
 70
    64
 71
    10
 72
     8
  0
VERTEX
  5
185C
  8
0
 10
22.51513227642294
 20
-94.99587109619866
 30
0.0000000000000028
 70
   192
  0
VERTEX
  5
185D
  8
0
 10
-22.50597065086991
 20
-94.99804204199471
 30
0.0000000000000028
 70
   192
  0
VERTEX
  5
185E
  8
0
 10
-33.89278968864453
 20
-94.99804204199482
 30
0.0
 70
   192
  0
VERTEX
  5
185F
  8
0
 10
33.90195126124364
 20
-94.994772937102
 30
-0.0000000000000038
 70
   192
  0
VERTEX
  5
1860
  8
0
 10
0.0045807862995501
 20
-94.9964074895484
 30
-33.89737051435365
 70
   192
  0
VERTEX
  5
1861
  8
0
 10
0.0045808127765113
 20
-94.99695656909668
 30
-22.51055148981752
 70
   192
  0
VERTEX
  5
1862
  8
0
 10
23.97364131352517
 20
-94.99525168642934
 30
-23.9690605550924
 70
   192
  0
VERTEX
  5
1863
  8
0
 10
15.92194440096966
 20
-94.9961890238497
 30
-15.91736360669891
 70
   192
  0
VERTEX
  5
1864
  8
0
 10
-23.96447974092608
 20
-94.99756329266746
 30
-23.96906055509239
 70
   192
  0
VERTEX
  5
1865
  8
0
 10
-15.91278277541664
 20
-94.99772411434367
 30
-15.91736360669891
 70
   192
  0
VERTEX
  5
1866
  8
0
 10
0.0
 20
0.0
 30
0.0
 70
   128
 71
     8
 72
     7
 73
    -4
  0
VERTEX
  5
1867
  8
0
 10
0.0
 20
0.0
 30
0.0
 70
   128
 71
    -8
 72
     4
 73
     1
  0
VERTEX
  5
1868
  8
0
 10
0.0
 20
0.0
 30
0.0
 70
   128
 71
     6
 72
     5
 73
    -7
  0
VERTEX
  5
1869
  8
0
 10
0.0
 20
0.0
 30
0.0
 70
   128
 71
    -6
 72
     7
 73
     8
  0
VERTEX
  5
186A
  8
0
 10
0.0
 20
0.0
 30
0.0
 70
   128
 71
    10
 72
     9
 73
    -5
  0
VERTEX
  5
186B
  8
0
 10
0.0
 20
0.0
 30
0.0
 70
   128
 71
   -10
 72
     5
 73
     6
  0
VERTEX
  5
186C
  8
0
 10
0.0
 20
0.0
 30
0.0
 70
   128
 71
     2
 72
     3
 73
    -9
  0
VERTEX
  5
186D
  8
0
 10
0.0
 20
0.0
 30
0.0
 70
   128
 71
    -2
 72
     9
 73
    10
  0
SEQEND
  5
1A95
  8
0
  0
POLYLINE
  5
186E
  8
0
 66
     1
 10
0.0
 20
0.0
 30
0.0
 70
    64
 71
    10
 72
     8
  0
VERTEX
  5
186F
  8
0
 10
-22.50597065086991
 20
-61.4980706424162
 30
0.0
 70
   192
  0
VERTEX
  5
1870
  8
0
 10
22.51190149720254
 20
-61.49589985241035
 30
0.0000000000000028
 70
   192
  0
VERTEX
  5
1871
  8
0
 10
34.85028865741887
 20
-50.03096497848588
 30
0.0000000000000043
 70
   192
  0
VERTEX
  5
1872
  8
0
 10
-34.84546344639299
 20
-50.03432575132783
 30
0.0
 70
   192
  0
VERTEX
  5
1873
  8
0
 10
0.0024126055129362
 20
-50.03264536490686
 30
34.84787609242056
 70
   192
  0
VERTEX
  5
1874
  8
0
 10
0.0029654231663108
 20
-61.49698524741327
 30
22.50893610020543
 70
   192
  0
VERTEX
  5
1875
  8
0
 10
-24.63875686073803
 20
-50.03383357754014
 30
24.64116949489915
 70
   192
  0
VERTEX
  5
1876
  8
0
 10
-15.91325591207921
 20
-61.49775273758011
 30
15.91622135374994
 70
   192
  0
VERTEX
  5
1877
  8
0
 10
24.64358207176391
 20
-50.03145715227358
 30
24.64116949489915
 70
   192
  0
VERTEX
  5
1878
  8
0
 10
15.91918675841183
 20
-61.49621775724643
 30
15.91622135374994
 70
   192
  0
VERTEX
  5
1879
  8
0
 10
0.0
 20
0.0
 30
0.0
 70
   128
 71
     8
 72
     1
 73
    -4
  0
VERTEX
  5
187A
  8
0
 10
0.0
 20
0.0
 30
0.0
 70
   128
 71
     7
 72
    -8
 73
     4
  0
VERTEX
  5
187B
  8
0
 10
0.0
 20
0.0
 30
0.0
 70
   128
 71
     6
 72
     8
 73
    -7
  0
VERTEX
  5
187C
  8
0
 10
0.0
 20
0.0
 30
0.0
 70
   128
 71
     5
 72
    -6
 73
     7
  0
VERTEX
  5
187D
  8
0
 10
0.0
 20
0.0
 30
0.0
 70
   128
 71
    10
 72
     6
 73
    -5
  0
VERTEX
  5
187E
  8
0
 10
0.0
 20
0.0
 30
0.0
 70
   128
 71
     9
 72
   -10
 73
     5
  0
VERTEX
  5
187F
  8
0
 10
0.0
 20
0.0
 30
0.0
 70
   128
 71
     3
 72
     2
 73
   -10
  0
VERTEX
  5
1880
  8
0
 10
0.0
 20
0.0
 30
0.0
 70
   128
 71
     9
 72
    -3
 73
    10
  0
SEQEND
  5
1A96
  8
0
  0
POLYLINE
  5
1881
  8
0
 66
     1
 10
0.0
 20
0.0
 30
0.0
 70
    64
 71
    14
 72
    12
  0
VERTEX
  5
1882
  8
0
 10
94.54975966724547
 20
-42.09841028074936
 30
0.0
 70
   192
  0
VERTEX
  5
1883
  8
0
 10
-94.54569920410508
 20
-42.10752858227454
 30
0.0000000000000116
 70
   192
  0
VERTEX
  5
1884
  8
0
 10
-34.845463446393
 20
-50.0343257513278
 30
0.0000000000000043
 70
   192
  0
VERTEX
  5
1885
  8
0
 10
34.85028865741906
 20
-50.03096497848588
 30
0.0
 70
   192
  0
VERTEX
  5
1886
  8
0
 10
0.0024126055129362
 20
-50.03264536490686
 30
34.84787609242056
 70
   192
  0
VERTEX
  5
1887
  8
0
 10
0.002030231570226
 20
-42.10296943151197
 30
94.5477295455978
 70
   192
  0
VERTEX
  5
1888
  8
0
 10
24.64358207176391
 20
-50.03145715227358
 30
24.64116949489915
 70
   192
  0
VERTEX
  5
1889
  8
0
 10
66.85737086132714
 20
-42.09974562509127
 30
66.85534070748389
 70
   192
  0
VERTEX
  5
188A
  8
0
 10
-24.63875686073803
 20
-50.03383357754014
 30
24.64116949489915
 70
   192
  0
VERTEX
  5
188B
  8
0
 10
-66.8533103981867
 20
-42.10619323793266
 30
66.8553407074839
 70
   192
  0
VERTEX
  5
188C
  8
0
 10
74.8696196108859
 20
-46.24977756066062
 30
0.0
 70
   192
  0
VERTEX
  5
188D
  8
0
 10
54.9316355484663
 20
-48.89903301405838
 30
0.0
 70
   192
  0
VERTEX
  5
188E
  8
0
 10
-74.8651588762044
 20
-46.25699786551201
 30
0.0000000000000092
 70
   192
  0
VERTEX
  5
188F
  8
0
 10
-54.92691940898962
 20
-48.90433046242237
 30
0.0000000000000067
 70
   192
  0
VERTEX
  5
1890
  8
0
 10
0.0
 20
0.0
 30
0.0
 70
   128
 71
     8
 72
     1
 73
    11
  0
VERTEX
  5
1891
  8
0
 10
0.0
 20
0.0
 30
0.0
 70
   128
 71
     8
 72
    11
 73
    12
  0
VERTEX
  5
1892
  8
0
 10
0.0
 20
0.0
 30
0.0
 70
   128
 71
     7
 72
     8
 73
    12
  0
VERTEX
  5
1893
  8
0
 10
0.0
 20
0.0
 30
0.0
 70
   128
 71
    12
 72
     4
 73
     7
  0
VERTEX
  5
1894
  8
0
 10
0.0
 20
0.0
 30
0.0
 70
   128
 71
     6
 72
     8
 73
    -7
  0
VERTEX
  5
1895
  8
0
 10
0.0
 20
0.0
 30
0.0
 70
   128
 71
     5
 72
    -6
 73
     7
  0
VERTEX
  5
1896
  8
0
 10
0.0
 20
0.0
 30
0.0
 70
   128
 71
    10
 72
     6
 73
    -5
  0
VERTEX
  5
1897
  8
0
 10
0.0
 20
0.0
 30
0.0
 70
   128
 71
     9
 72
   -10
 73
     5
  0
VERTEX
  5
1898
  8
0
 10
0.0
 20
0.0
 30
0.0
 70
   128
 71
     9
 72
     3
 73
    14
  0
VERTEX
  5
1899
  8
0
 10
0.0
 20
0.0
 30
0.0
 70
   128
 71
    13
 72
    10
 73
     9
  0
VERTEX
  5
189A
  8
0
 10
0.0
 20
0.0
 30
0.0
 70
   128
 71
    14
 72
    13
 73
     9
  0
VERTEX
  5
189B
  8
0
 10
0.0
 20
0.0
 30
0.0
 70
   128
 71
    13
 72
     2
 73
    10
  0
SEQEND
  5
1A97
  8
0
  0
POLYLINE
  5
189C
  8
0
 66
     1
 10
0.0
 20
0.0
 30
0.0
 70
    64
 71
    16
 72
    14
  0
VERTEX
  5
189D
  8
0
 10
147.277566574158
 20
27.03534071287021
 30
85.03149527739463
 70
   192
  0
VERTEX
  5
189E
  8
0
 10
170.0616870384576
 20
27.03643937743688
 30
0.0
 70
   192
  0
VERTEX
  5
189F
  8
0
 10
153.5214066507005
 20
-4.400977668973894
 30
0.0
 70
   192
  0
VERTEX
  5
18A0
  8
0
 10
127.320806427365
 20
-28.38890408608066
 30
0.0
 70
   192
  0
VERTEX
  5
18A1
  8
0
 10
66.85737086132714
 20
-42.09974562509127
 30
66.85534070748389
 70
   192
  0
VERTEX
  5
18A2
  8
0
 10
94.54975966724567
 20
-42.09841028074924
 30
0.0
 70
   192
  0
VERTEX
  5
18A3
  8
0
 10
0.002030231570226
 20
-42.10296943151197
 30
94.5477295455978
 70
   192
  0
VERTEX
  5
18A4
  8
0
 10
-0.0013033186139848
 20
27.02823883347029
 30
170.0629905547893
 70
   192
  0
VERTEX
  5
18A5
  8
0
 10
85.0301918599218
 20
27.03233910545358
 30
147.2788700640006
 70
   192
  0
VERTEX
  5
18A6
  8
0
 10
-66.8533103981867
 20
-42.10619323793266
 30
66.8553407074839
 70
   192
  0
VERTEX
  5
18A7
  8
0
 10
-85.03279849714978
 20
27.024138561487
 30
147.2788700640006
 70
   192
  0
VERTEX
  5
18A8
  8
0
 10
-94.54569920410515
 20
-42.10752858227447
 30
0.0000000000000116
 70
   192
  0
VERTEX
  5
18A9
  8
0
 10
-127.3180679737808
 20
-28.40118293217616
 30
0.0000000000000156
 70
   192
  0
VERTEX
  5
18AA
  8
0
 10
-153.5209815009544
 20
-4.41578344534161
 30
0.0000000000000188
 70
   192
  0
VERTEX
  5
18AB
  8
0
 10
-170.0642936756856
 20
27.02003828950371
 30
0.0000000000000208
 70
   192
  0
VERTEX
  5
18AC
  8
0
 10
-147.280173211386
 20
27.02113695407037
 30
85.03149527739471
 70
   192
  0
VERTEX
  5
18AD
  8
0
 10
0.0
 20
0.0
 30
0.0
 70
   128
 71
     1
 72
     2
 73
     3
  0
VERTEX
  5
18AE
  8
0
 10
0.0
 20
0.0
 30
0.0
 70
   128
 71
     4
 72
     5
 73
     1
  0
VERTEX
  5
18AF
  8
0
 10
0.0
 20
0.0
 30
0.0
 70
   128
 71
     3
 72
     4
 73
     1
  0
VERTEX
  5
18B0
  8
0
 10
0.0
 20
0.0
 30
0.0
 70
   128
 71
     4
 72
     6
 73
     5
  0
VERTEX
  5
18B1
  8
0
 10
0.0
 20
0.0
 30
0.0
 70
   128
 71
     7
 72
     8
 73
     9
  0
VERTEX
  5
18B2
  8
0
 10
0.0
 20
0.0
 30
0.0
 70
   128
 71
     5
 72
     7
 73
     9
  0
VERTEX
  5
18B3
  8
0
 10
0.0
 20
0.0
 30
0.0
 70
   128
 71
     8
 72
     7
 73
    10
  0
VERTEX
  5
18B4
  8
0
 10
0.0
 20
0.0
 30
0.0
 70
   128
 71
    11
 72
     8
 73
    10
  0
VERTEX
  5
18B5
  8
0
 10
0.0
 20
0.0
 30
0.0
 70
   128
 71
    10
 72
    12
 73
    13
  0
VERTEX
  5
18B6
  8
0
 10
0.0
 20
0.0
 30
0.0
 70
   128
 71
    13
 72
    14
 73
    10
  0
VERTEX
  5
18B7
  8
0
 10
0.0
 20
0.0
 30
0.0
 70
   128
 71
    14
 72
    15
 73
    16
  0
VERTEX
  5
18B8
  8
0
 10
0.0
 20
0.0
 30
0.0
 70
   128
 71
     5
 72
     9
 73
     1
  0
VERTEX
  5
18B9
  8
0
 10
0.0
 20
0.0
 30
0.0
 70
   128
 71
    14
 72
    16
 73
    11
  0
VERTEX
  5
18BA
  8
0
 10
0.0
 20
0.0
 30
0.0
 70
   128
 71
    10
 72
    14
 73
    11
  0
SEQEND
  5
1A98
  8
0
  0
POLYLINE
  5
18BB
  8
0
 66
     1
 10
0.0
 20
0.0
 30
0.0
 70
    64
 71
    27
 72
    34
  0
VERTEX
  5
18BC
  8
0
 10
95.27517174931837
 20
95.01182539019587
 30
-165.0293734201263
 70
   192
  0
VERTEX
  5
18BD
  8
0
 10
-0.0045813082131948
 20
95.00723094079548
 30
-190.5595063366104
 70
   192
  0
VERTEX
  5
18BE
  8
0
 10
-0.0045751340683633
 20
94.87919144392487
 30
-189.9734842054301
 70
   192
  0
VERTEX
  5
18BF
  8
0
 10
134.3269636370509
 20
94.88566899490452
 30
-134.3315389272951
 70
   192
  0
VERTEX
  5
18C0
  8
0
 10
190.5549248068498
 20
95.01641983959625
 30
0.0
 70
   192
  0
VERTEX
  5
18C1
  8
0
 10
165.0247919200476
 20
95.01518876058975
 30
-95.27975316830528
 70
   192
  0
VERTEX
  5
18C2
  8
0
 10
-134.3361139051876
 20
94.8727138929452
 30
-134.3315389272951
 70
   192
  0
VERTEX
  5
18C3
  8
0
 10
-95.28433436574474
 20
95.0026364913951
 30
-165.0293734201263
 70
   192
  0
VERTEX
  5
18C4
  8
0
 10
-0.0045612566658487
 20
94.59140168514602
 30
-189.4471828605908
 70
   192
  0
VERTEX
  5
18C5
  8
0
 10
133.9548262650027
 20
94.59786129075923
 30
-133.9593876774117
 70
   192
  0
VERTEX
  5
18C6
  8
0
 10
-189.7937502625766
 20
94.79096282669207
 30
0.0000000000000232
 70
   192
  0
VERTEX
  5
18C7
  8
0
 10
-133.9639487783344
 20
94.58494207953282
 30
-133.9593876774116
 70
   192
  0
VERTEX
  5
18C8
  8
0
 10
-0.0045407978235364
 20
94.16712593989685
 30
-189.023147316556
 70
   192
  0
VERTEX
  5
18C9
  8
0
 10
133.6550083155425
 20
94.17357108711411
 30
-133.6595492687605
 70
   192
  0
VERTEX
  5
18CA
  8
0
 10
189.1462613014366
 20
94.3309200993403
 30
0.0
 70
   192
  0
VERTEX
  5
18CB
  8
0
 10
-133.6640899111895
 20
94.1606807926796
 30
-133.6595492687605
 70
   192
  0
VERTEX
  5
18CC
  8
0
 10
-0.0045154113881804
 20
93.64066170312978
 30
-188.7356556509537
 70
   192
  0
VERTEX
  5
18CD
  8
0
 10
94.36331230437528
 20
93.64521217891873
 30
-163.449872393638
 70
   192
  0
VERTEX
  5
18CE
  8
0
 10
-188.7401708429147
 20
93.6315607515519
 30
0.0000000000000231
 70
   192
  0
VERTEX
  5
18CF
  8
0
 10
-163.4543876149969
 20
93.63278004786471
 30
-94.36782782547684
 70
   192
  0
VERTEX
  5
18D0
  8
0
 10
-94.37234312715164
 20
93.63611122734083
 30
-163.449872393638
 70
   192
  0
VERTEX
  5
18D1
  8
0
 10
189.7846076207117
 20
94.80926633297548
 30
0.0
 70
   192
  0
VERTEX
  5
18D2
  8
0
 10
-189.1553578139598
 20
94.31267815820034
 30
0.0000000000000232
 70
   192
  0
VERTEX
  5
18D3
  8
0
 10
163.4453567922207
 20
93.64854335839485
 30
-94.36782782547697
 70
   192
  0
VERTEX
  5
18D4
  8
0
 10
188.7311400201388
 20
93.64976265470766
 30
-0.0000000000001362
 70
   192
  0
VERTEX
  5
18D5
  8
0
 10
-165.0339545364739
 20
94.99927312100121
 30
-95.27975316830515
 70
   192
  0
VERTEX
  5
18D6
  8
0
 10
-190.5640874232762
 20
94.99804204199471
 30
0.0000000000000233
 70
   192
  0
VERTEX
  5
18D7
  8
0
 10
0.0
 20
0.0
 30
0.0
 70
   128
 71
     1
 72
     2
 73
     3
  0
VERTEX
  5
18D8
  8
0
 10
0.0
 20
0.0
 30
0.0
 70
   128
 71
     1
 72
     3
 73
     4
  0
VERTEX
  5
18D9
  8
0
 10
0.0
 20
0.0
 30
0.0
 70
   128
 71
     4
 72
     5
 73
     6
  0
VERTEX
  5
18DA
  8
0
 10
0.0
 20
0.0
 30
0.0
 70
   128
 71
     7
 72
     3
 73
     2
  0
VERTEX
  5
18DB
  8
0
 10
0.0
 20
0.0
 30
0.0
 70
   128
 71
     7
 72
     2
 73
     8
  0
VERTEX
  5
18DC
  8
0
 10
0.0
 20
0.0
 30
0.0
 70
   128
 71
     9
 72
    10
 73
    -4
  0
VERTEX
  5
18DD
  8
0
 10
0.0
 20
0.0
 30
0.0
 70
   128
 71
    -9
 72
     4
 73
     3
  0
VERTEX
  5
18DE
  8
0
 10
0.0
 20
0.0
 30
0.0
 70
   128
 71
    11
 72
    12
 73
     7
  0
VERTEX
  5
18DF
  8
0
 10
0.0
 20
0.0
 30
0.0
 70
   128
 71
    12
 72
     9
 73
    -3
  0
VERTEX
  5
18E0
  8
0
 10
0.0
 20
0.0
 30
0.0
 70
   128
 71
   -12
 72
     3
 73
     7
  0
VERTEX
  5
18E1
  8
0
 10
0.0
 20
0.0
 30
0.0
 70
   128
 71
    13
 72
    14
 73
   -10
  0
VERTEX
  5
18E2
  8
0
 10
0.0
 20
0.0
 30
0.0
 70
   128
 71
   -13
 72
    10
 73
     9
  0
VERTEX
  5
18E3
  8
0
 10
0.0
 20
0.0
 30
0.0
 70
   128
 71
    15
 72
    10
 73
    14
  0
VERTEX
  5
18E4
  8
0
 10
0.0
 20
0.0
 30
0.0
 70
   128
 71
    16
 72
    13
 73
    -9
  0
VERTEX
  5
18E5
  8
0
 10
0.0
 20
0.0
 30
0.0
 70
   128
 71
   -16
 72
     9
 73
    12
  0
VERTEX
  5
18E6
  8
0
 10
0.0
 20
0.0
 30
0.0
 70
   128
 71
    14
 72
    13
 73
    17
  0
VERTEX
  5
18E7
  8
0
 10
0.0
 20
0.0
 30
0.0
 70
   128
 71
    14
 72
    17
 73
    18
  0
VERTEX
  5
18E8
  8
0
 10
0.0
 20
0.0
 30
0.0
 70
   128
 71
    16
 72
    19
 73
    20
  0
VERTEX
  5
18E9
  8
0
 10
0.0
 20
0.0
 30
0.0
 70
   128
 71
    21
 72
    17
 73
    13
  0
VERTEX
  5
18EA
  8
0
 10
0.0
 20
0.0
 30
0.0
 70
   128
 71
    21
 72
    13
 73
    16
  0
VERTEX
  5
18EB
  8
0
 10
0.0
 20
0.0
 30
0.0
 70
   128
 71
     4
 72
    10
 73
    15
  0
VERTEX
  5
18EC
  8
0
 10
0.0
 20
0.0
 30
0.0
 70
   128
 71
     4
 72
    15
 73
    22
  0
VERTEX
  5
18ED
  8
0
 10
0.0
 20
0.0
 30
0.0
 70
   128
 71
    23
 72
    16
 73
    12
  0
VERTEX
  5
18EE
  8
0
 10
0.0
 20
0.0
 30
0.0
 70
   128
 71
    23
 72
    12
 73
    11
  0
VERTEX
  5
18EF
  8
0
 10
0.0
 20
0.0
 30
0.0
 70
   128
 71
    14
 72
    24
 73
    25
  0
VERTEX
  5
18F0
  8
0
 10
0.0
 20
0.0
 30
0.0
 70
   128
 71
    14
 72
    25
 73
    15
  0
VERTEX
  5
18F1
  8
0
 10
0.0
 20
0.0
 30
0.0
 70
   128
 71
    19
 72
    16
 73
    23
  0
VERTEX
  5
18F2
  8
0
 10
0.0
 20
0.0
 30
0.0
 70
   128
 71
     4
 72
    22
 73
     5
  0
VERTEX
  5
18F3
  8
0
 10
0.0
 20
0.0
 30
0.0
 70
   128
 71
    11
 72
     7
 73
    26
  0
VERTEX
  5
18F4
  8
0
 10
0.0
 20
0.0
 30
0.0
 70
   128
 71
    11
 72
    26
 73
    27
  0
VERTEX
  5
18F5
  8
0
 10
0.0
 20
0.0
 30
0.0
 70
   128
 71
     1
 72
     4
 73
     6
  0
VERTEX
  5
18F6
  8
0
 10
0.0
 20
0.0
 30
0.0
 70
   128
 71
    26
 72
     7
 73
     8
  0
VERTEX
  5
18F7
  8
0
 10
0.0
 20
0.0
 30
0.0
 70
   128
 71
    18
 72
    24
 73
    14
  0
VERTEX
  5
18F8
  8
0
 10
0.0
 20
0.0
 30
0.0
 70
   128
 71
    20
 72
    21
 73
    16
  0
SEQEND
  5
1A99
  8
0
  0
POLYLINE
  5
18F9
  8
0
 66
     1
 10
0.0
 20
0.0
 30
0.0
 70
    64
 71
    14
 72
    12
  0
VERTEX
  5
18FA
  8
0
 10
-190.5640874232762
 20
94.99804204199471
 30
0.0000000000001058
 70
   192
  0
VERTEX
  5
18FB
  8
0
 10
-197.8882367941948
 20
94.99804204199472
 30
0.0
 70
   192
  0
VERTEX
  5
18FC
  8
0
 10
-171.3768539550828
 20
94.99932043748883
 30
98.94182784950699
 70
   192
  0
VERTEX
  5
18FD
  8
0
 10
-165.0339545364738
 20
94.99927312100121
 30
95.27975316830526
 70
   192
  0
VERTEX
  5
18FE
  8
0
 10
-0.0045813252433891
 20
95.00758411586709
 30
197.8836556990138
 70
   192
  0
VERTEX
  5
18FF
  8
0
 10
-0.0045813082130679
 20
95.00723094079548
 30
190.5595063366104
 70
   192
  0
VERTEX
  5
1900
  8
0
 10
-95.28433436574463
 20
95.0026364913951
 30
165.0293734201263
 70
   192
  0
VERTEX
  5
1901
  8
0
 10
-98.9464090597191
 20
95.0028130789309
 30
171.3722728290793
 70
   192
  0
VERTEX
  5
1902
  8
0
 10
98.9372464092323
 20
95.01235515280328
 30
171.3722728290793
 70
   192
  0
VERTEX
  5
1903
  8
0
 10
95.27517174931849
 20
95.01182539019587
 30
165.0293734201263
 70
   192
  0
VERTEX
  5
1904
  8
0
 10
197.879074143489
 20
95.01712618973944
 30
0.0000000000000242
 70
   192
  0
VERTEX
  5
1905
  8
0
 10
190.5549248068498
 20
95.01641983959627
 30
0.0000000000000233
 70
   192
  0
VERTEX
  5
1906
  8
0
 10
165.0247919200476
 20
95.01518876058975
 30
95.27975316830516
 70
   192
  0
VERTEX
  5
1907
  8
0
 10
171.367691304596
 20
95.01584779424535
 30
98.9418278495069
 70
   192
  0
VERTEX
  5
1908
  8
0
 10
0.0
 20
0.0
 30
0.0
 70
   128
 71
     1
 72
     2
 73
    -3
  0
VERTEX
  5
1909
  8
0
 10
0.0
 20
0.0
 30
0.0
 70
   128
 71
     4
 72
    -1
 73
     3
  0
VERTEX
  5
190A
  8
0
 10
0.0
 20
0.0
 30
0.0
 70
   128
 71
     5
 72
     6
 73
    -7
  0
VERTEX
  5
190B
  8
0
 10
0.0
 20
0.0
 30
0.0
 70
   128
 71
     8
 72
    -5
 73
     7
  0
VERTEX
  5
190C
  8
0
 10
0.0
 20
0.0
 30
0.0
 70
   128
 71
     6
 72
     5
 73
    -9
  0
VERTEX
  5
190D
  8
0
 10
0.0
 20
0.0
 30
0.0
 70
   128
 71
    10
 72
    -6
 73
     9
  0
VERTEX
  5
190E
  8
0
 10
0.0
 20
0.0
 30
0.0
 70
   128
 71
    11
 72
    12
 73
   -13
  0
VERTEX
  5
190F
  8
0
 10
0.0
 20
0.0
 30
0.0
 70
   128
 71
    14
 72
   -11
 73
    13
  0
VERTEX
  5
1910
  8
0
 10
0.0
 20
0.0
 30
0.0
 70
   128
 71
     7
 72
     4
 73
    -3
  0
VERTEX
  5
1911
  8
0
 10
0.0
 20
0.0
 30
0.0
 70
   128
 71
     8
 72
    -7
 73
     3
  0
VERTEX
  5
1912
  8
0
 10
0.0
 20
0.0
 30
0.0
 70
   128
 71
    13
 72
    10
 73
    -9
  0
VERTEX
  5
1913
  8
0
 10
0.0
 20
0.0
 30
0.0
 70
   128
 71
    14
 72
   -13
 73
     9
  0
SEQEND
  5
1A9A
  8
0
  0
POLYLINE
  5
1914
  8
0
 66
     1
 10
0.0
 20
0.0
 30
0.0
 70
    64
 71
     9
 72
     7
  0
VERTEX
  5
1915
  8
0
 10
32.62314158615348
 20
-65.5858158010568
 30
10.0
 70
   192
  0
VERTEX
  5
1916
  8
0
 10
33.45385978555061
 20
-65.59201790359778
 30
6.716933975696382
 70
   192
  0
VERTEX
  5
1917
  8
0
 10
33.95335539119658
 20
-65.59574711401744
 30
3.383168110734691
 70
   192
  0
VERTEX
  5
1918
  8
0
 10
34.12143362011886
 20
-65.59700197807535
 30
0.0
 70
   192
  0
VERTEX
  5
1919
  8
0
 10
33.95347894917278
 20
-65.59574803649542
 30
-3.382349700859305
 70
   192
  0
VERTEX
  5
191A
  8
0
 10
33.45410951896883
 20
-65.59201976809562
 30
-6.715692091089221
 70
   192
  0
VERTEX
  5
191B
  8
0
 10
32.62314158615347
 20
-65.5858158010568
 30
-10.0
 70
   192
  0
VERTEX
  5
191C
  8
0
 10
24.12171231069495
 20
-65.52234453468802
 30
-10.0
 70
   192
  0
VERTEX
  5
191D
  8
0
 10
24.12171231069495
 20
-65.522344534688
 30
10.0
 70
   192
  0
VERTEX
  5
191E
  8
0
 10
0.0
 20
0.0
 30
0.0
 70
   128
 71
     2
 72
     1
 73
    -9
  0
VERTEX
  5
191F
  8
0
 10
0.0
 20
0.0
 30
0.0
 70
   128
 71
    -9
 72
     3
 73
    -2
  0
VERTEX
  5
1920
  8
0
 10
0.0
 20
0.0
 30
0.0
 70
   128
 71
     9
 72
    -8
 73
    -4
  0
VERTEX
  5
1921
  8
0
 10
0.0
 20
0.0
 30
0.0
 70
   128
 71
    -9
 72
     4
 73
    -3
  0
VERTEX
  5
1922
  8
0
 10
0.0
 20
0.0
 30
0.0
 70
   128
 71
    -8
 72
     5
 73
    -4
  0
VERTEX
  5
1923
  8
0
 10
0.0
 20
0.0
 30
0.0
 70
   128
 71
    -8
 72
     6
 73
    -5
  0
VERTEX
  5
1924
  8
0
 10
0.0
 20
0.0
 30
0.0
 70
   128
 71
     8
 72
     7
 73
    -6
  0
SEQEND
  5
1A9B
  8
0
  0
POLYLINE
  5
1925
  8
0
 66
     1
 10
0.0
 20
0.0
 30
0.0
 70
    64
 71
    14
 72
    12
  0
VERTEX
  5
1926
  8
0
 10
32.45801386075654
 20
-86.71952200418896
 30
10.0
 70
   192
  0
VERTEX
  5
1927
  8
0
 10
33.29119313834752
 20
-86.71952200418897
 30
6.725033159357281
 70
   192
  0
VERTEX
  5
1928
  8
0
 10
33.79559870274035
 20
-86.71952200418897
 30
3.375103861050809
 70
   192
  0
VERTEX
  5
1929
  8
0
 10
33.9637338908713
 20
-86.71952200418896
 30
0.0000000000000042
 70
   192
  0
VERTEX
  5
192A
  8
0
 10
33.79559870274035
 20
-86.71952200418897
 30
-3.375103861050801
 70
   192
  0
VERTEX
  5
192B
  8
0
 10
33.29119313834752
 20
-86.71952200418897
 30
-6.725033159357275
 70
   192
  0
VERTEX
  5
192C
  8
0
 10
32.45801386075654
 20
-86.71952200418896
 30
-10.0
 70
   192
  0
VERTEX
  5
192D
  8
0
 10
20.17115867989737
 20
-86.71952200418896
 30
-10.0
 70
   192
  0
VERTEX
  5
192E
  8
0
 10
21.46057211801774
 20
-86.71952200418896
 30
-6.80663433121891
 70
   192
  0
VERTEX
  5
192F
  8
0
 10
22.25089360071074
 20
-86.71952200418895
 30
-3.433769126084329
 70
   192
  0
VERTEX
  5
1930
  8
0
 10
22.51433409494175
 20
-86.71952200418896
 30
0.0
 70
   192
  0
VERTEX
  5
1931
  8
0
 10
22.25089360071074
 20
-86.71952200418895
 30
3.433769126084323
 70
   192
  0
VERTEX
  5
1932
  8
0
 10
21.46057211801774
 20
-86.71952200418895
 30
6.806634331218915
 70
   192
  0
VERTEX
  5
1933
  8
0
 10
20.17115867989738
 20
-86.71952200418896
 30
10.0
 70
   192
  0
VERTEX
  5
1934
  8
0
 10
0.0
 20
0.0
 30
0.0
 70
   128
 71
     7
 72
     8
 73
    -9
  0
VERTEX
  5
1935
  8
0
 10
0.0
 20
0.0
 30
0.0
 70
   128
 71
   -10
 72
     6
 73
    -7
  0
VERTEX
  5
1936
  8
0
 10
0.0
 20
0.0
 30
0.0
 70
   128
 71
     9
 72
   -10
 73
    -7
  0
VERTEX
  5
1937
  8
0
 10
0.0
 20
0.0
 30
0.0
 70
   128
 71
   -11
 72
     4
 73
    -5
  0
VERTEX
  5
1938
  8
0
 10
0.0
 20
0.0
 30
0.0
 70
   128
 71
    10
 72
   -11
 73
    -5
  0
VERTEX
  5
1939
  8
0
 10
0.0
 20
0.0
 30
0.0
 70
   128
 71
     5
 72
    -6
 73
   -10
  0
VERTEX
  5
193A
  8
0
 10
0.0
 20
0.0
 30
0.0
 70
   128
 71
   -12
 72
     2
 73
    -3
  0
VERTEX
  5
193B
  8
0
 10
0.0
 20
0.0
 30
0.0
 70
   128
 71
    -4
 72
    11
 73
   -12
  0
VERTEX
  5
193C
  8
0
 10
0.0
 20
0.0
 30
0.0
 70
   128
 71
     3
 72
    -4
 73
   -12
  0
VERTEX
  5
193D
  8
0
 10
0.0
 20
0.0
 30
0.0
 70
   128
 71
   -13
 72
     1
 73
    -2
  0
VERTEX
  5
193E
  8
0
 10
0.0
 20
0.0
 30
0.0
 70
   128
 71
    12
 72
   -13
 73
    -2
  0
VERTEX
  5
193F
  8
0
 10
0.0
 20
0.0
 30
0.0
 70
   128
 71
    13
 72
    14
 73
    -1
  0
SEQEND
  5
1A9C
  8
0
  0
POLYLINE
  5
1940
  8
0
 66
     1
 10
0.0
 20
0.0
 30
0.0
 70
    64
 71
     9
 72
     7
  0
VERTEX
  5
1941
  8
0
 10
20.16899879621288
 20
-65.55337349543584
 30
-10.0
 70
   192
  0
VERTEX
  5
1942
  8
0
 10
21.45847531203347
 20
-65.54325105270173
 30
-6.806648161878442
 70
   192
  0
VERTEX
  5
1943
  8
0
 10
22.24883710127033
 20
-65.5370466807317
 30
-3.433779095450292
 70
   192
  0
VERTEX
  5
1944
  8
0
 10
22.51229103101594
 20
-65.5349785567417
 30
0.0
 70
   192
  0
VERTEX
  5
1945
  8
0
 10
22.24883710127033
 20
-65.53704668073172
 30
3.433779095450297
 70
   192
  0
VERTEX
  5
1946
  8
0
 10
21.45847531203348
 20
-65.54325105270175
 30
6.806648161878435
 70
   192
  0
VERTEX
  5
1947
  8
0
 10
20.16899879621288
 20
-65.55337349543582
 30
10.0
 70
   192
  0
VERTEX
  5
1948
  8
0
 10
24.12171231069495
 20
-65.52234453468802
 30
10.0
 70
   192
  0
VERTEX
  5
1949
  8
0
 10
24.12171231069495
 20
-65.522344534688
 30
-10.0
 70
   192
  0
VERTEX
  5
194A
  8
0
 10
0.0
 20
0.0
 30
0.0
 70
   128
 71
     2
 72
     1
 73
    -9
  0
VERTEX
  5
194B
  8
0
 10
0.0
 20
0.0
 30
0.0
 70
   128
 71
    -9
 72
     3
 73
    -2
  0
VERTEX
  5
194C
  8
0
 10
0.0
 20
0.0
 30
0.0
 70
   128
 71
    -9
 72
     4
 73
    -3
  0
VERTEX
  5
194D
  8
0
 10
0.0
 20
0.0
 30
0.0
 70
   128
 71
     9
 72
    -8
 73
    -4
  0
VERTEX
  5
194E
  8
0
 10
0.0
 20
0.0
 30
0.0
 70
   128
 71
    -8
 72
     5
 73
    -4
  0
VERTEX
  5
194F
  8
0
 10
0.0
 20
0.0
 30
0.0
 70
   128
 71
    -8
 72
     6
 73
    -5
  0
VERTEX
  5
1950
  8
0
 10
0.0
 20
0.0
 30
0.0
 70
   128
 71
     8
 72
     7
 73
    -6
  0
SEQEND
  5
1A9D
  8
0
  0
POLYLINE
  5
1951
  8
0
 66
     1
 10
0.0
 20
0.0
 30
0.0
 70
    64
 71
    12
 72
    10
  0
VERTEX
  5
1952
  8
0
 10
32.62304021799749
 20
-65.59707423154421
 30
-10.0
 70
   192
  0
VERTEX
  5
1953
  8
0
 10
32.62307102408268
 20
-65.5933213571998
 30
-9.999999999999998
 70
   192
  0
VERTEX
  5
1954
  8
0
 10
32.62310481349979
 20
-65.58956854703803
 30
-10.0
 70
   192
  0
VERTEX
  5
1955
  8
0
 10
32.62314158615348
 20
-65.5858158010568
 30
-10.0
 70
   192
  0
VERTEX
  5
1956
  8
0
 10
24.12171231069495
 20
-65.522344534688
 30
-10.0
 70
   192
  0
VERTEX
  5
1957
  8
0
 10
20.16899879621288
 20
-65.55337349543582
 30
-10.0
 70
   192
  0
VERTEX
  5
1958
  8
0
 10
20.16971875885236
 20
-72.60875633168673
 30
-9.999999999999998
 70
   192
  0
VERTEX
  5
1959
  8
0
 10
20.1704387200805
 20
-79.66413916793778
 30
-10.0
 70
   192
  0
VERTEX
  5
195A
  8
0
 10
20.17115867989737
 20
-86.71952200418896
 30
-10.0
 70
   192
  0
VERTEX
  5
195B
  8
0
 10
32.45801386075654
 20
-86.71952200418896
 30
-10.0
 70
   192
  0
VERTEX
  5
195C
  8
0
 10
32.5130307790781
 20
-79.67870614350771
 30
-9.999999999999998
 70
   192
  0
VERTEX
  5
195D
  8
0
 10
32.56803955101555
 20
-72.63789021918427
 30
-10.0
 70
   192
  0
VERTEX
  5
195E
  8
0
 10
0.0
 20
0.0
 30
0.0
 70
   128
 71
     9
 72
    10
 73
   -11
  0
VERTEX
  5
195F
  8
0
 10
0.0
 20
0.0
 30
0.0
 70
   128
 71
     8
 72
    -9
 73
   -11
  0
VERTEX
  5
1960
  8
0
 10
0.0
 20
0.0
 30
0.0
 70
   128
 71
   -12
 72
     7
 73
    -8
  0
VERTEX
  5
1961
  8
0
 10
0.0
 20
0.0
 30
0.0
 70
   128
 71
    11
 72
   -12
 73
    -8
  0
VERTEX
  5
1962
  8
0
 10
0.0
 20
0.0
 30
0.0
 70
   128
 71
    12
 72
    -1
 73
    -5
  0
VERTEX
  5
1963
  8
0
 10
0.0
 20
0.0
 30
0.0
 70
   128
 71
    -7
 72
   -12
 73
    -5
  0
VERTEX
  5
1964
  8
0
 10
0.0
 20
0.0
 30
0.0
 70
   128
 71
     5
 72
     6
 73
    -7
  0
VERTEX
  5
1965
  8
0
 10
0.0
 20
0.0
 30
0.0
 70
   128
 71
    -5
 72
     1
 73
    -2
  0
VERTEX
  5
1966
  8
0
 10
0.0
 20
0.0
 30
0.0
 70
   128
 71
     2
 72
    -3
 73
    -5
  0
VERTEX
  5
1967
  8
0
 10
0.0
 20
0.0
 30
0.0
 70
   128
 71
     3
 72
     4
 73
    -5
  0
SEQEND
  5
1A9E
  8
0
  0
POLYLINE
  5
1968
  8
0
 66
     1
 10
0.0
 20
0.0
 30
0.0
 70
    64
 71
    12
 72
    10
  0
VERTEX
  5
1969
  8
0
 10
32.62304021799751
 20
-65.59707423154421
 30
10.0
 70
   192
  0
VERTEX
  5
196A
  8
0
 10
32.62307102408268
 20
-65.5933213571998
 30
10.0
 70
   192
  0
VERTEX
  5
196B
  8
0
 10
32.62310481349979
 20
-65.58956854703803
 30
10.0
 70
   192
  0
VERTEX
  5
196C
  8
0
 10
32.62314158615347
 20
-65.5858158010568
 30
10.0
 70
   192
  0
VERTEX
  5
196D
  8
0
 10
24.12171231069495
 20
-65.522344534688
 30
10.0
 70
   192
  0
VERTEX
  5
196E
  8
0
 10
20.16899879621288
 20
-65.55337349543584
 30
10.0
 70
   192
  0
VERTEX
  5
196F
  8
0
 10
20.16971875885236
 20
-72.60875633168673
 30
9.999999999999998
 70
   192
  0
VERTEX
  5
1970
  8
0
 10
20.1704387200805
 20
-79.66413916793778
 30
10.0
 70
   192
  0
VERTEX
  5
1971
  8
0
 10
20.17115867989738
 20
-86.71952200418896
 30
10.0
 70
   192
  0
VERTEX
  5
1972
  8
0
 10
32.45801386075654
 20
-86.71952200418896
 30
10.0
 70
   192
  0
VERTEX
  5
1973
  8
0
 10
32.51303077907811
 20
-79.67870614350771
 30
9.999999999999998
 70
   192
  0
VERTEX
  5
1974
  8
0
 10
32.56803955101555
 20
-72.63789021918427
 30
10.0
 70
   192
  0
VERTEX
  5
1975
  8
0
 10
0.0
 20
0.0
 30
0.0
 70
   128
 71
    11
 72
    10
 73
    -9
  0
VERTEX
  5
1976
  8
0
 10
0.0
 20
0.0
 30
0.0
 70
   128
 71
   -11
 72
     9
 73
    -8
  0
VERTEX
  5
1977
  8
0
 10
0.0
 20
0.0
 30
0.0
 70
   128
 71
     8
 72
    -7
 73
   -12
  0
VERTEX
  5
1978
  8
0
 10
0.0
 20
0.0
 30
0.0
 70
   128
 71
    -8
 72
    12
 73
   -11
  0
VERTEX
  5
1979
  8
0
 10
0.0
 20
0.0
 30
0.0
 70
   128
 71
    -5
 72
     1
 73
   -12
  0
VERTEX
  5
197A
  8
0
 10
0.0
 20
0.0
 30
0.0
 70
   128
 71
    -5
 72
   -12
 73
    -7
  0
VERTEX
  5
197B
  8
0
 10
0.0
 20
0.0
 30
0.0
 70
   128
 71
     7
 72
     6
 73
    -5
  0
VERTEX
  5
197C
  8
0
 10
0.0
 20
0.0
 30
0.0
 70
   128
 71
     2
 72
    -1
 73
    -5
  0
VERTEX
  5
197D
  8
0
 10
0.0
 20
0.0
 30
0.0
 70
   128
 71
    -5
 72
     3
 73
    -2
  0
VERTEX
  5
197E
  8
0
 10
0.0
 20
0.0
 30
0.0
 70
   128
 71
     5
 72
     4
 73
    -3
  0
SEQEND
  5
1A9F
  8
0
  0
POLYLINE
  5
197F
  8
0
 66
     1
 10
0.0
 20
0.0
 30
0.0
 70
    64
 71
    20
 72
    18
  0
VERTEX
  5
1980
  8
0
 10
188.4883008820343
 20
50.95839039378701
 30
8.749999999999988
 70
   192
  0
VERTEX
  5
1981
  8
0
 10
177.1892399455052
 20
50.95839039376982
 30
8.749999999999988
 70
   192
  0
VERTEX
  5
1982
  8
0
 10
178.4889124826047
 20
55.26886944890543
 30
7.614697834730539
 70
   192
  0
VERTEX
  5
1983
  8
0
 10
189.2100023954166
 20
54.18113977322915
 30
8.13491085581832
 70
   192
  0
VERTEX
  5
1984
  8
0
 10
179.9103387519987
 20
59.7083903937698
 30
0.0
 70
   192
  0
VERTEX
  5
1985
  8
0
 10
190.5811307957802
 20
59.7083903937698
 30
-0.0000000000000001
 70
   192
  0
VERTEX
  5
1986
  8
0
 10
190.5379358395649
 20
59.61870263839748
 30
1.249392523226514
 70
   192
  0
VERTEX
  5
1987
  8
0
 10
190.4208868372466
 20
59.34986794372237
 30
2.47955317189484
 70
   192
  0
VERTEX
  5
1988
  8
0
 10
190.2676370147509
 20
58.90921195611987
 30
3.653345929920851
 70
   192
  0
VERTEX
  5
1989
  8
0
 10
179.512516279786
 20
58.49157686997364
 30
4.450812252470137
 70
   192
  0
VERTEX
  5
198A
  8
0
 10
190.420705572693
 20
59.34942960067039
 30
-2.481028284939944
 70
   192
  0
VERTEX
  5
198B
  8
0
 10
179.5128707035013
 20
58.49267011051871
 30
-4.449008622461675
 70
   192
  0
VERTEX
  5
198C
  8
0
 10
190.2676370147509
 20
58.90921195611993
 30
-3.653345929920711
 70
   192
  0
VERTEX
  5
198D
  8
0
 10
190.5377008828367
 20
59.6181985550414
 30
-1.252814375788225
 70
   192
  0
VERTEX
  5
198E
  8
0
 10
177.1892399455144
 20
50.95839039376982
 30
-8.749999999999988
 70
   192
  0
VERTEX
  5
198F
  8
0
 10
188.4883008820295
 20
50.95839039376982
 30
-8.749999999999988
 70
   192
  0
VERTEX
  5
1990
  8
0
 10
189.2101423851994
 20
54.18176517422793
 30
-8.134663638444763
 70
   192
  0
VERTEX
  5
1991
  8
0
 10
178.4888876212817
 20
55.26878643257602
 30
-7.614661582136449
 70
   192
  0
VERTEX
  5
1992
  8
0
 10
189.8333221785645
 20
56.96688037967446
 30
-6.360747638867913
 70
   192
  0
VERTEX
  5
1993
  8
0
 10
189.8333200378722
 20
56.96687079909417
 30
6.360768413503967
 70
   192
  0
VERTEX
  5
1994
  8
0
 10
0.0
 20
0.0
 30
0.0
 70
   128
 71
     1
 72
     2
 73
     3
  0
VERTEX
  5
1995
  8
0
 10
0.0
 20
0.0
 30
0.0
 70
   128
 71
     4
 72
     1
 73
     3
  0
VERTEX
  5
1996
  8
0
 10
0.0
 20
0.0
 30
0.0
 70
   128
 71
     5
 72
     6
 73
     7
  0
VERTEX
  5
1997
  8
0
 10
0.0
 20
0.0
 30
0.0
 70
   128
 71
     7
 72
     8
 73
     5
  0
VERTEX
  5
1998
  8
0
 10
0.0
 20
0.0
 30
0.0
 70
   128
 71
     5
 72
     8
 73
     9
  0
VERTEX
  5
1999
  8
0
 10
0.0
 20
0.0
 30
0.0
 70
   128
 71
    10
 72
     5
 73
     9
  0
VERTEX
  5
199A
  8
0
 10
0.0
 20
0.0
 30
0.0
 70
   128
 71
    11
 72
     5
 73
    12
  0
VERTEX
  5
199B
  8
0
 10
0.0
 20
0.0
 30
0.0
 70
   128
 71
    13
 72
    11
 73
    12
  0
VERTEX
  5
199C
  8
0
 10
0.0
 20
0.0
 30
0.0
 70
   128
 71
     5
 72
    11
 73
    14
  0
VERTEX
  5
199D
  8
0
 10
0.0
 20
0.0
 30
0.0
 70
   128
 71
    14
 72
     6
 73
     5
  0
VERTEX
  5
199E
  8
0
 10
0.0
 20
0.0
 30
0.0
 70
   128
 71
    15
 72
    16
 73
    17
  0
VERTEX
  5
199F
  8
0
 10
0.0
 20
0.0
 30
0.0
 70
   128
 71
    18
 72
    15
 73
    17
  0
VERTEX
  5
19A0
  8
0
 10
0.0
 20
0.0
 30
0.0
 70
   128
 71
    18
 72
    17
 73
    19
  0
VERTEX
  5
19A1
  8
0
 10
0.0
 20
0.0
 30
0.0
 70
   128
 71
     4
 72
     3
 73
    10
  0
VERTEX
  5
19A2
  8
0
 10
0.0
 20
0.0
 30
0.0
 70
   128
 71
    20
 72
     4
 73
    10
  0
VERTEX
  5
19A3
  8
0
 10
0.0
 20
0.0
 30
0.0
 70
   128
 71
    10
 72
     9
 73
    20
  0
VERTEX
  5
19A4
  8
0
 10
0.0
 20
0.0
 30
0.0
 70
   128
 71
    19
 72
    13
 73
    12
  0
VERTEX
  5
19A5
  8
0
 10
0.0
 20
0.0
 30
0.0
 70
   128
 71
    18
 72
    19
 73
    12
  0
SEQEND
  5
1AA0
  8
0
  0
ENDBLK
  5
1A65
  8
0
  0
BLOCK
  8
0
  2
*X3
 70
     1
 10
0.0
 20
0.0
 30
0.0
  3
*X3
  1

  0
POLYLINE
  5
19A7
  8
0
 66
     1
 10
0.0
 20
0.0
 30
0.0
 70
    64
 71
     4
 72
     2
  0
VERTEX
  5
19A8
  8
0
 10
33.9637338908713
 20
-86.71952200418895
 30
-15.0
 70
   192
  0
VERTEX
  5
19A9
  8
0
 10
33.90195126124364
 20
-94.994772937102
 30
-15.0
 70
   192
  0
VERTEX
  5
19AA
  8
0
 10
28.90209060653168
 20
-94.9574442154083
 30
-15.0
 70
   192
  0
VERTEX
  5
19AB
  8
0
 10
28.96387323615933
 20
-86.68219328249526
 30
-15.0
 70
   192
  0
VERTEX
  5
19AC
  8
0
 10
0.0
 20
0.0
 30
0.0
 70
   128
 71
     3
 72
     4
 73
    -1
  0
VERTEX
  5
19AD
  8
0
 10
0.0
 20
0.0
 30
0.0
 70
   128
 71
     2
 72
    -3
 73
     1
  0
SEQEND
  5
1AA3
  8
0
  0
POLYLINE
  5
19AE
  8
0
 66
     1
 10
0.0
 20
0.0
 30
0.0
 70
    64
 71
     4
 72
     2
  0
VERTEX
  5
19AF
  8
0
 10
33.90195126124364
 20
-94.99477293710198
 30
-15.0
 70
   192
  0
VERTEX
  5
19B0
  8
0
 10
33.90195126124364
 20
-94.99477293710198
 30
15.0
 70
   192
  0
VERTEX
  5
19B1
  8
0
 10
28.90209060653168
 20
-94.9574442154083
 30
15.0
 70
   192
  0
VERTEX
  5
19B2
  8
0
 10
28.90209060653168
 20
-94.9574442154083
 30
-15.0
 70
   192
  0
VERTEX
  5
19B3
  8
0
 10
0.0
 20
0.0
 30
0.0
 70
   128
 71
     3
 72
     4
 73
    -1
  0
VERTEX
  5
19B4
  8
0
 10
0.0
 20
0.0
 30
0.0
 70
   128
 71
     2
 72
    -3
 73
     1
  0
SEQEND
  5
1AA4
  8
0
  0
POLYLINE
  5
19B5
  8
0
 66
     1
 10
0.0
 20
0.0
 30
0.0
 70
    64
 71
     4
 72
     2
  0
VERTEX
  5
19B6
  8
0
 10
33.90195126124364
 20
-94.99477293710198
 30
15.0
 70
   192
  0
VERTEX
  5
19B7
  8
0
 10
28.90209060653168
 20
-94.95744421540832
 30
15.0
 70
   192
  0
VERTEX
  5
19B8
  8
0
 10
28.96387323615934
 20
-86.68219328249526
 30
15.0
 70
   192
  0
VERTEX
  5
19B9
  8
0
 10
33.9637338908713
 20
-86.71952200418895
 30
15.0
 70
   192
  0
VERTEX
  5
19BA
  8
0
 10
0.0
 20
0.0
 30
0.0
 70
   128
 71
     1
 72
     4
 73
    -3
  0
VERTEX
  5
19BB
  8
0
 10
0.0
 20
0.0
 30
0.0
 70
   128
 71
    -1
 72
     3
 73
     2
  0
SEQEND
  5
1AA5
  8
0
  0
POLYLINE
  5
19BC
  8
0
 66
     1
 10
0.0
 20
0.0
 30
0.0
 70
    64
 71
     4
 72
     2
  0
VERTEX
  5
19BD
  8
0
 10
33.9637338908713
 20
-86.71952200418895
 30
15.0
 70
   192
  0
VERTEX
  5
19BE
  8
0
 10
28.96387323615934
 20
-86.68219328249526
 30
15.0
 70
   192
  0
VERTEX
  5
19BF
  8
0
 10
28.96387323615934
 20
-86.68219328249526
 30
10.0
 70
   192
  0
VERTEX
  5
19C0
  8
0
 10
33.9637338908713
 20
-86.71952200418895
 30
10.0
 70
   192
  0
VERTEX
  5
19C1
  8
0
 10
0.0
 20
0.0
 30
0.0
 70
   128
 71
     1
 72
     4
 73
    -3
  0
VERTEX
  5
19C2
  8
0
 10
0.0
 20
0.0
 30
0.0
 70
   128
 71
    -1
 72
     3
 73
     2
  0
SEQEND
  5
1AA6
  8
0
  0
POLYLINE
  5
19C3
  8
0
 66
     1
 10
0.0
 20
0.0
 30
0.0
 70
    64
 71
     4
 72
     2
  0
VERTEX
  5
19C4
  8
0
 10
33.9637338908713
 20
-86.71952200418895
 30
10.0
 70
   192
  0
VERTEX
  5
19C5
  8
0
 10
33.9637338908713
 20
-86.71952200418895
 30
-9.999999999999998
 70
   192
  0
VERTEX
  5
19C6
  8
0
 10
28.96387323615934
 20
-86.68219328249526
 30
-9.999999999999998
 70
   192
  0
VERTEX
  5
19C7
  8
0
 10
28.96387323615934
 20
-86.68219328249526
 30
10.0
 70
   192
  0
VERTEX
  5
19C8
  8
0
 10
0.0
 20
0.0
 30
0.0
 70
   128
 71
     3
 72
     4
 73
    -1
  0
VERTEX
  5
19C9
  8
0
 10
0.0
 20
0.0
 30
0.0
 70
   128
 71
     2
 72
    -3
 73
     1
  0
SEQEND
  5
1AA7
  8
0
  0
POLYLINE
  5
19CA
  8
0
 66
     1
 10
0.0
 20
0.0
 30
0.0
 70
    64
 71
     4
 72
     2
  0
VERTEX
  5
19CB
  8
0
 10
33.9637338908713
 20
-86.71952200418895
 30
-9.999999999999998
 70
   192
  0
VERTEX
  5
19CC
  8
0
 10
28.96387323615934
 20
-86.68219328249526
 30
-10.0
 70
   192
  0
VERTEX
  5
19CD
  8
0
 10
28.96387323615934
 20
-86.68219328249526
 30
-15.0
 70
   192
  0
VERTEX
  5
19CE
  8
0
 10
33.9637338908713
 20
-86.71952200418895
 30
-15.0
 70
   192
  0
VERTEX
  5
19CF
  8
0
 10
0.0
 20
0.0
 30
0.0
 70
   128
 71
     1
 72
     4
 73
    -3
  0
VERTEX
  5
19D0
  8
0
 10
0.0
 20
0.0
 30
0.0
 70
   128
 71
    -1
 72
     3
 73
     2
  0
SEQEND
  5
1AA8
  8
0
  0
ENDBLK
  5
1AA2
  8
0
  0
BLOCK
  8
0
  2
*X4
 70
     1
 10
0.0
 20
0.0
 30
0.0
  3
*X4
  1

  0
POLYLINE
  5
19D2
  8
0
 66
     1
 10
0.0
 20
0.0
 30
0.0
 70
    64
 71
     4
 72
     2
  0
VERTEX
  5
19D3
  8
0
 10
38.84408592725842
 20
-60.70125169408581
 30
15.0
 70
   192
  0
VERTEX
  5
19D4
  8
0
 10
33.84422527254645
 20
-60.66392297239213
 30
15.0
 70
   192
  0
VERTEX
  5
19D5
  8
0
 10
33.84422527254645
 20
-60.66392297239213
 30
10.0
 70
   192
  0
VERTEX
  5
19D6
  8
0
 10
38.84408592725842
 20
-60.7012516940858
 30
10.0
 70
   192
  0
VERTEX
  5
19D7
  8
0
 10
0.0
 20
0.0
 30
0.0
 70
   128
 71
     1
 72
     4
 73
    -3
  0
VERTEX
  5
19D8
  8
0
 10
0.0
 20
0.0
 30
0.0
 70
   128
 71
    -1
 72
     3
 73
     2
  0
SEQEND
  5
1AAB
  8
0
  0
POLYLINE
  5
19D9
  8
0
 66
     1
 10
0.0
 20
0.0
 30
0.0
 70
    64
 71
    10
 72
     8
  0
VERTEX
  5
19DA
  8
0
 10
38.84408592725842
 20
-60.70125169408581
 30
10.0
 70
   192
  0
VERTEX
  5
19DB
  8
0
 10
33.84422527254645
 20
-60.66392297239214
 30
10.0
 70
   192
  0
VERTEX
  5
19DC
  8
0
 10
32.03005922547282
 20
-61.09528505350969
 30
10.0
 70
   192
  0
VERTEX
  5
19DD
  8
0
 10
30.50527498872714
 20
-62.16873962765464
 30
10.0
 70
   192
  0
VERTEX
  5
19DE
  8
0
 10
29.48737943577645
 20
-63.73116093276541
 30
10.0
 70
   192
  0
VERTEX
  5
19DF
  8
0
 10
29.12157296540691
 20
-65.55967325638169
 30
10.0
 70
   192
  0
VERTEX
  5
19E0
  8
0
 10
34.12143362011886
 20
-65.59700197807537
 30
10.0
 70
   192
  0
VERTEX
  5
19E1
  8
0
 10
34.4872400904884
 20
-63.76848965445908
 30
10.0
 70
   192
  0
VERTEX
  5
19E2
  8
0
 10
35.50513564343909
 20
-62.20606834934831
 30
10.0
 70
   192
  0
VERTEX
  5
19E3
  8
0
 10
37.02991988018478
 20
-61.13261377520336
 30
10.0
 70
   192
  0
VERTEX
  5
19E4
  8
0
 10
0.0
 20
0.0
 30
0.0
 70
   128
 71
     8
 72
     7
 73
    -6
  0
VERTEX
  5
19E5
  8
0
 10
0.0
 20
0.0
 30
0.0
 70
   128
 71
    -8
 72
     6
 73
    -5
  0
VERTEX
  5
19E6
  8
0
 10
0.0
 20
0.0
 30
0.0
 70
   128
 71
    -8
 72
     5
 73
    -4
  0
VERTEX
  5
19E7
  8
0
 10
0.0
 20
0.0
 30
0.0
 70
   128
 71
    -8
 72
     4
 73
    -3
  0
VERTEX
  5
19E8
  8
0
 10
0.0
 20
0.0
 30
0.0
 70
   128
 71
     3
 72
    -2
 73
    -9
  0
VERTEX
  5
19E9
  8
0
 10
0.0
 20
0.0
 30
0.0
 70
   128
 71
    -3
 72
     9
 73
    -8
  0
VERTEX
  5
19EA
  8
0
 10
0.0
 20
0.0
 30
0.0
 70
   128
 71
    -2
 72
    10
 73
    -9
  0
VERTEX
  5
19EB
  8
0
 10
0.0
 20
0.0
 30
0.0
 70
   128
 71
     2
 72
     1
 73
   -10
  0
SEQEND
  5
1AAC
  8
0
  0
POLYLINE
  5
19EC
  8
0
 66
     1
 10
0.0
 20
0.0
 30
0.0
 70
    64
 71
     4
 72
     2
  0
VERTEX
  5
19ED
  8
0
 10
34.12143362011886
 20
-65.59700197807537
 30
10.0
 70
   192
  0
VERTEX
  5
19EE
  8
0
 10
34.12143362011886
 20
-65.59700197807537
 30
15.0
 70
   192
  0
VERTEX
  5
19EF
  8
0
 10
29.12157296540691
 20
-65.55967325638169
 30
15.0
 70
   192
  0
VERTEX
  5
19F0
  8
0
 10
29.12157296540691
 20
-65.55967325638169
 30
10.0
 70
   192
  0
VERTEX
  5
19F1
  8
0
 10
0.0
 20
0.0
 30
0.0
 70
   128
 71
     3
 72
     4
 73
    -1
  0
VERTEX
  5
19F2
  8
0
 10
0.0
 20
0.0
 30
0.0
 70
   128
 71
     2
 72
    -3
 73
     1
  0
SEQEND
  5
1AAD
  8
0
  0
POLYLINE
  5
19F3
  8
0
 66
     1
 10
0.0
 20
0.0
 30
0.0
 70
    64
 71
    10
 72
     8
  0
VERTEX
  5
19F4
  8
0
 10
34.12143362011886
 20
-65.59700197807537
 30
15.0
 70
   192
  0
VERTEX
  5
19F5
  8
0
 10
34.4872400904884
 20
-63.76848965445908
 30
15.0
 70
   192
  0
VERTEX
  5
19F6
  8
0
 10
35.50513564343909
 20
-62.20606834934831
 30
15.0
 70
   192
  0
VERTEX
  5
19F7
  8
0
 10
37.02991988018478
 20
-61.13261377520336
 30
15.0
 70
   192
  0
VERTEX
  5
19F8
  8
0
 10
38.84408592725842
 20
-60.70125169408581
 30
15.0
 70
   192
  0
VERTEX
  5
19F9
  8
0
 10
33.84422527254645
 20
-60.66392297239213
 30
15.0
 70
   192
  0
VERTEX
  5
19FA
  8
0
 10
32.03005922547282
 20
-61.09528505350969
 30
15.0
 70
   192
  0
VERTEX
  5
19FB
  8
0
 10
30.50527498872714
 20
-62.16873962765464
 30
15.0
 70
   192
  0
VERTEX
  5
19FC
  8
0
 10
29.48737943577645
 20
-63.73116093276541
 30
15.0
 70
   192
  0
VERTEX
  5
19FD
  8
0
 10
29.12157296540691
 20
-65.55967325638169
 30
15.0
 70
   192
  0
VERTEX
  5
19FE
  8
0
 10
0.0
 20
0.0
 30
0.0
 70
   128
 71
    10
 72
     1
 73
    -2
  0
VERTEX
  5
19FF
  8
0
 10
0.0
 20
0.0
 30
0.0
 70
   128
 71
     9
 72
   -10
 73
    -2
  0
VERTEX
  5
1A00
  8
0
 10
0.0
 20
0.0
 30
0.0
 70
   128
 71
     8
 72
    -9
 73
    -2
  0
VERTEX
  5
1A01
  8
0
 10
0.0
 20
0.0
 30
0.0
 70
   128
 71
     7
 72
    -8
 73
    -2
  0
VERTEX
  5
1A02
  8
0
 10
0.0
 20
0.0
 30
0.0
 70
   128
 71
    -3
 72
     6
 73
    -7
  0
VERTEX
  5
1A03
  8
0
 10
0.0
 20
0.0
 30
0.0
 70
   128
 71
     2
 72
    -3
 73
    -7
  0
VERTEX
  5
1A04
  8
0
 10
0.0
 20
0.0
 30
0.0
 70
   128
 71
     3
 72
    -4
 73
    -6
  0
VERTEX
  5
1A05
  8
0
 10
0.0
 20
0.0
 30
0.0
 70
   128
 71
     4
 72
     5
 73
    -6
  0
SEQEND
  5
1AAE
  8
0
  0
ENDBLK
  5
1AAA
  8
0
  0
BLOCK
  8
0
  2
*X5
 70
     1
 10
0.0
 20
0.0
 30
0.0
  3
*X5
  1

  0
POLYLINE
  5
1A07
  8
0
 66
     1
 10
0.0
 20
0.0
 30
0.0
 70
    64
 71
    10
 72
     8
  0
VERTEX
  5
1A08
  8
0
 10
34.12143362011886
 20
-65.59700197807537
 30
-10.0
 70
   192
  0
VERTEX
  5
1A09
  8
0
 10
34.4872400904884
 20
-63.76848965445908
 30
-10.0
 70
   192
  0
VERTEX
  5
1A0A
  8
0
 10
35.50513564343909
 20
-62.20606834934831
 30
-10.0
 70
   192
  0
VERTEX
  5
1A0B
  8
0
 10
37.02991988018478
 20
-61.13261377520336
 30
-10.0
 70
   192
  0
VERTEX
  5
1A0C
  8
0
 10
38.84408592725842
 20
-60.70125169408581
 30
-10.0
 70
   192
  0
VERTEX
  5
1A0D
  8
0
 10
33.84422527254645
 20
-60.66392297239213
 30
-10.0
 70
   192
  0
VERTEX
  5
1A0E
  8
0
 10
32.03005922547282
 20
-61.09528505350969
 30
-10.0
 70
   192
  0
VERTEX
  5
1A0F
  8
0
 10
30.50527498872714
 20
-62.16873962765464
 30
-10.0
 70
   192
  0
VERTEX
  5
1A10
  8
0
 10
29.48737943577645
 20
-63.73116093276541
 30
-10.0
 70
   192
  0
VERTEX
  5
1A11
  8
0
 10
29.12157296540691
 20
-65.55967325638169
 30
-10.0
 70
   192
  0
VERTEX
  5
1A12
  8
0
 10
0.0
 20
0.0
 30
0.0
 70
   128
 71
    10
 72
     1
 73
    -2
  0
VERTEX
  5
1A13
  8
0
 10
0.0
 20
0.0
 30
0.0
 70
   128
 71
     9
 72
   -10
 73
    -2
  0
VERTEX
  5
1A14
  8
0
 10
0.0
 20
0.0
 30
0.0
 70
   128
 71
     8
 72
    -9
 73
    -2
  0
VERTEX
  5
1A15
  8
0
 10
0.0
 20
0.0
 30
0.0
 70
   128
 71
     7
 72
    -8
 73
    -2
  0
VERTEX
  5
1A16
  8
0
 10
0.0
 20
0.0
 30
0.0
 70
   128
 71
    -3
 72
     6
 73
    -7
  0
VERTEX
  5
1A17
  8
0
 10
0.0
 20
0.0
 30
0.0
 70
   128
 71
     2
 72
    -3
 73
    -7
  0
VERTEX
  5
1A18
  8
0
 10
0.0
 20
0.0
 30
0.0
 70
   128
 71
     3
 72
    -4
 73
    -6
  0
VERTEX
  5
1A19
  8
0
 10
0.0
 20
0.0
 30
0.0
 70
   128
 71
     4
 72
     5
 73
    -6
  0
SEQEND
  5
1AB1
  8
0
  0
POLYLINE
  5
1A1A
  8
0
 66
     1
 10
0.0
 20
0.0
 30
0.0
 70
    64
 71
     4
 72
     2
  0
VERTEX
  5
1A1B
  8
0
 10
38.84408592725842
 20
-60.70125169408581
 30
-10.0
 70
   192
  0
VERTEX
  5
1A1C
  8
0
 10
33.84422527254645
 20
-60.66392297239213
 30
-10.0
 70
   192
  0
VERTEX
  5
1A1D
  8
0
 10
33.84422527254645
 20
-60.66392297239213
 30
-15.0
 70
   192
  0
VERTEX
  5
1A1E
  8
0
 10
38.84408592725842
 20
-60.7012516940858
 30
-15.0
 70
   192
  0
VERTEX
  5
1A1F
  8
0
 10
0.0
 20
0.0
 30
0.0
 70
   128
 71
     1
 72
     4
 73
    -3
  0
VERTEX
  5
1A20
  8
0
 10
0.0
 20
0.0
 30
0.0
 70
   128
 71
    -1
 72
     3
 73
     2
  0
SEQEND
  5
1AB2
  8
0
  0
POLYLINE
  5
1A21
  8
0
 66
     1
 10
0.0
 20
0.0
 30
0.0
 70
    64
 71
    10
 72
     8
  0
VERTEX
  5
1A22
  8
0
 10
38.84408592725842
 20
-60.70125169408581
 30
-15.0
 70
   192
  0
VERTEX
  5
1A23
  8
0
 10
33.84422527254645
 20
-60.66392297239214
 30
-15.0
 70
   192
  0
VERTEX
  5
1A24
  8
0
 10
32.03005922547282
 20
-61.09528505350969
 30
-15.0
 70
   192
  0
VERTEX
  5
1A25
  8
0
 10
30.50527498872714
 20
-62.16873962765464
 30
-15.0
 70
   192
  0
VERTEX
  5
1A26
  8
0
 10
29.48737943577645
 20
-63.73116093276541
 30
-15.0
 70
   192
  0
VERTEX
  5
1A27
  8
0
 10
29.12157296540691
 20
-65.55967325638169
 30
-15.0
 70
   192
  0
VERTEX
  5
1A28
  8
0
 10
34.12143362011886
 20
-65.59700197807537
 30
-15.0
 70
   192
  0
VERTEX
  5
1A29
  8
0
 10
34.4872400904884
 20
-63.76848965445908
 30
-15.0
 70
   192
  0
VERTEX
  5
1A2A
  8
0
 10
35.50513564343909
 20
-62.20606834934831
 30
-15.0
 70
   192
  0
VERTEX
  5
1A2B
  8
0
 10
37.02991988018478
 20
-61.13261377520336
 30
-15.0
 70
   192
  0
VERTEX
  5
1A2C
  8
0
 10
0.0
 20
0.0
 30
0.0
 70
   128
 71
     8
 72
     7
 73
    -6
  0
VERTEX
  5
1A2D
  8
0
 10
0.0
 20
0.0
 30
0.0
 70
   128
 71
    -8
 72
     6
 73
    -5
  0
VERTEX
  5
1A2E
  8
0
 10
0.0
 20
0.0
 30
0.0
 70
   128
 71
    -8
 72
     5
 73
    -4
  0
VERTEX
  5
1A2F
  8
0
 10
0.0
 20
0.0
 30
0.0
 70
   128
 71
    -8
 72
     4
 73
    -3
  0
VERTEX
  5
1A30
  8
0
 10
0.0
 20
0.0
 30
0.0
 70
   128
 71
     3
 72
    -2
 73
    -9
  0
VERTEX
  5
1A31
  8
0
 10
0.0
 20
0.0
 30
0.0
 70
   128
 71
    -3
 72
     9
 73
    -8
  0
VERTEX
  5
1A32
  8
0
 10
0.0
 20
0.0
 30
0.0
 70
   128
 71
    -2
 72
    10
 73
    -9
  0
VERTEX
  5
1A33
  8
0
 10
0.0
 20
0.0
 30
0.0
 70
   128
 71
     2
 72
     1
 73
   -10
  0
SEQEND
  5
1AB3
  8
0
  0
POLYLINE
  5
1A34
  8
0
 66
     1
 10
0.0
 20
0.0
 30
0.0
 70
    64
 71
     4
 72
     2
  0
VERTEX
  5
1A35
  8
0
 10
34.12143362011886
 20
-65.59700197807537
 30
-15.0
 70
   192
  0
VERTEX
  5
1A36
  8
0
 10
34.12143362011886
 20
-65.59700197807537
 30
-10.0
 70
   192
  0
VERTEX
  5
1A37
  8
0
 10
29.12157296540691
 20
-65.55967325638169
 30
-10.0
 70
   192
  0
VERTEX
  5
1A38
  8
0
 10
29.12157296540691
 20
-65.55967325638169
 30
-15.0
 70
   192
  0
VERTEX
  5
1A39
  8
0
 10
0.0
 20
0.0
 30
0.0
 70
   128
 71
     3
 72
     4
 73
    -1
  0
VERTEX
  5
1A3A
  8
0
 10
0.0
 20
0.0
 30
0.0
 70
   128
 71
     2
 72
    -3
 73
     1
  0
SEQEND
  5
1AB4
  8
0
  0
ENDBLK
  5
1AB0
  8
0
  0
ENDSEC
  0
SECTION
  2
ENTITIES
  0
INSERT
  5
BD
  8
0
  2
*X1
 10
0.0
 20
0.0
 30
0.0
  0
INSERT
  5
BE
  8
0
  2
*X2
 10
0.0
 20
0.0
 30
0.0
  0
INSERT
  5
BF
  8
0
  2
*X3
 10
0.0
 20
0.0
 30
0.0
  0
INSERT
  5
C0
  8
0
  2
*X4
 10
0.0
 20
0.0
 30
0.0
  0
INSERT
  5
C1
  8
0
  2
*X5
 10
0.0
 20
0.0
 30
0.0
  0
ENDSEC
  0
EOF
