  0
SECTION
  2
HEADER
  9
$ACADVER
  1
AC1009
  9
$DWGCODEPAGE
  3
ansi_1250
  9
$INSBASE
 10
0.0
 20
0.0
 30
0.0
  9
$EXTMIN
 10
-544.2055629987154
 20
0.0
 30
-31.00000000000001
  9
$EXTMAX
 10
544.2055629987154
 20
2000.0
 30
31.00000000000001
  9
$LIMMIN
 10
0.0
 20
0.0
  9
$LIMMAX
 10
420.0
 20
297.0
  9
$ORTHOMODE
 70
     0
  9
$REGENMODE
 70
     1
  9
$FILLMODE
 70
     1
  9
$QTEXTMODE
 70
     0
  9
$MIRRTEXT
 70
     0
  9
$DRAGMODE
 70
     2
  9
$LTSCALE
 40
1.0
  9
$OSMODE
 70
   511
  9
$ATTMODE
 70
     1
  9
$TEXTSIZE
 40
2.5
  9
$TRACEWID
 40
1.0
  9
$TEXTSTYLE
  7
STANDARD
  9
$CLAYER
  8
0
  9
$CELTYPE
  6
BYLAYER
  9
$CECOLOR
 62
   256
  9
$DIMSCALE
 40
1.0
  9
$DIMASZ
 40
2.5
  9
$DIMEXO
 40
0.625
  9
$DIMDLI
 40
3.75
  9
$DIMRND
 40
0.0
  9
$DIMDLE
 40
0.0
  9
$DIMEXE
 40
1.25
  9
$DIMTP
 40
0.0
  9
$DIMTM
 40
0.0
  9
$DIMTXT
 40
2.5
  9
$DIMCEN
 40
-2.5
  9
$DIMTSZ
 40
0.0
  9
$DIMTOL
 70
     0
  9
$DIMLIM
 70
     0
  9
$DIMTIH
 70
     0
  9
$DIMTOH
 70
     0
  9
$DIMSE1
 70
     0
  9
$DIMSE2
 70
     0
  9
$DIMTAD
 70
     1
  9
$DIMZIN
 70
     8
  9
$DIMBLK
  1

  9
$DIMASO
 70
     1
  9
$DIMSHO
 70
     1
  9
$DIMPOST
  1

  9
$DIMAPOST
  1

  9
$DIMALT
 70
     0
  9
$DIMALTD
 70
     3
  9
$DIMALTF
 40
0.03937007874016
  9
$DIMLFAC
 40
1.0
  9
$DIMTOFL
 70
     1
  9
$DIMTVP
 40
0.0
  9
$DIMTIX
 70
     0
  9
$DIMSOXD
 70
     0
  9
$DIMSAH
 70
     0
  9
$DIMBLK1
  1

  9
$DIMBLK2
  1

  9
$DIMSTYLE
  2
ISO-25
  9
$DIMCLRD
 70
     0
  9
$DIMCLRE
 70
     0
  9
$DIMCLRT
 70
     0
  9
$DIMTFAC
 40
1.0
  9
$DIMGAP
 40
0.625
  9
$LUNITS
 70
     2
  9
$LUPREC
 70
     3
  9
$SKETCHINC
 40
1.0
  9
$FILLETRAD
 40
10.0
  9
$AUNITS
 70
     0
  9
$AUPREC
 70
     0
  9
$MENU
  1
.
  9
$ELEVATION
 40
0.0
  9
$PELEVATION
 40
0.0
  9
$THICKNESS
 40
0.0
  9
$LIMCHECK
 70
     0
  9
$CHAMFERA
 40
10.0
  9
$CHAMFERB
 40
10.0
  9
$SKPOLY
 70
     0
  9
$TDCREATE
 40
2455022.720692848
  9
$TDUPDATE
 40
2460458.453959213
  9
$TDINDWG
 40
0.0114953241
  9
$TDUSRTIMER
 40
0.0114953241
  9
$USRTIMER
 70
     1
  9
$ANGBASE
 50
0.0
  9
$ANGDIR
 70
     0
  9
$PDMODE
 70
     0
  9
$PDSIZE
 40
0.0
  9
$PLINEWID
 40
0.0
  9
$COORDS
 70
     1
  9
$SPLFRAME
 70
     0
  9
$SPLINETYPE
 70
     6
  9
$SPLINESEGS
 70
     8
  9
$ATTDIA
 70
     0
  9
$ATTREQ
 70
     1
  9
$HANDLING
 70
     1
  9
$HANDSEED
  5
F63
  9
$SURFTAB1
 70
     6
  9
$SURFTAB2
 70
     6
  9
$SURFTYPE
 70
     6
  9
$SURFU
 70
     6
  9
$SURFV
 70
     6
  9
$UCSNAME
  2

  9
$UCSORG
 10
0.0
 20
0.0
 30
0.0
  9
$UCSXDIR
 10
1.0
 20
0.0
 30
0.0
  9
$UCSYDIR
 10
0.0
 20
1.0
 30
0.0
  9
$PUCSNAME
  2

  9
$PUCSORG
 10
0.0
 20
0.0
 30
0.0
  9
$PUCSXDIR
 10
1.0
 20
0.0
 30
0.0
  9
$PUCSYDIR
 10
0.0
 20
1.0
 30
0.0
  9
$USERI1
 70
     0
  9
$USERI2
 70
     0
  9
$USERI3
 70
     0
  9
$USERI4
 70
     0
  9
$USERI5
 70
     0
  9
$USERR1
 40
0.0
  9
$USERR2
 40
0.0
  9
$USERR3
 40
0.0
  9
$USERR4
 40
0.0
  9
$USERR5
 40
0.0
  9
$WORLDVIEW
 70
     1
  9
$SHADEDGE
 70
     3
  9
$SHADEDIF
 70
    70
  9
$TILEMODE
 70
     1
  9
$MAXACTVP
 70
    64
  9
$PLIMCHECK
 70
     0
  9
$PEXTMIN
 10
1.000000000000000E+20
 20
1.000000000000000E+20
 30
1.000000000000000E+20
  9
$PEXTMAX
 10
-1.000000000000000E+20
 20
-1.000000000000000E+20
 30
-1.000000000000000E+20
  9
$PLIMMIN
 10
0.0
 20
0.0
  9
$PLIMMAX
 10
0.0
 20
0.0
  9
$UNITMODE
 70
     0
  9
$VISRETAIN
 70
     1
  9
$PLINEGEN
 70
     0
  9
$PSLTSCALE
 70
     1
  0
ENDSEC
  0
SECTION
  2
TABLES
  0
TABLE
  2
VPORT
 70
     1
  0
VPORT
  2
*ACTIVE
 70
     0
 10
0.0
 20
0.0
 11
1.0
 21
1.0
 12
784.7542565078361
 22
-718.5060799660073
 13
0.0
 23
0.0
 14
10.0
 24
10.0
 15
10.0
 25
10.0
 16
0.5773502691899921
 26
0.5773502691881731
 36
0.5773502691899921
 17
-134.1869158741243
 27
0.0000000137305278
 37
0.0000000137471261
 40
1337.690577464655
 41
1.89041095890411
 42
50.0
 43
0.0
 44
0.0
 50
0.0
 51
359.9999999999414
 71
    16
 72
  1000
 73
     1
 74
     3
 75
     0
 76
     0
 77
     0
 78
     0
  0
ENDTAB
  0
TABLE
  2
LTYPE
 70
     1
  0
LTYPE
  2
CONTINUOUS
 70
     0
  3
Solid line
 72
    65
 73
     0
 40
0.0
  0
ENDTAB
  0
TABLE
  2
LAYER
 70
     5
  0
LAYER
  2
0
 70
     0
 62
     7
  6
CONTINUOUS
  0
LAYER
  2
MADLA
 70
     0
 62
     7
  6
CONTINUOUS
  0
LAYER
  2
RÁM
 70
     0
 62
     7
  6
CONTINUOUS
  0
LAYER
  2
SKLO
 70
     0
 62
     7
  6
CONTINUOUS
  0
LAYER
  2
GUMA
 70
     0
 62
     7
  6
CONTINUOUS
  0
ENDTAB
  0
TABLE
  2
STYLE
 70
     2
  0
STYLE
  2
STANDARD
 70
     0
 40
0.0
 41
1.0
 50
0.0
 71
     0
 42
2.5
  3
arial.ttf
  4

  0
STYLE
  2
ANNOTATIVE
 70
     0
 40
0.0
 41
1.0
 50
0.0
 71
     0
 42
2.5
  3
arial.ttf
  4

  0
ENDTAB
  0
TABLE
  2
VIEW
 70
     0
  0
ENDTAB
  0
TABLE
  2
UCS
 70
     0
  0
ENDTAB
  0
TABLE
  2
APPID
 70
     3
  0
APPID
  2
ACAD
 70
     0
  0
APPID
  2
ACADANNOTATIVE
 70
     0
  0
APPID
  2
ACAECLAYERSTANDARD
 70
     0
  0
ENDTAB
  0
TABLE
  2
DIMSTYLE
 70
     2
  0
DIMSTYLE
  2
ISO-25
 70
     0
  3

  4

  5

  6

  7

 40
1.0
 41
2.5
 42
0.625
 43
3.75
 44
1.25
 45
0.0
 46
0.0
 47
0.0
 48
0.0
140
2.5
141
-2.5
142
0.0
143
0.03937007874016
144
1.0
145
0.0
146
1.0
147
0.625
 71
     0
 72
     0
 73
     0
 74
     0
 75
     0
 76
     0
 77
     1
 78
     8
170
     0
171
     3
172
     1
173
     0
174
     0
175
     0
176
     0
177
     0
178
     0
  0
DIMSTYLE
  2
ANNOTATIVE
 70
     0
  3

  4

  5

  6

  7

 40
0.0
 41
2.5
 42
0.625
 43
3.75
 44
1.25
 45
0.0
 46
0.0
 47
0.0
 48
0.0
140
2.5
141
-2.5
142
0.0
143
0.03937007874016
144
1.0
145
0.0
146
1.0
147
0.625
 71
     0
 72
     0
 73
     0
 74
     0
 75
     0
 76
     0
 77
     1
 78
     8
170
     0
171
     3
172
     1
173
     0
174
     0
175
     0
176
     0
177
     0
178
     0
  0
ENDTAB
  0
ENDSEC
  0
SECTION
  2
BLOCKS
  0
BLOCK
  8
0
  2
$MODEL_SPACE
 70
     0
 10
0.0
 20
0.0
 30
0.0
  3
$MODEL_SPACE
  1

  0
ENDBLK
  5
21
  8
0
  0
BLOCK
 67
     1
  8
0
  2
$PAPER_SPACE
 70
     0
 10
0.0
 20
0.0
 30
0.0
  3
$PAPER_SPACE
  1

  0
ENDBLK
  5
1D
 67
     1
  8
0
  0
BLOCK
  8
0
  2
*X1
 70
     1
 10
0.0
 20
0.0
 30
0.0
  3
*X1
  1

  0
POLYLINE
  5
82E
  8
RÁM
 66
     1
 10
0.0
 20
0.0
 30
0.0
 70
    64
 71
     8
 72
     6
  0
VERTEX
  5
82F
  8
RÁM
 10
-506.0323579179924
 20
0.0
 30
11.84999969676736
 70
   192
  0
VERTEX
  5
830
  8
RÁM
 10
-506.0323579179924
 20
2000.0
 30
11.84999969676736
 70
   192
  0
VERTEX
  5
831
  8
RÁM
 10
-506.1055629987353
 20
2000.0
 30
11.92320477751024
 70
   192
  0
VERTEX
  5
832
  8
RÁM
 10
-506.1055629987353
 20
0.0
 30
11.92320477751024
 70
   192
  0
VERTEX
  5
833
  8
RÁM
 10
-506.0055629987544
 20
0.0
 30
11.7499996967865
 70
   192
  0
VERTEX
  5
834
  8
RÁM
 10
-506.0055629987544
 20
2000.0
 30
11.7499996967865
 70
   192
  0
VERTEX
  5
835
  8
RÁM
 10
-506.2055629987161
 20
2000.0
 30
11.94999969674823
 70
   192
  0
VERTEX
  5
836
  8
RÁM
 10
-506.2055629987161
 20
0.0
 30
11.94999969674828
 70
   192
  0
VERTEX
  5
837
  8
RÁM
 10
0.0
 20
0.0
 30
0.0
 70
   128
 71
     1
 72
     2
 73
    -3
  0
VERTEX
  5
838
  8
RÁM
 10
0.0
 20
0.0
 30
0.0
 70
   128
 71
    -1
 72
     3
 73
     4
  0
VERTEX
  5
839
  8
RÁM
 10
0.0
 20
0.0
 30
0.0
 70
   128
 71
     5
 72
     6
 73
    -2
  0
VERTEX
  5
83A
  8
RÁM
 10
0.0
 20
0.0
 30
0.0
 70
   128
 71
    -5
 72
     2
 73
     1
  0
VERTEX
  5
83B
  8
RÁM
 10
0.0
 20
0.0
 30
0.0
 70
   128
 71
     4
 72
     3
 73
    -7
  0
VERTEX
  5
83C
  8
RÁM
 10
0.0
 20
0.0
 30
0.0
 70
   128
 71
    -4
 72
     7
 73
     8
  0
SEQEND
  5
ECB
  8
RÁM
  0
POLYLINE
  5
83D
  8
RÁM
 66
     1
 10
0.0
 20
0.0
 30
0.0
 70
    64
 71
     4
 72
     2
  0
VERTEX
  5
83E
  8
RÁM
 10
-506.0055629987544
 20
2000.0
 30
11.7499996967865
 70
   192
  0
VERTEX
  5
83F
  8
RÁM
 10
-506.0055629987544
 20
0.0
 30
11.7499996967865
 70
   192
  0
VERTEX
  5
840
  8
RÁM
 10
-506.0055629987545
 20
0.0
 30
9.749998971876805
 70
   192
  0
VERTEX
  5
841
  8
RÁM
 10
-506.0055629987544
 20
2000.0
 30
9.749998971876805
 70
   192
  0
VERTEX
  5
842
  8
RÁM
 10
0.0
 20
0.0
 30
0.0
 70
   128
 71
     3
 72
     4
 73
    -1
  0
VERTEX
  5
843
  8
RÁM
 10
0.0
 20
0.0
 30
0.0
 70
   128
 71
     2
 72
    -3
 73
     1
  0
SEQEND
  5
ECC
  8
RÁM
  0
POLYLINE
  5
844
  8
RÁM
 66
     1
 10
0.0
 20
0.0
 30
0.0
 70
    64
 71
     4
 72
     2
  0
VERTEX
  5
845
  8
RÁM
 10
-506.0055629987544
 20
2000.0
 30
9.749998971876805
 70
   192
  0
VERTEX
  5
846
  8
RÁM
 10
-506.0055629987544
 20
0.0
 30
9.749998971876805
 70
   192
  0
VERTEX
  5
847
  8
RÁM
 10
-471.0488360002572
 20
0.0
 30
9.749998971876803
 70
   192
  0
VERTEX
  5
848
  8
RÁM
 10
-471.0488360002572
 20
2000.0
 30
9.749998971876803
 70
   192
  0
VERTEX
  5
849
  8
RÁM
 10
0.0
 20
0.0
 30
0.0
 70
   128
 71
     3
 72
     4
 73
    -1
  0
VERTEX
  5
84A
  8
RÁM
 10
0.0
 20
0.0
 30
0.0
 70
   128
 71
     2
 72
    -3
 73
     1
  0
SEQEND
  5
ECD
  8
RÁM
  0
POLYLINE
  5
84B
  8
RÁM
 66
     1
 10
0.0
 20
0.0
 30
0.0
 70
    64
 71
     8
 72
     6
  0
VERTEX
  5
84C
  8
RÁM
 10
-470.6158232993325
 20
0.0
 30
9.499998972435383
 70
   192
  0
VERTEX
  5
84D
  8
RÁM
 10
-470.6158232993325
 20
2000.0
 30
9.499998972435383
 70
   192
  0
VERTEX
  5
84E
  8
RÁM
 10
-470.7988360008158
 20
2000.0
 30
9.683011673918694
 70
   192
  0
VERTEX
  5
84F
  8
RÁM
 10
-470.7988360008158
 20
0.0
 30
9.683011673918694
 70
   192
  0
VERTEX
  5
850
  8
RÁM
 10
-470.5488360013744
 20
0.0
 30
9.249998972993964
 70
   192
  0
VERTEX
  5
851
  8
RÁM
 10
-470.5488360013744
 20
2000.0
 30
9.249998972993964
 70
   192
  0
VERTEX
  5
852
  8
RÁM
 10
-471.0488360002572
 20
2000.0
 30
9.749998971876803
 70
   192
  0
VERTEX
  5
853
  8
RÁM
 10
-471.0488360002572
 20
0.0
 30
9.749998971876803
 70
   192
  0
VERTEX
  5
854
  8
RÁM
 10
0.0
 20
0.0
 30
0.0
 70
   128
 71
     1
 72
     2
 73
    -3
  0
VERTEX
  5
855
  8
RÁM
 10
0.0
 20
0.0
 30
0.0
 70
   128
 71
    -1
 72
     3
 73
     4
  0
VERTEX
  5
856
  8
RÁM
 10
0.0
 20
0.0
 30
0.0
 70
   128
 71
     5
 72
     6
 73
    -2
  0
VERTEX
  5
857
  8
RÁM
 10
0.0
 20
0.0
 30
0.0
 70
   128
 71
    -5
 72
     2
 73
     1
  0
VERTEX
  5
858
  8
RÁM
 10
0.0
 20
0.0
 30
0.0
 70
   128
 71
     4
 72
     3
 73
    -7
  0
VERTEX
  5
859
  8
RÁM
 10
0.0
 20
0.0
 30
0.0
 70
   128
 71
    -4
 72
     7
 73
     8
  0
SEQEND
  5
ECE
  8
RÁM
  0
POLYLINE
  5
85A
  8
RÁM
 66
     1
 10
0.0
 20
0.0
 30
0.0
 70
    64
 71
     4
 72
     2
  0
VERTEX
  5
85B
  8
RÁM
 10
-470.5488360013744
 20
18.00000000000001
 30
2.399998906309701
 70
   192
  0
VERTEX
  5
85C
  8
RÁM
 10
-479.5511639986256
 20
18.00000000000001
 30
2.399998906309468
 70
   192
  0
VERTEX
  5
85D
  8
RÁM
 10
-479.5511639986257
 20
2000.0
 30
2.399998906309468
 70
   192
  0
VERTEX
  5
85E
  8
RÁM
 10
-470.5488360013744
 20
2000.0
 30
2.399998906309701
 70
   192
  0
VERTEX
  5
85F
  8
RÁM
 10
0.0
 20
0.0
 30
0.0
 70
   128
 71
     3
 72
     4
 73
    -1
  0
VERTEX
  5
860
  8
RÁM
 10
0.0
 20
0.0
 30
0.0
 70
   128
 71
     2
 72
    -3
 73
     1
  0
SEQEND
  5
ECF
  8
RÁM
  0
POLYLINE
  5
861
  8
RÁM
 66
     1
 10
0.0
 20
0.0
 30
0.0
 70
    64
 71
     4
 72
     2
  0
VERTEX
  5
862
  8
RÁM
 10
-479.5511639986257
 20
18.00000000000001
 30
2.399998906309468
 70
   192
  0
VERTEX
  5
863
  8
RÁM
 10
-479.5511639986257
 20
18.00000000000001
 30
-2.399998906309468
 70
   192
  0
VERTEX
  5
864
  8
RÁM
 10
-479.5511639986257
 20
2000.0
 30
-2.399998906309468
 70
   192
  0
VERTEX
  5
865
  8
RÁM
 10
-479.5511639986257
 20
2000.0
 30
2.399998906309468
 70
   192
  0
VERTEX
  5
866
  8
RÁM
 10
0.0
 20
0.0
 30
0.0
 70
   128
 71
     3
 72
     4
 73
    -1
  0
VERTEX
  5
867
  8
RÁM
 10
0.0
 20
0.0
 30
0.0
 70
   128
 71
     2
 72
    -3
 73
     1
  0
SEQEND
  5
ED0
  8
RÁM
  0
POLYLINE
  5
868
  8
RÁM
 66
     1
 10
0.0
 20
0.0
 30
0.0
 70
    64
 71
     4
 72
     2
  0
VERTEX
  5
869
  8
RÁM
 10
-479.5511639986256
 20
18.00000000000001
 30
-2.399998906309468
 70
   192
  0
VERTEX
  5
86A
  8
RÁM
 10
-470.5488360013744
 20
18.00000000000001
 30
-2.399998906309701
 70
   192
  0
VERTEX
  5
86B
  8
RÁM
 10
-470.5488360013744
 20
2000.0
 30
-2.3999989063097
 70
   192
  0
VERTEX
  5
86C
  8
RÁM
 10
-479.5511639986256
 20
2000.0
 30
-2.399998906309468
 70
   192
  0
VERTEX
  5
86D
  8
RÁM
 10
0.0
 20
0.0
 30
0.0
 70
   128
 71
     3
 72
     4
 73
    -1
  0
VERTEX
  5
86E
  8
RÁM
 10
0.0
 20
0.0
 30
0.0
 70
   128
 71
     2
 72
    -3
 73
     1
  0
SEQEND
  5
ED1
  8
RÁM
  0
POLYLINE
  5
86F
  8
RÁM
 66
     1
 10
0.0
 20
0.0
 30
0.0
 70
    64
 71
     8
 72
     6
  0
VERTEX
  5
870
  8
RÁM
 10
-470.5488360013744
 20
2000.0
 30
-2.3999989063097
 70
   192
  0
VERTEX
  5
871
  8
RÁM
 10
-470.5488360013744
 20
18.0
 30
-2.3999989063097
 70
   192
  0
VERTEX
  5
872
  8
RÁM
 10
-470.5488360013744
 20
18.0
 30
2.399998906309585
 70
   192
  0
VERTEX
  5
873
  8
RÁM
 10
-470.5488360013744
 20
2000.0
 30
2.3999989063097
 70
   192
  0
VERTEX
  5
874
  8
RÁM
 10
-470.5488360013744
 20
2000.0
 30
9.249998972993964
 70
   192
  0
VERTEX
  5
875
  8
RÁM
 10
-470.5488360013744
 20
0.0
 30
9.249998972993964
 70
   192
  0
VERTEX
  5
876
  8
RÁM
 10
-470.5488360013744
 20
0.0
 30
-9.8499997584866
 70
   192
  0
VERTEX
  5
877
  8
RÁM
 10
-470.5488360013744
 20
2000.0
 30
-9.8499997584866
 70
   192
  0
VERTEX
  5
878
  8
RÁM
 10
0.0
 20
0.0
 30
0.0
 70
   128
 71
     8
 72
     1
 73
    -2
  0
VERTEX
  5
879
  8
RÁM
 10
0.0
 20
0.0
 30
0.0
 70
   128
 71
     7
 72
    -8
 73
    -2
  0
VERTEX
  5
87A
  8
RÁM
 10
0.0
 20
0.0
 30
0.0
 70
   128
 71
    -3
 72
     6
 73
    -7
  0
VERTEX
  5
87B
  8
RÁM
 10
0.0
 20
0.0
 30
0.0
 70
   128
 71
     2
 72
    -3
 73
    -7
  0
VERTEX
  5
87C
  8
RÁM
 10
0.0
 20
0.0
 30
0.0
 70
   128
 71
     4
 72
     5
 73
    -6
  0
VERTEX
  5
87D
  8
RÁM
 10
0.0
 20
0.0
 30
0.0
 70
   128
 71
     3
 72
    -4
 73
    -6
  0
SEQEND
  5
ED2
  8
RÁM
  0
POLYLINE
  5
87E
  8
RÁM
 66
     1
 10
0.0
 20
0.0
 30
0.0
 70
    64
 71
     8
 72
     6
  0
VERTEX
  5
87F
  8
RÁM
 10
-470.7488360013744
 20
0.0
 30
-10.19640992000038
 70
   192
  0
VERTEX
  5
880
  8
RÁM
 10
-470.7488360013744
 20
2000.0
 30
-10.19640992000038
 70
   192
  0
VERTEX
  5
881
  8
RÁM
 10
-470.6024258398606
 20
2000.0
 30
-10.0499997584866
 70
   192
  0
VERTEX
  5
882
  8
RÁM
 10
-470.6024258398606
 20
0.0
 30
-10.0499997584866
 70
   192
  0
VERTEX
  5
883
  8
RÁM
 10
-470.9488360013744
 20
0.0
 30
-10.24999975848661
 70
   192
  0
VERTEX
  5
884
  8
RÁM
 10
-470.9488360013744
 20
2000.0
 30
-10.24999975848661
 70
   192
  0
VERTEX
  5
885
  8
RÁM
 10
-470.5488360013744
 20
2000.0
 30
-9.8499997584866
 70
   192
  0
VERTEX
  5
886
  8
RÁM
 10
-470.5488360013744
 20
0.0
 30
-9.8499997584866
 70
   192
  0
VERTEX
  5
887
  8
RÁM
 10
0.0
 20
0.0
 30
0.0
 70
   128
 71
     1
 72
     2
 73
    -3
  0
VERTEX
  5
888
  8
RÁM
 10
0.0
 20
0.0
 30
0.0
 70
   128
 71
    -1
 72
     3
 73
     4
  0
VERTEX
  5
889
  8
RÁM
 10
0.0
 20
0.0
 30
0.0
 70
   128
 71
     5
 72
     6
 73
    -2
  0
VERTEX
  5
88A
  8
RÁM
 10
0.0
 20
0.0
 30
0.0
 70
   128
 71
    -5
 72
     2
 73
     1
  0
VERTEX
  5
88B
  8
RÁM
 10
0.0
 20
0.0
 30
0.0
 70
   128
 71
     4
 72
     3
 73
    -7
  0
VERTEX
  5
88C
  8
RÁM
 10
0.0
 20
0.0
 30
0.0
 70
   128
 71
    -4
 72
     7
 73
     8
  0
SEQEND
  5
ED3
  8
RÁM
  0
POLYLINE
  5
88D
  8
RÁM
 66
     1
 10
0.0
 20
0.0
 30
0.0
 70
    64
 71
     4
 72
     2
  0
VERTEX
  5
88E
  8
RÁM
 10
-470.9488360013744
 20
2000.0
 30
-10.24999975848661
 70
   192
  0
VERTEX
  5
88F
  8
RÁM
 10
-470.9488360013744
 20
0.0
 30
-10.24999975848661
 70
   192
  0
VERTEX
  5
890
  8
RÁM
 10
-506.0055629987544
 20
0.0
 30
-10.24999975848661
 70
   192
  0
VERTEX
  5
891
  8
RÁM
 10
-506.0055629987544
 20
2000.0
 30
-10.24999975848661
 70
   192
  0
VERTEX
  5
892
  8
RÁM
 10
0.0
 20
0.0
 30
0.0
 70
   128
 71
     3
 72
     4
 73
    -1
  0
VERTEX
  5
893
  8
RÁM
 10
0.0
 20
0.0
 30
0.0
 70
   128
 71
     2
 72
    -3
 73
     1
  0
SEQEND
  5
ED4
  8
RÁM
  0
POLYLINE
  5
894
  8
RÁM
 66
     1
 10
0.0
 20
0.0
 30
0.0
 70
    64
 71
     4
 72
     2
  0
VERTEX
  5
895
  8
RÁM
 10
-506.0055629987544
 20
2000.0
 30
-10.24999975848661
 70
   192
  0
VERTEX
  5
896
  8
RÁM
 10
-506.0055629987544
 20
0.0
 30
-10.24999975848661
 70
   192
  0
VERTEX
  5
897
  8
RÁM
 10
-506.0055629987544
 20
0.0
 30
-12.05000030329001
 70
   192
  0
VERTEX
  5
898
  8
RÁM
 10
-506.0055629987543
 20
2000.0
 30
-12.05000030329001
 70
   192
  0
VERTEX
  5
899
  8
RÁM
 10
0.0
 20
0.0
 30
0.0
 70
   128
 71
     3
 72
     4
 73
    -1
  0
VERTEX
  5
89A
  8
RÁM
 10
0.0
 20
0.0
 30
0.0
 70
   128
 71
     2
 72
    -3
 73
     1
  0
SEQEND
  5
ED5
  8
RÁM
  0
POLYLINE
  5
89B
  8
RÁM
 66
     1
 10
0.0
 20
0.0
 30
0.0
 70
    64
 71
     4
 72
     2
  0
VERTEX
  5
89C
  8
RÁM
 10
-506.0055629987543
 20
2000.0
 30
-12.05000030329001
 70
   192
  0
VERTEX
  5
89D
  8
RÁM
 10
-506.0055629987543
 20
0.0
 30
-12.05000030329001
 70
   192
  0
VERTEX
  5
89E
  8
RÁM
 10
-514.9512584741856
 20
0.0
 30
-18.01379728444249
 70
   192
  0
VERTEX
  5
89F
  8
RÁM
 10
-514.9512584741856
 20
2000.0
 30
-18.0137972844425
 70
   192
  0
VERTEX
  5
8A0
  8
RÁM
 10
0.0
 20
0.0
 30
0.0
 70
   128
 71
     3
 72
     4
 73
    -1
  0
VERTEX
  5
8A1
  8
RÁM
 10
0.0
 20
0.0
 30
0.0
 70
   128
 71
     2
 72
    -3
 73
     1
  0
SEQEND
  5
ED6
  8
RÁM
  0
POLYLINE
  5
8A2
  8
RÁM
 66
     1
 10
0.0
 20
0.0
 30
0.0
 70
    64
 71
     8
 72
     6
  0
VERTEX
  5
8A3
  8
RÁM
 10
-515.0288492224443
 20
0.0
 30
-18.04587305197508
 70
   192
  0
VERTEX
  5
8A4
  8
RÁM
 10
-515.0288492224443
 20
2000.0
 30
-18.04587305197508
 70
   192
  0
VERTEX
  5
8A5
  8
RÁM
 10
-514.9884770776991
 20
2000.0
 30
-18.0336493501075
 70
   192
  0
VERTEX
  5
8A6
  8
RÁM
 10
-514.9884770776991
 20
0.0
 30
-18.0336493501075
 70
   192
  0
VERTEX
  5
8A7
  8
RÁM
 10
-515.0708289171732
 20
0.0
 30
-18.05000030155941
 70
   192
  0
VERTEX
  5
8A8
  8
RÁM
 10
-515.0708289171732
 20
2000.0
 30
-18.05000030155944
 70
   192
  0
VERTEX
  5
8A9
  8
RÁM
 10
-514.9512584741856
 20
2000.0
 30
-18.01379728444245
 70
   192
  0
VERTEX
  5
8AA
  8
RÁM
 10
-514.9512584741856
 20
0.0
 30
-18.0137972844425
 70
   192
  0
VERTEX
  5
8AB
  8
RÁM
 10
0.0
 20
0.0
 30
0.0
 70
   128
 71
     1
 72
     2
 73
    -3
  0
VERTEX
  5
8AC
  8
RÁM
 10
0.0
 20
0.0
 30
0.0
 70
   128
 71
    -1
 72
     3
 73
     4
  0
VERTEX
  5
8AD
  8
RÁM
 10
0.0
 20
0.0
 30
0.0
 70
   128
 71
     5
 72
     6
 73
    -2
  0
VERTEX
  5
8AE
  8
RÁM
 10
0.0
 20
0.0
 30
0.0
 70
   128
 71
    -5
 72
     2
 73
     1
  0
VERTEX
  5
8AF
  8
RÁM
 10
0.0
 20
0.0
 30
0.0
 70
   128
 71
     4
 72
     3
 73
    -7
  0
VERTEX
  5
8B0
  8
RÁM
 10
0.0
 20
0.0
 30
0.0
 70
   128
 71
    -4
 72
     7
 73
     8
  0
SEQEND
  5
ED7
  8
RÁM
  0
POLYLINE
  5
8B1
  8
RÁM
 66
     1
 10
0.0
 20
0.0
 30
0.0
 70
    64
 71
     4
 72
     2
  0
VERTEX
  5
8B2
  8
RÁM
 10
-515.0708289171732
 20
2000.0
 30
-18.05000030155944
 70
   192
  0
VERTEX
  5
8B3
  8
RÁM
 10
-515.0708289171732
 20
0.0
 30
-18.05000030155944
 70
   192
  0
VERTEX
  5
8B4
  8
RÁM
 10
-544.2055629987154
 20
0.0
 30
-18.05000030155944
 70
   192
  0
VERTEX
  5
8B5
  8
RÁM
 10
-544.2055629987154
 20
2000.0
 30
-18.05000030155944
 70
   192
  0
VERTEX
  5
8B6
  8
RÁM
 10
0.0
 20
0.0
 30
0.0
 70
   128
 71
     3
 72
     4
 73
    -1
  0
VERTEX
  5
8B7
  8
RÁM
 10
0.0
 20
0.0
 30
0.0
 70
   128
 71
     2
 72
    -3
 73
     1
  0
SEQEND
  5
ED8
  8
RÁM
  0
POLYLINE
  5
8B8
  8
RÁM
 66
     1
 10
0.0
 20
0.0
 30
0.0
 70
    64
 71
     4
 72
     2
  0
VERTEX
  5
8B9
  8
RÁM
 10
-544.2055629987154
 20
2000.0
 30
-18.05000030155944
 70
   192
  0
VERTEX
  5
8BA
  8
RÁM
 10
-544.2055629987154
 20
0.0
 30
-18.05000030155944
 70
   192
  0
VERTEX
  5
8BB
  8
RÁM
 10
-544.2055629987154
 20
0.0
 30
11.94999969674829
 70
   192
  0
VERTEX
  5
8BC
  8
RÁM
 10
-544.2055629987154
 20
2000.0
 30
11.94999969674829
 70
   192
  0
VERTEX
  5
8BD
  8
RÁM
 10
0.0
 20
0.0
 30
0.0
 70
   128
 71
     3
 72
     4
 73
    -1
  0
VERTEX
  5
8BE
  8
RÁM
 10
0.0
 20
0.0
 30
0.0
 70
   128
 71
     2
 72
    -3
 73
     1
  0
SEQEND
  5
ED9
  8
RÁM
  0
POLYLINE
  5
8BF
  8
RÁM
 66
     1
 10
0.0
 20
0.0
 30
0.0
 70
    64
 71
     4
 72
     2
  0
VERTEX
  5
8C0
  8
RÁM
 10
-544.2055629987154
 20
2000.0
 30
11.94999969674829
 70
   192
  0
VERTEX
  5
8C1
  8
RÁM
 10
-544.2055629987154
 20
0.0
 30
11.94999969674829
 70
   192
  0
VERTEX
  5
8C2
  8
RÁM
 10
-506.2055629987161
 20
0.0
 30
11.94999969674828
 70
   192
  0
VERTEX
  5
8C3
  8
RÁM
 10
-506.2055629987161
 20
2000.0
 30
11.94999969674828
 70
   192
  0
VERTEX
  5
8C4
  8
RÁM
 10
0.0
 20
0.0
 30
0.0
 70
   128
 71
     3
 72
     4
 73
    -1
  0
VERTEX
  5
8C5
  8
RÁM
 10
0.0
 20
0.0
 30
0.0
 70
   128
 71
     2
 72
    -3
 73
     1
  0
SEQEND
  5
EDA
  8
RÁM
  0
POLYLINE
  5
8C6
  8
RÁM
 66
     1
 10
0.0
 20
0.0
 30
0.0
 70
    64
 71
    25
 72
    23
  0
VERTEX
  5
8C7
  8
RÁM
 10
-506.2055629987161
 20
2000.0
 30
11.94999969674823
 70
   192
  0
VERTEX
  5
8C8
  8
RÁM
 10
-506.1055629987353
 20
2000.0
 30
11.92320477751024
 70
   192
  0
VERTEX
  5
8C9
  8
RÁM
 10
-506.0323579179924
 20
2000.0
 30
11.84999969676736
 70
   192
  0
VERTEX
  5
8CA
  8
RÁM
 10
-506.0055629987544
 20
2000.0
 30
11.7499996967865
 70
   192
  0
VERTEX
  5
8CB
  8
RÁM
 10
-506.0055629987545
 20
2000.0
 30
9.749998971876805
 70
   192
  0
VERTEX
  5
8CC
  8
RÁM
 10
-471.0488360002572
 20
2000.0
 30
9.749998971876803
 70
   192
  0
VERTEX
  5
8CD
  8
RÁM
 10
-470.7988360008158
 20
2000.0
 30
9.683011673918694
 70
   192
  0
VERTEX
  5
8CE
  8
RÁM
 10
-470.6158232993325
 20
2000.0
 30
9.499998972435383
 70
   192
  0
VERTEX
  5
8CF
  8
RÁM
 10
-470.5488360013744
 20
2000.0
 30
9.249998972993964
 70
   192
  0
VERTEX
  5
8D0
  8
RÁM
 10
-470.5488360013744
 20
2000.0
 30
2.3999989063097
 70
   192
  0
VERTEX
  5
8D1
  8
RÁM
 10
-479.5511639986256
 20
2000.0
 30
2.399998906309468
 70
   192
  0
VERTEX
  5
8D2
  8
RÁM
 10
-479.5511639986257
 20
2000.0
 30
-2.399998906309468
 70
   192
  0
VERTEX
  5
8D3
  8
RÁM
 10
-470.5488360013744
 20
2000.0
 30
-2.399998906309701
 70
   192
  0
VERTEX
  5
8D4
  8
RÁM
 10
-470.5488360013744
 20
2000.0
 30
-9.8499997584866
 70
   192
  0
VERTEX
  5
8D5
  8
RÁM
 10
-470.6024258398606
 20
2000.0
 30
-10.0499997584866
 70
   192
  0
VERTEX
  5
8D6
  8
RÁM
 10
-470.7488360013744
 20
2000.0
 30
-10.19640992000038
 70
   192
  0
VERTEX
  5
8D7
  8
RÁM
 10
-470.9488360013744
 20
2000.0
 30
-10.24999975848661
 70
   192
  0
VERTEX
  5
8D8
  8
RÁM
 10
-506.0055629987544
 20
2000.0
 30
-10.24999975848661
 70
   192
  0
VERTEX
  5
8D9
  8
RÁM
 10
-506.0055629987544
 20
2000.0
 30
-12.05000030329001
 70
   192
  0
VERTEX
  5
8DA
  8
RÁM
 10
-514.9512584741856
 20
2000.0
 30
-18.01379728444249
 70
   192
  0
VERTEX
  5
8DB
  8
RÁM
 10
-514.9884770776991
 20
2000.0
 30
-18.0336493501075
 70
   192
  0
VERTEX
  5
8DC
  8
RÁM
 10
-515.0288492224443
 20
2000.0
 30
-18.04587305197508
 70
   192
  0
VERTEX
  5
8DD
  8
RÁM
 10
-515.0708289171732
 20
2000.0
 30
-18.05000030155941
 70
   192
  0
VERTEX
  5
8DE
  8
RÁM
 10
-544.2055629987154
 20
2000.0
 30
-18.05000030155944
 70
   192
  0
VERTEX
  5
8DF
  8
RÁM
 10
-544.2055629987154
 20
2000.0
 30
11.94999969674829
 70
   192
  0
VERTEX
  5
8E0
  8
RÁM
 10
0.0
 20
0.0
 30
0.0
 70
   128
 71
     9
 72
    10
 73
   -11
  0
VERTEX
  5
8E1
  8
RÁM
 10
0.0
 20
0.0
 30
0.0
 70
   128
 71
     8
 72
    -9
 73
   -11
  0
VERTEX
  5
8E2
  8
RÁM
 10
0.0
 20
0.0
 30
0.0
 70
   128
 71
     7
 72
    -8
 73
   -11
  0
VERTEX
  5
8E3
  8
RÁM
 10
0.0
 20
0.0
 30
0.0
 70
   128
 71
     6
 72
    -7
 73
   -11
  0
VERTEX
  5
8E4
  8
RÁM
 10
0.0
 20
0.0
 30
0.0
 70
   128
 71
     3
 72
     4
 73
    -5
  0
VERTEX
  5
8E5
  8
RÁM
 10
0.0
 20
0.0
 30
0.0
 70
   128
 71
     2
 72
    -3
 73
    -5
  0
VERTEX
  5
8E6
  8
RÁM
 10
0.0
 20
0.0
 30
0.0
 70
   128
 71
     1
 72
    -2
 73
    -5
  0
VERTEX
  5
8E7
  8
RÁM
 10
0.0
 20
0.0
 30
0.0
 70
   128
 71
   -18
 72
    -1
 73
    -5
  0
VERTEX
  5
8E8
  8
RÁM
 10
0.0
 20
0.0
 30
0.0
 70
   128
 71
    -6
 72
   -11
 73
   -18
  0
VERTEX
  5
8E9
  8
RÁM
 10
0.0
 20
0.0
 30
0.0
 70
   128
 71
     5
 72
    -6
 73
   -18
  0
VERTEX
  5
8EA
  8
RÁM
 10
0.0
 20
0.0
 30
0.0
 70
   128
 71
    11
 72
   -12
 73
   -18
  0
VERTEX
  5
8EB
  8
RÁM
 10
0.0
 20
0.0
 30
0.0
 70
   128
 71
   -12
 72
    17
 73
   -18
  0
VERTEX
  5
8EC
  8
RÁM
 10
0.0
 20
0.0
 30
0.0
 70
   128
 71
    15
 72
    16
 73
   -17
  0
VERTEX
  5
8ED
  8
RÁM
 10
0.0
 20
0.0
 30
0.0
 70
   128
 71
    14
 72
   -15
 73
   -17
  0
VERTEX
  5
8EE
  8
RÁM
 10
0.0
 20
0.0
 30
0.0
 70
   128
 71
    13
 72
   -14
 73
   -17
  0
VERTEX
  5
8EF
  8
RÁM
 10
0.0
 20
0.0
 30
0.0
 70
   128
 71
    12
 72
   -13
 73
   -17
  0
VERTEX
  5
8F0
  8
RÁM
 10
0.0
 20
0.0
 30
0.0
 70
   128
 71
   -18
 72
   -23
 73
    -1
  0
VERTEX
  5
8F1
  8
RÁM
 10
0.0
 20
0.0
 30
0.0
 70
   128
 71
    19
 72
   -20
 73
   -23
  0
VERTEX
  5
8F2
  8
RÁM
 10
0.0
 20
0.0
 30
0.0
 70
   128
 71
    18
 72
   -19
 73
   -23
  0
VERTEX
  5
8F3
  8
RÁM
 10
0.0
 20
0.0
 30
0.0
 70
   128
 71
    21
 72
    22
 73
   -23
  0
VERTEX
  5
8F4
  8
RÁM
 10
0.0
 20
0.0
 30
0.0
 70
   128
 71
    20
 72
   -21
 73
   -23
  0
VERTEX
  5
8F5
  8
RÁM
 10
0.0
 20
0.0
 30
0.0
 70
   128
 71
    24
 72
    25
 73
    -1
  0
VERTEX
  5
8F6
  8
RÁM
 10
0.0
 20
0.0
 30
0.0
 70
   128
 71
    23
 72
   -24
 73
    -1
  0
SEQEND
  5
EDB
  8
RÁM
  0
POLYLINE
  5
8F7
  8
RÁM
 66
     1
 10
0.0
 20
0.0
 30
0.0
 70
    64
 71
    21
 72
    19
  0
VERTEX
  5
8F8
  8
RÁM
 10
-470.5488360013744
 20
0.0
 30
-9.8499997584866
 70
   192
  0
VERTEX
  5
8F9
  8
RÁM
 10
-470.6024258398606
 20
0.0
 30
-10.0499997584866
 70
   192
  0
VERTEX
  5
8FA
  8
RÁM
 10
-470.7488360013744
 20
0.0
 30
-10.19640992000038
 70
   192
  0
VERTEX
  5
8FB
  8
RÁM
 10
-470.9488360013744
 20
0.0
 30
-10.24999975848661
 70
   192
  0
VERTEX
  5
8FC
  8
RÁM
 10
-506.0055629987544
 20
0.0
 30
-10.24999975848661
 70
   192
  0
VERTEX
  5
8FD
  8
RÁM
 10
-506.0055629987543
 20
0.0
 30
-12.05000030329001
 70
   192
  0
VERTEX
  5
8FE
  8
RÁM
 10
-514.9512584741856
 20
0.0
 30
-18.01379728444245
 70
   192
  0
VERTEX
  5
8FF
  8
RÁM
 10
-514.9884770776991
 20
0.0
 30
-18.0336493501075
 70
   192
  0
VERTEX
  5
900
  8
RÁM
 10
-515.0288492224443
 20
0.0
 30
-18.04587305197508
 70
   192
  0
VERTEX
  5
901
  8
RÁM
 10
-515.0708289171731
 20
0.0
 30
-18.05000030155945
 70
   192
  0
VERTEX
  5
902
  8
RÁM
 10
-544.2055629987154
 20
0.0
 30
-18.05000030155944
 70
   192
  0
VERTEX
  5
903
  8
RÁM
 10
-544.2055629987154
 20
0.0
 30
11.94999969674829
 70
   192
  0
VERTEX
  5
904
  8
RÁM
 10
-506.2055629987161
 20
0.0
 30
11.94999969674823
 70
   192
  0
VERTEX
  5
905
  8
RÁM
 10
-506.1055629987353
 20
0.0
 30
11.92320477751024
 70
   192
  0
VERTEX
  5
906
  8
RÁM
 10
-506.0323579179924
 20
0.0
 30
11.84999969676736
 70
   192
  0
VERTEX
  5
907
  8
RÁM
 10
-506.0055629987545
 20
0.0
 30
11.7499996967865
 70
   192
  0
VERTEX
  5
908
  8
RÁM
 10
-506.0055629987544
 20
0.0
 30
9.749998971876808
 70
   192
  0
VERTEX
  5
909
  8
RÁM
 10
-471.0488360002572
 20
0.0
 30
9.749998971876803
 70
   192
  0
VERTEX
  5
90A
  8
RÁM
 10
-470.7988360008158
 20
0.0
 30
9.683011673918694
 70
   192
  0
VERTEX
  5
90B
  8
RÁM
 10
-470.6158232993325
 20
0.0
 30
9.499998972435383
 70
   192
  0
VERTEX
  5
90C
  8
RÁM
 10
-470.5488360013744
 20
0.0
 30
9.249998972993964
 70
   192
  0
VERTEX
  5
90D
  8
RÁM
 10
0.0
 20
0.0
 30
0.0
 70
   128
 71
    17
 72
    16
 73
   -15
  0
VERTEX
  5
90E
  8
RÁM
 10
0.0
 20
0.0
 30
0.0
 70
   128
 71
   -17
 72
    15
 73
   -14
  0
VERTEX
  5
90F
  8
RÁM
 10
0.0
 20
0.0
 30
0.0
 70
   128
 71
   -17
 72
    14
 73
   -13
  0
VERTEX
  5
910
  8
RÁM
 10
0.0
 20
0.0
 30
0.0
 70
   128
 71
   -17
 72
    13
 73
   -12
  0
VERTEX
  5
911
  8
RÁM
 10
0.0
 20
0.0
 30
0.0
 70
   128
 71
     5
 72
     4
 73
    -3
  0
VERTEX
  5
912
  8
RÁM
 10
0.0
 20
0.0
 30
0.0
 70
   128
 71
    -5
 72
     3
 73
    -2
  0
VERTEX
  5
913
  8
RÁM
 10
0.0
 20
0.0
 30
0.0
 70
   128
 71
    -5
 72
     2
 73
    -1
  0
VERTEX
  5
914
  8
RÁM
 10
0.0
 20
0.0
 30
0.0
 70
   128
 71
    -5
 72
     1
 73
   -21
  0
VERTEX
  5
915
  8
RÁM
 10
0.0
 20
0.0
 30
0.0
 70
   128
 71
    -5
 72
    21
 73
   -20
  0
VERTEX
  5
916
  8
RÁM
 10
0.0
 20
0.0
 30
0.0
 70
   128
 71
    -5
 72
    20
 73
   -19
  0
VERTEX
  5
917
  8
RÁM
 10
0.0
 20
0.0
 30
0.0
 70
   128
 71
    -5
 72
    19
 73
   -18
  0
VERTEX
  5
918
  8
RÁM
 10
0.0
 20
0.0
 30
0.0
 70
   128
 71
    -5
 72
    18
 73
   -17
  0
VERTEX
  5
919
  8
RÁM
 10
0.0
 20
0.0
 30
0.0
 70
   128
 71
   -17
 72
   -10
 73
    -5
  0
VERTEX
  5
91A
  8
RÁM
 10
0.0
 20
0.0
 30
0.0
 70
   128
 71
   -10
 72
     7
 73
    -6
  0
VERTEX
  5
91B
  8
RÁM
 10
0.0
 20
0.0
 30
0.0
 70
   128
 71
   -10
 72
     6
 73
    -5
  0
VERTEX
  5
91C
  8
RÁM
 10
0.0
 20
0.0
 30
0.0
 70
   128
 71
    10
 72
     9
 73
    -8
  0
VERTEX
  5
91D
  8
RÁM
 10
0.0
 20
0.0
 30
0.0
 70
   128
 71
   -10
 72
     8
 73
    -7
  0
VERTEX
  5
91E
  8
RÁM
 10
0.0
 20
0.0
 30
0.0
 70
   128
 71
   -17
 72
    12
 73
   -11
  0
VERTEX
  5
91F
  8
RÁM
 10
0.0
 20
0.0
 30
0.0
 70
   128
 71
   -17
 72
    11
 73
   -10
  0
SEQEND
  5
EDC
  8
RÁM
  0
POLYLINE
  5
920
  8
RÁM
 66
     1
 10
0.0
 20
0.0
 30
0.0
 70
    64
 71
     4
 72
     2
  0
VERTEX
  5
921
  8
RÁM
 10
-479.5511639986257
 20
18.00000000000001
 30
-2.399998906309468
 70
   192
  0
VERTEX
  5
922
  8
RÁM
 10
-479.5511639986257
 20
18.00000000000001
 30
2.399998906309468
 70
   192
  0
VERTEX
  5
923
  8
RÁM
 10
-470.5488360013744
 20
18.00000000000001
 30
2.399998906309701
 70
   192
  0
VERTEX
  5
924
  8
RÁM
 10
-470.5488360013744
 20
18.0
 30
-2.3999989063097
 70
   192
  0
VERTEX
  5
925
  8
RÁM
 10
0.0
 20
0.0
 30
0.0
 70
   128
 71
     3
 72
     4
 73
    -1
  0
VERTEX
  5
926
  8
RÁM
 10
0.0
 20
0.0
 30
0.0
 70
   128
 71
     2
 72
    -3
 73
     1
  0
SEQEND
  5
EDD
  8
RÁM
  0
ENDBLK
  5
ECA
  8
0
  0
BLOCK
  8
0
  2
*X2
 70
     1
 10
0.0
 20
0.0
 30
0.0
  3
*X2
  1

  0
POLYLINE
  5
928
  8
RÁM
 66
     1
 10
0.0
 20
0.0
 30
0.0
 70
    64
 71
     8
 72
     6
  0
VERTEX
  5
929
  8
RÁM
 10
470.7988360008158
 20
0.0
 30
9.683011673918577
 70
   192
  0
VERTEX
  5
92A
  8
RÁM
 10
470.7988360008158
 20
2000.0
 30
9.683011673918577
 70
   192
  0
VERTEX
  5
92B
  8
RÁM
 10
470.6158232993325
 20
2000.0
 30
9.499998972435266
 70
   192
  0
VERTEX
  5
92C
  8
RÁM
 10
470.6158232993325
 20
0.0
 30
9.499998972435266
 70
   192
  0
VERTEX
  5
92D
  8
RÁM
 10
471.0488360002572
 20
0.0
 30
9.749998971876686
 70
   192
  0
VERTEX
  5
92E
  8
RÁM
 10
471.0488360002572
 20
2000.0
 30
9.749998971876686
 70
   192
  0
VERTEX
  5
92F
  8
RÁM
 10
470.5488360013744
 20
2000.0
 30
9.249998972993849
 70
   192
  0
VERTEX
  5
930
  8
RÁM
 10
470.5488360013744
 20
0.0
 30
9.249998972993849
 70
   192
  0
VERTEX
  5
931
  8
RÁM
 10
0.0
 20
0.0
 30
0.0
 70
   128
 71
     1
 72
     2
 73
    -3
  0
VERTEX
  5
932
  8
RÁM
 10
0.0
 20
0.0
 30
0.0
 70
   128
 71
    -1
 72
     3
 73
     4
  0
VERTEX
  5
933
  8
RÁM
 10
0.0
 20
0.0
 30
0.0
 70
   128
 71
     5
 72
     6
 73
    -2
  0
VERTEX
  5
934
  8
RÁM
 10
0.0
 20
0.0
 30
0.0
 70
   128
 71
    -5
 72
     2
 73
     1
  0
VERTEX
  5
935
  8
RÁM
 10
0.0
 20
0.0
 30
0.0
 70
   128
 71
     4
 72
     3
 73
    -7
  0
VERTEX
  5
936
  8
RÁM
 10
0.0
 20
0.0
 30
0.0
 70
   128
 71
    -4
 72
     7
 73
     8
  0
SEQEND
  5
EE0
  8
RÁM
  0
POLYLINE
  5
937
  8
RÁM
 66
     1
 10
0.0
 20
0.0
 30
0.0
 70
    64
 71
     4
 72
     2
  0
VERTEX
  5
938
  8
RÁM
 10
471.0488360002572
 20
2000.0
 30
9.749998971876686
 70
   192
  0
VERTEX
  5
939
  8
RÁM
 10
506.0055629987543
 20
2000.0
 30
9.749998971876684
 70
   192
  0
VERTEX
  5
93A
  8
RÁM
 10
506.0055629987543
 20
0.0
 30
9.749998971876684
 70
   192
  0
VERTEX
  5
93B
  8
RÁM
 10
471.0488360002572
 20
0.0
 30
9.749998971876686
 70
   192
  0
VERTEX
  5
93C
  8
RÁM
 10
0.0
 20
0.0
 30
0.0
 70
   128
 71
     1
 72
     4
 73
    -3
  0
VERTEX
  5
93D
  8
RÁM
 10
0.0
 20
0.0
 30
0.0
 70
   128
 71
    -1
 72
     3
 73
     2
  0
SEQEND
  5
EE1
  8
RÁM
  0
POLYLINE
  5
93E
  8
RÁM
 66
     1
 10
0.0
 20
0.0
 30
0.0
 70
    64
 71
     4
 72
     2
  0
VERTEX
  5
93F
  8
RÁM
 10
506.0055629987545
 20
2000.0
 30
9.749998971876682
 70
   192
  0
VERTEX
  5
940
  8
RÁM
 10
506.0055629987544
 20
2000.0
 30
11.74999969678637
 70
   192
  0
VERTEX
  5
941
  8
RÁM
 10
506.0055629987545
 20
0.0
 30
11.74999969678637
 70
   192
  0
VERTEX
  5
942
  8
RÁM
 10
506.0055629987543
 20
0.0
 30
9.749998971876684
 70
   192
  0
VERTEX
  5
943
  8
RÁM
 10
0.0
 20
0.0
 30
0.0
 70
   128
 71
     1
 72
     4
 73
    -3
  0
VERTEX
  5
944
  8
RÁM
 10
0.0
 20
0.0
 30
0.0
 70
   128
 71
    -1
 72
     3
 73
     2
  0
SEQEND
  5
EE2
  8
RÁM
  0
POLYLINE
  5
945
  8
RÁM
 66
     1
 10
0.0
 20
0.0
 30
0.0
 70
    64
 71
     8
 72
     6
  0
VERTEX
  5
946
  8
RÁM
 10
506.1055629987353
 20
0.0
 30
11.92320477751012
 70
   192
  0
VERTEX
  5
947
  8
RÁM
 10
506.1055629987353
 20
2000.0
 30
11.92320477751012
 70
   192
  0
VERTEX
  5
948
  8
RÁM
 10
506.0323579179924
 20
2000.0
 30
11.84999969676724
 70
   192
  0
VERTEX
  5
949
  8
RÁM
 10
506.0323579179924
 20
0.0
 30
11.84999969676724
 70
   192
  0
VERTEX
  5
94A
  8
RÁM
 10
506.2055629987161
 20
0.0
 30
11.9499996967481
 70
   192
  0
VERTEX
  5
94B
  8
RÁM
 10
506.2055629987161
 20
2000.0
 30
11.94999969674816
 70
   192
  0
VERTEX
  5
94C
  8
RÁM
 10
506.0055629987544
 20
2000.0
 30
11.74999969678637
 70
   192
  0
VERTEX
  5
94D
  8
RÁM
 10
506.0055629987544
 20
0.0
 30
11.74999969678637
 70
   192
  0
VERTEX
  5
94E
  8
RÁM
 10
0.0
 20
0.0
 30
0.0
 70
   128
 71
     1
 72
     2
 73
    -3
  0
VERTEX
  5
94F
  8
RÁM
 10
0.0
 20
0.0
 30
0.0
 70
   128
 71
    -1
 72
     3
 73
     4
  0
VERTEX
  5
950
  8
RÁM
 10
0.0
 20
0.0
 30
0.0
 70
   128
 71
     5
 72
     6
 73
    -2
  0
VERTEX
  5
951
  8
RÁM
 10
0.0
 20
0.0
 30
0.0
 70
   128
 71
    -5
 72
     2
 73
     1
  0
VERTEX
  5
952
  8
RÁM
 10
0.0
 20
0.0
 30
0.0
 70
   128
 71
     4
 72
     3
 73
    -7
  0
VERTEX
  5
953
  8
RÁM
 10
0.0
 20
0.0
 30
0.0
 70
   128
 71
    -4
 72
     7
 73
     8
  0
SEQEND
  5
EE3
  8
RÁM
  0
POLYLINE
  5
954
  8
RÁM
 66
     1
 10
0.0
 20
0.0
 30
0.0
 70
    64
 71
     4
 72
     2
  0
VERTEX
  5
955
  8
RÁM
 10
506.2055629987161
 20
2000.0
 30
11.94999969674816
 70
   192
  0
VERTEX
  5
956
  8
RÁM
 10
544.2055629987154
 20
2000.0
 30
11.94999969674815
 70
   192
  0
VERTEX
  5
957
  8
RÁM
 10
544.2055629987154
 20
0.0
 30
11.94999969674815
 70
   192
  0
VERTEX
  5
958
  8
RÁM
 10
506.2055629987161
 20
0.0
 30
11.94999969674816
 70
   192
  0
VERTEX
  5
959
  8
RÁM
 10
0.0
 20
0.0
 30
0.0
 70
   128
 71
     1
 72
     4
 73
    -3
  0
VERTEX
  5
95A
  8
RÁM
 10
0.0
 20
0.0
 30
0.0
 70
   128
 71
    -1
 72
     3
 73
     2
  0
SEQEND
  5
EE4
  8
RÁM
  0
POLYLINE
  5
95B
  8
RÁM
 66
     1
 10
0.0
 20
0.0
 30
0.0
 70
    64
 71
     4
 72
     2
  0
VERTEX
  5
95C
  8
RÁM
 10
544.2055629987154
 20
2000.0
 30
11.94999969674815
 70
   192
  0
VERTEX
  5
95D
  8
RÁM
 10
544.2055629987154
 20
2000.0
 30
-18.05000030155957
 70
   192
  0
VERTEX
  5
95E
  8
RÁM
 10
544.2055629987154
 20
0.0
 30
-18.05000030155957
 70
   192
  0
VERTEX
  5
95F
  8
RÁM
 10
544.2055629987154
 20
0.0
 30
11.94999969674815
 70
   192
  0
VERTEX
  5
960
  8
RÁM
 10
0.0
 20
0.0
 30
0.0
 70
   128
 71
     1
 72
     4
 73
    -3
  0
VERTEX
  5
961
  8
RÁM
 10
0.0
 20
0.0
 30
0.0
 70
   128
 71
    -1
 72
     3
 73
     2
  0
SEQEND
  5
EE5
  8
RÁM
  0
POLYLINE
  5
962
  8
RÁM
 66
     1
 10
0.0
 20
0.0
 30
0.0
 70
    64
 71
     4
 72
     2
  0
VERTEX
  5
963
  8
RÁM
 10
544.2055629987154
 20
2000.0
 30
-18.05000030155957
 70
   192
  0
VERTEX
  5
964
  8
RÁM
 10
515.0708289171732
 20
2000.0
 30
-18.05000030155957
 70
   192
  0
VERTEX
  5
965
  8
RÁM
 10
515.0708289171731
 20
0.0
 30
-18.05000030155957
 70
   192
  0
VERTEX
  5
966
  8
RÁM
 10
544.2055629987154
 20
0.0
 30
-18.05000030155957
 70
   192
  0
VERTEX
  5
967
  8
RÁM
 10
0.0
 20
0.0
 30
0.0
 70
   128
 71
     1
 72
     4
 73
    -3
  0
VERTEX
  5
968
  8
RÁM
 10
0.0
 20
0.0
 30
0.0
 70
   128
 71
    -1
 72
     3
 73
     2
  0
SEQEND
  5
EE6
  8
RÁM
  0
POLYLINE
  5
969
  8
RÁM
 66
     1
 10
0.0
 20
0.0
 30
0.0
 70
    64
 71
     8
 72
     6
  0
VERTEX
  5
96A
  8
RÁM
 10
514.9884770776991
 20
0.0
 30
-18.03364935010763
 70
   192
  0
VERTEX
  5
96B
  8
RÁM
 10
514.9884770776991
 20
2000.0
 30
-18.03364935010763
 70
   192
  0
VERTEX
  5
96C
  8
RÁM
 10
515.0288492224443
 20
2000.0
 30
-18.04587305197521
 70
   192
  0
VERTEX
  5
96D
  8
RÁM
 10
515.0288492224443
 20
0.0
 30
-18.04587305197521
 70
   192
  0
VERTEX
  5
96E
  8
RÁM
 10
514.9512584741857
 20
0.0
 30
-18.0137972844426
 70
   192
  0
VERTEX
  5
96F
  8
RÁM
 10
514.9512584741857
 20
2000.0
 30
-18.01379728444252
 70
   192
  0
VERTEX
  5
970
  8
RÁM
 10
515.0708289171732
 20
2000.0
 30
-18.05000030155954
 70
   192
  0
VERTEX
  5
971
  8
RÁM
 10
515.0708289171732
 20
0.0
 30
-18.05000030155957
 70
   192
  0
VERTEX
  5
972
  8
RÁM
 10
0.0
 20
0.0
 30
0.0
 70
   128
 71
     1
 72
     2
 73
    -3
  0
VERTEX
  5
973
  8
RÁM
 10
0.0
 20
0.0
 30
0.0
 70
   128
 71
    -1
 72
     3
 73
     4
  0
VERTEX
  5
974
  8
RÁM
 10
0.0
 20
0.0
 30
0.0
 70
   128
 71
     5
 72
     6
 73
    -2
  0
VERTEX
  5
975
  8
RÁM
 10
0.0
 20
0.0
 30
0.0
 70
   128
 71
    -5
 72
     2
 73
     1
  0
VERTEX
  5
976
  8
RÁM
 10
0.0
 20
0.0
 30
0.0
 70
   128
 71
     4
 72
     3
 73
    -7
  0
VERTEX
  5
977
  8
RÁM
 10
0.0
 20
0.0
 30
0.0
 70
   128
 71
    -4
 72
     7
 73
     8
  0
SEQEND
  5
EE7
  8
RÁM
  0
POLYLINE
  5
978
  8
RÁM
 66
     1
 10
0.0
 20
0.0
 30
0.0
 70
    64
 71
     4
 72
     2
  0
VERTEX
  5
979
  8
RÁM
 10
514.9512584741857
 20
2000.0
 30
-18.01379728444257
 70
   192
  0
VERTEX
  5
97A
  8
RÁM
 10
506.0055629987543
 20
2000.0
 30
-12.05000030329007
 70
   192
  0
VERTEX
  5
97B
  8
RÁM
 10
506.0055629987543
 20
0.0
 30
-12.05000030329006
 70
   192
  0
VERTEX
  5
97C
  8
RÁM
 10
514.9512584741857
 20
0.0
 30
-18.01379728444252
 70
   192
  0
VERTEX
  5
97D
  8
RÁM
 10
0.0
 20
0.0
 30
0.0
 70
   128
 71
     1
 72
     4
 73
    -3
  0
VERTEX
  5
97E
  8
RÁM
 10
0.0
 20
0.0
 30
0.0
 70
   128
 71
    -1
 72
     3
 73
     2
  0
SEQEND
  5
EE8
  8
RÁM
  0
POLYLINE
  5
97F
  8
RÁM
 66
     1
 10
0.0
 20
0.0
 30
0.0
 70
    64
 71
     4
 72
     2
  0
VERTEX
  5
980
  8
RÁM
 10
506.0055629987544
 20
2000.0
 30
-12.05000030329007
 70
   192
  0
VERTEX
  5
981
  8
RÁM
 10
506.0055629987543
 20
2000.0
 30
-10.24999975848673
 70
   192
  0
VERTEX
  5
982
  8
RÁM
 10
506.0055629987544
 20
0.0
 30
-10.24999975848673
 70
   192
  0
VERTEX
  5
983
  8
RÁM
 10
506.0055629987543
 20
0.0
 30
-12.05000030329007
 70
   192
  0
VERTEX
  5
984
  8
RÁM
 10
0.0
 20
0.0
 30
0.0
 70
   128
 71
     1
 72
     4
 73
    -3
  0
VERTEX
  5
985
  8
RÁM
 10
0.0
 20
0.0
 30
0.0
 70
   128
 71
    -1
 72
     3
 73
     2
  0
SEQEND
  5
EE9
  8
RÁM
  0
POLYLINE
  5
986
  8
RÁM
 66
     1
 10
0.0
 20
0.0
 30
0.0
 70
    64
 71
     4
 72
     2
  0
VERTEX
  5
987
  8
RÁM
 10
506.0055629987543
 20
2000.0
 30
-10.24999975848673
 70
   192
  0
VERTEX
  5
988
  8
RÁM
 10
470.9488360013744
 20
2000.0
 30
-10.24999975848672
 70
   192
  0
VERTEX
  5
989
  8
RÁM
 10
470.9488360013744
 20
0.0
 30
-10.24999975848672
 70
   192
  0
VERTEX
  5
98A
  8
RÁM
 10
506.0055629987543
 20
0.0
 30
-10.24999975848673
 70
   192
  0
VERTEX
  5
98B
  8
RÁM
 10
0.0
 20
0.0
 30
0.0
 70
   128
 71
     1
 72
     4
 73
    -3
  0
VERTEX
  5
98C
  8
RÁM
 10
0.0
 20
0.0
 30
0.0
 70
   128
 71
    -1
 72
     3
 73
     2
  0
SEQEND
  5
EEA
  8
RÁM
  0
POLYLINE
  5
98D
  8
RÁM
 66
     1
 10
0.0
 20
0.0
 30
0.0
 70
    64
 71
     8
 72
     6
  0
VERTEX
  5
98E
  8
RÁM
 10
470.6024258398606
 20
0.0
 30
-10.04999975848672
 70
   192
  0
VERTEX
  5
98F
  8
RÁM
 10
470.6024258398606
 20
2000.0
 30
-10.04999975848672
 70
   192
  0
VERTEX
  5
990
  8
RÁM
 10
470.7488360013744
 20
2000.0
 30
-10.1964099200005
 70
   192
  0
VERTEX
  5
991
  8
RÁM
 10
470.7488360013744
 20
0.0
 30
-10.1964099200005
 70
   192
  0
VERTEX
  5
992
  8
RÁM
 10
470.5488360013744
 20
0.0
 30
-9.849999758486714
 70
   192
  0
VERTEX
  5
993
  8
RÁM
 10
470.5488360013744
 20
2000.0
 30
-9.849999758486714
 70
   192
  0
VERTEX
  5
994
  8
RÁM
 10
470.9488360013744
 20
2000.0
 30
-10.24999975848672
 70
   192
  0
VERTEX
  5
995
  8
RÁM
 10
470.9488360013744
 20
0.0
 30
-10.24999975848672
 70
   192
  0
VERTEX
  5
996
  8
RÁM
 10
0.0
 20
0.0
 30
0.0
 70
   128
 71
     1
 72
     2
 73
    -3
  0
VERTEX
  5
997
  8
RÁM
 10
0.0
 20
0.0
 30
0.0
 70
   128
 71
    -1
 72
     3
 73
     4
  0
VERTEX
  5
998
  8
RÁM
 10
0.0
 20
0.0
 30
0.0
 70
   128
 71
     5
 72
     6
 73
    -2
  0
VERTEX
  5
999
  8
RÁM
 10
0.0
 20
0.0
 30
0.0
 70
   128
 71
    -5
 72
     2
 73
     1
  0
VERTEX
  5
99A
  8
RÁM
 10
0.0
 20
0.0
 30
0.0
 70
   128
 71
     4
 72
     3
 73
    -7
  0
VERTEX
  5
99B
  8
RÁM
 10
0.0
 20
0.0
 30
0.0
 70
   128
 71
    -4
 72
     7
 73
     8
  0
SEQEND
  5
EEB
  8
RÁM
  0
POLYLINE
  5
99C
  8
RÁM
 66
     1
 10
0.0
 20
0.0
 30
0.0
 70
    64
 71
     8
 72
     6
  0
VERTEX
  5
99D
  8
RÁM
 10
470.5488360013744
 20
2000.0
 30
-9.849999758486714
 70
   192
  0
VERTEX
  5
99E
  8
RÁM
 10
470.5488360013744
 20
2000.0
 30
-2.399998906309585
 70
   192
  0
VERTEX
  5
99F
  8
RÁM
 10
470.5488360013744
 20
18.0
 30
-2.399998906309586
 70
   192
  0
VERTEX
  5
9A0
  8
RÁM
 10
470.5488360013744
 20
18.0
 30
2.399998906309585
 70
   192
  0
VERTEX
  5
9A1
  8
RÁM
 10
470.5488360013744
 20
2000.0
 30
2.399998906309586
 70
   192
  0
VERTEX
  5
9A2
  8
RÁM
 10
470.5488360013744
 20
2000.0
 30
9.249998972993849
 70
   192
  0
VERTEX
  5
9A3
  8
RÁM
 10
470.5488360013744
 20
0.0
 30
9.249998972993847
 70
   192
  0
VERTEX
  5
9A4
  8
RÁM
 10
470.5488360013744
 20
0.0
 30
-9.849999758486714
 70
   192
  0
VERTEX
  5
9A5
  8
RÁM
 10
0.0
 20
0.0
 30
0.0
 70
   128
 71
     3
 72
     2
 73
    -1
  0
VERTEX
  5
9A6
  8
RÁM
 10
0.0
 20
0.0
 30
0.0
 70
   128
 71
    -3
 72
     1
 73
    -8
  0
VERTEX
  5
9A7
  8
RÁM
 10
0.0
 20
0.0
 30
0.0
 70
   128
 71
     8
 72
    -7
 73
    -4
  0
VERTEX
  5
9A8
  8
RÁM
 10
0.0
 20
0.0
 30
0.0
 70
   128
 71
    -8
 72
     4
 73
    -3
  0
VERTEX
  5
9A9
  8
RÁM
 10
0.0
 20
0.0
 30
0.0
 70
   128
 71
     7
 72
     6
 73
    -5
  0
VERTEX
  5
9AA
  8
RÁM
 10
0.0
 20
0.0
 30
0.0
 70
   128
 71
    -7
 72
     5
 73
    -4
  0
SEQEND
  5
EEC
  8
RÁM
  0
POLYLINE
  5
9AB
  8
RÁM
 66
     1
 10
0.0
 20
0.0
 30
0.0
 70
    64
 71
     4
 72
     2
  0
VERTEX
  5
9AC
  8
RÁM
 10
470.5488360013744
 20
2000.0
 30
-2.399998906309585
 70
   192
  0
VERTEX
  5
9AD
  8
RÁM
 10
479.5511639986257
 20
2000.0
 30
-2.399998906309585
 70
   192
  0
VERTEX
  5
9AE
  8
RÁM
 10
479.5511639986256
 20
18.00000000000001
 30
-2.399998906309585
 70
   192
  0
VERTEX
  5
9AF
  8
RÁM
 10
470.5488360013744
 20
18.0
 30
-2.399998906309585
 70
   192
  0
VERTEX
  5
9B0
  8
RÁM
 10
0.0
 20
0.0
 30
0.0
 70
   128
 71
     1
 72
     4
 73
    -3
  0
VERTEX
  5
9B1
  8
RÁM
 10
0.0
 20
0.0
 30
0.0
 70
   128
 71
    -1
 72
     3
 73
     2
  0
SEQEND
  5
EED
  8
RÁM
  0
POLYLINE
  5
9B2
  8
RÁM
 66
     1
 10
0.0
 20
0.0
 30
0.0
 70
    64
 71
     4
 72
     2
  0
VERTEX
  5
9B3
  8
RÁM
 10
479.5511639986257
 20
2000.0
 30
-2.399998906309586
 70
   192
  0
VERTEX
  5
9B4
  8
RÁM
 10
479.5511639986257
 20
2000.0
 30
2.399998906309585
 70
   192
  0
VERTEX
  5
9B5
  8
RÁM
 10
479.5511639986257
 20
18.00000000000001
 30
2.399998906309586
 70
   192
  0
VERTEX
  5
9B6
  8
RÁM
 10
479.5511639986257
 20
18.0
 30
-2.399998906309585
 70
   192
  0
VERTEX
  5
9B7
  8
RÁM
 10
0.0
 20
0.0
 30
0.0
 70
   128
 71
     1
 72
     4
 73
    -3
  0
VERTEX
  5
9B8
  8
RÁM
 10
0.0
 20
0.0
 30
0.0
 70
   128
 71
    -1
 72
     3
 73
     2
  0
SEQEND
  5
EEE
  8
RÁM
  0
POLYLINE
  5
9B9
  8
RÁM
 66
     1
 10
0.0
 20
0.0
 30
0.0
 70
    64
 71
     4
 72
     2
  0
VERTEX
  5
9BA
  8
RÁM
 10
479.5511639986256
 20
2000.0
 30
2.399998906309585
 70
   192
  0
VERTEX
  5
9BB
  8
RÁM
 10
470.5488360013744
 20
2000.0
 30
2.399998906309585
 70
   192
  0
VERTEX
  5
9BC
  8
RÁM
 10
470.5488360013744
 20
18.00000000000001
 30
2.399998906309585
 70
   192
  0
VERTEX
  5
9BD
  8
RÁM
 10
479.5511639986257
 20
18.0
 30
2.399998906309585
 70
   192
  0
VERTEX
  5
9BE
  8
RÁM
 10
0.0
 20
0.0
 30
0.0
 70
   128
 71
     1
 72
     4
 73
    -3
  0
VERTEX
  5
9BF
  8
RÁM
 10
0.0
 20
0.0
 30
0.0
 70
   128
 71
    -1
 72
     3
 73
     2
  0
SEQEND
  5
EEF
  8
RÁM
  0
POLYLINE
  5
9C0
  8
RÁM
 66
     1
 10
0.0
 20
0.0
 30
0.0
 70
    64
 71
    25
 72
    23
  0
VERTEX
  5
9C1
  8
RÁM
 10
470.5488360013744
 20
2000.0
 30
2.399998906309586
 70
   192
  0
VERTEX
  5
9C2
  8
RÁM
 10
470.5488360013744
 20
2000.0
 30
9.249998972993847
 70
   192
  0
VERTEX
  5
9C3
  8
RÁM
 10
470.6158232993325
 20
2000.0
 30
9.499998972435266
 70
   192
  0
VERTEX
  5
9C4
  8
RÁM
 10
470.7988360008158
 20
2000.0
 30
9.683011673918577
 70
   192
  0
VERTEX
  5
9C5
  8
RÁM
 10
471.0488360002572
 20
2000.0
 30
9.749998971876686
 70
   192
  0
VERTEX
  5
9C6
  8
RÁM
 10
506.0055629987543
 20
2000.0
 30
9.749998971876684
 70
   192
  0
VERTEX
  5
9C7
  8
RÁM
 10
506.0055629987545
 20
2000.0
 30
11.74999969678637
 70
   192
  0
VERTEX
  5
9C8
  8
RÁM
 10
506.0323579179924
 20
2000.0
 30
11.84999969676724
 70
   192
  0
VERTEX
  5
9C9
  8
RÁM
 10
506.1055629987353
 20
2000.0
 30
11.92320477751012
 70
   192
  0
VERTEX
  5
9CA
  8
RÁM
 10
506.2055629987161
 20
2000.0
 30
11.9499996967481
 70
   192
  0
VERTEX
  5
9CB
  8
RÁM
 10
544.2055629987154
 20
2000.0
 30
11.94999969674815
 70
   192
  0
VERTEX
  5
9CC
  8
RÁM
 10
544.2055629987154
 20
2000.0
 30
-18.05000030155957
 70
   192
  0
VERTEX
  5
9CD
  8
RÁM
 10
515.0708289171731
 20
2000.0
 30
-18.05000030155957
 70
   192
  0
VERTEX
  5
9CE
  8
RÁM
 10
515.0288492224443
 20
2000.0
 30
-18.04587305197521
 70
   192
  0
VERTEX
  5
9CF
  8
RÁM
 10
514.9884770776991
 20
2000.0
 30
-18.03364935010763
 70
   192
  0
VERTEX
  5
9D0
  8
RÁM
 10
514.9512584741857
 20
2000.0
 30
-18.0137972844426
 70
   192
  0
VERTEX
  5
9D1
  8
RÁM
 10
506.0055629987543
 20
2000.0
 30
-12.05000030329006
 70
   192
  0
VERTEX
  5
9D2
  8
RÁM
 10
506.0055629987544
 20
2000.0
 30
-10.24999975848673
 70
   192
  0
VERTEX
  5
9D3
  8
RÁM
 10
470.9488360013744
 20
2000.0
 30
-10.24999975848672
 70
   192
  0
VERTEX
  5
9D4
  8
RÁM
 10
470.7488360013744
 20
2000.0
 30
-10.1964099200005
 70
   192
  0
VERTEX
  5
9D5
  8
RÁM
 10
470.6024258398606
 20
2000.0
 30
-10.04999975848672
 70
   192
  0
VERTEX
  5
9D6
  8
RÁM
 10
470.5488360013744
 20
2000.0
 30
-9.849999758486714
 70
   192
  0
VERTEX
  5
9D7
  8
RÁM
 10
470.5488360013744
 20
2000.0
 30
-2.399998906309586
 70
   192
  0
VERTEX
  5
9D8
  8
RÁM
 10
479.5511639986256
 20
2000.0
 30
-2.399998906309585
 70
   192
  0
VERTEX
  5
9D9
  8
RÁM
 10
479.5511639986257
 20
2000.0
 30
2.399998906309586
 70
   192
  0
VERTEX
  5
9DA
  8
RÁM
 10
0.0
 20
0.0
 30
0.0
 70
   128
 71
    22
 72
    23
 73
   -24
  0
VERTEX
  5
9DB
  8
RÁM
 10
0.0
 20
0.0
 30
0.0
 70
   128
 71
    21
 72
   -22
 73
   -24
  0
VERTEX
  5
9DC
  8
RÁM
 10
0.0
 20
0.0
 30
0.0
 70
   128
 71
    20
 72
   -21
 73
   -24
  0
VERTEX
  5
9DD
  8
RÁM
 10
0.0
 20
0.0
 30
0.0
 70
   128
 71
    19
 72
   -20
 73
   -24
  0
VERTEX
  5
9DE
  8
RÁM
 10
0.0
 20
0.0
 30
0.0
 70
   128
 71
   -18
 72
    12
 73
   -13
  0
VERTEX
  5
9DF
  8
RÁM
 10
0.0
 20
0.0
 30
0.0
 70
   128
 71
    15
 72
   -16
 73
   -18
  0
VERTEX
  5
9E0
  8
RÁM
 10
0.0
 20
0.0
 30
0.0
 70
   128
 71
    14
 72
   -15
 73
   -18
  0
VERTEX
  5
9E1
  8
RÁM
 10
0.0
 20
0.0
 30
0.0
 70
   128
 71
    13
 72
   -14
 73
   -18
  0
VERTEX
  5
9E2
  8
RÁM
 10
0.0
 20
0.0
 30
0.0
 70
   128
 71
    16
 72
    17
 73
   -18
  0
VERTEX
  5
9E3
  8
RÁM
 10
0.0
 20
0.0
 30
0.0
 70
   128
 71
    11
 72
   -12
 73
   -18
  0
VERTEX
  5
9E4
  8
RÁM
 10
0.0
 20
0.0
 30
0.0
 70
   128
 71
   -18
 72
   -24
 73
   -11
  0
VERTEX
  5
9E5
  8
RÁM
 10
0.0
 20
0.0
 30
0.0
 70
   128
 71
    18
 72
   -19
 73
   -24
  0
VERTEX
  5
9E6
  8
RÁM
 10
0.0
 20
0.0
 30
0.0
 70
   128
 71
    24
 72
   -25
 73
   -11
  0
VERTEX
  5
9E7
  8
RÁM
 10
0.0
 20
0.0
 30
0.0
 70
   128
 71
   -25
 72
     5
 73
    -6
  0
VERTEX
  5
9E8
  8
RÁM
 10
0.0
 20
0.0
 30
0.0
 70
   128
 71
   -11
 72
   -25
 73
    -6
  0
VERTEX
  5
9E9
  8
RÁM
 10
0.0
 20
0.0
 30
0.0
 70
   128
 71
    -6
 72
    10
 73
   -11
  0
VERTEX
  5
9EA
  8
RÁM
 10
0.0
 20
0.0
 30
0.0
 70
   128
 71
     8
 72
     9
 73
   -10
  0
VERTEX
  5
9EB
  8
RÁM
 10
0.0
 20
0.0
 30
0.0
 70
   128
 71
     7
 72
    -8
 73
   -10
  0
VERTEX
  5
9EC
  8
RÁM
 10
0.0
 20
0.0
 30
0.0
 70
   128
 71
     6
 72
    -7
 73
   -10
  0
VERTEX
  5
9ED
  8
RÁM
 10
0.0
 20
0.0
 30
0.0
 70
   128
 71
     3
 72
     4
 73
    -5
  0
VERTEX
  5
9EE
  8
RÁM
 10
0.0
 20
0.0
 30
0.0
 70
   128
 71
     2
 72
    -3
 73
    -5
  0
VERTEX
  5
9EF
  8
RÁM
 10
0.0
 20
0.0
 30
0.0
 70
   128
 71
     1
 72
    -2
 73
    -5
  0
VERTEX
  5
9F0
  8
RÁM
 10
0.0
 20
0.0
 30
0.0
 70
   128
 71
    25
 72
    -1
 73
    -5
  0
SEQEND
  5
EF0
  8
RÁM
  0
POLYLINE
  5
9F1
  8
RÁM
 66
     1
 10
0.0
 20
0.0
 30
0.0
 70
    64
 71
    21
 72
    19
  0
VERTEX
  5
9F2
  8
RÁM
 10
471.0488360002572
 20
0.0
 30
9.749998971876686
 70
   192
  0
VERTEX
  5
9F3
  8
RÁM
 10
506.0055629987545
 20
0.0
 30
9.749998971876682
 70
   192
  0
VERTEX
  5
9F4
  8
RÁM
 10
506.0055629987544
 20
0.0
 30
11.74999969678637
 70
   192
  0
VERTEX
  5
9F5
  8
RÁM
 10
506.0323579179924
 20
0.0
 30
11.84999969676724
 70
   192
  0
VERTEX
  5
9F6
  8
RÁM
 10
506.1055629987353
 20
0.0
 30
11.92320477751012
 70
   192
  0
VERTEX
  5
9F7
  8
RÁM
 10
506.2055629987161
 20
0.0
 30
11.94999969674816
 70
   192
  0
VERTEX
  5
9F8
  8
RÁM
 10
544.2055629987154
 20
0.0
 30
11.94999969674815
 70
   192
  0
VERTEX
  5
9F9
  8
RÁM
 10
544.2055629987154
 20
0.0
 30
-18.05000030155957
 70
   192
  0
VERTEX
  5
9FA
  8
RÁM
 10
515.0708289171732
 20
0.0
 30
-18.05000030155954
 70
   192
  0
VERTEX
  5
9FB
  8
RÁM
 10
515.0288492224443
 20
0.0
 30
-18.04587305197521
 70
   192
  0
VERTEX
  5
9FC
  8
RÁM
 10
514.9884770776991
 20
0.0
 30
-18.03364935010763
 70
   192
  0
VERTEX
  5
9FD
  8
RÁM
 10
514.9512584741857
 20
0.0
 30
-18.01379728444257
 70
   192
  0
VERTEX
  5
9FE
  8
RÁM
 10
506.0055629987544
 20
0.0
 30
-12.05000030329007
 70
   192
  0
VERTEX
  5
9FF
  8
RÁM
 10
506.0055629987543
 20
0.0
 30
-10.24999975848673
 70
   192
  0
VERTEX
  5
A00
  8
RÁM
 10
470.9488360013744
 20
0.0
 30
-10.24999975848672
 70
   192
  0
VERTEX
  5
A01
  8
RÁM
 10
470.7488360013744
 20
0.0
 30
-10.1964099200005
 70
   192
  0
VERTEX
  5
A02
  8
RÁM
 10
470.6024258398606
 20
0.0
 30
-10.04999975848672
 70
   192
  0
VERTEX
  5
A03
  8
RÁM
 10
470.5488360013744
 20
0.0
 30
-9.849999758486714
 70
   192
  0
VERTEX
  5
A04
  8
RÁM
 10
470.5488360013744
 20
0.0
 30
9.249998972993849
 70
   192
  0
VERTEX
  5
A05
  8
RÁM
 10
470.6158232993325
 20
0.0
 30
9.499998972435266
 70
   192
  0
VERTEX
  5
A06
  8
RÁM
 10
470.7988360008158
 20
0.0
 30
9.683011673918577
 70
   192
  0
VERTEX
  5
A07
  8
RÁM
 10
0.0
 20
0.0
 30
0.0
 70
   128
 71
     9
 72
    -8
 73
   -14
  0
VERTEX
  5
A08
  8
RÁM
 10
0.0
 20
0.0
 30
0.0
 70
   128
 71
   -14
 72
    12
 73
   -11
  0
VERTEX
  5
A09
  8
RÁM
 10
0.0
 20
0.0
 30
0.0
 70
   128
 71
   -14
 72
    11
 73
   -10
  0
VERTEX
  5
A0A
  8
RÁM
 10
0.0
 20
0.0
 30
0.0
 70
   128
 71
   -14
 72
    10
 73
    -9
  0
VERTEX
  5
A0B
  8
RÁM
 10
0.0
 20
0.0
 30
0.0
 70
   128
 71
    14
 72
    13
 73
   -12
  0
VERTEX
  5
A0C
  8
RÁM
 10
0.0
 20
0.0
 30
0.0
 70
   128
 71
     2
 72
     1
 73
   -21
  0
VERTEX
  5
A0D
  8
RÁM
 10
0.0
 20
0.0
 30
0.0
 70
   128
 71
    -2
 72
    21
 73
   -20
  0
VERTEX
  5
A0E
  8
RÁM
 10
0.0
 20
0.0
 30
0.0
 70
   128
 71
    -2
 72
    20
 73
   -19
  0
VERTEX
  5
A0F
  8
RÁM
 10
0.0
 20
0.0
 30
0.0
 70
   128
 71
    -2
 72
    19
 73
   -18
  0
VERTEX
  5
A10
  8
RÁM
 10
0.0
 20
0.0
 30
0.0
 70
   128
 71
    -2
 72
    18
 73
   -17
  0
VERTEX
  5
A11
  8
RÁM
 10
0.0
 20
0.0
 30
0.0
 70
   128
 71
    -2
 72
    17
 73
   -16
  0
VERTEX
  5
A12
  8
RÁM
 10
0.0
 20
0.0
 30
0.0
 70
   128
 71
    -2
 72
    16
 73
   -15
  0
VERTEX
  5
A13
  8
RÁM
 10
0.0
 20
0.0
 30
0.0
 70
   128
 71
    -2
 72
    15
 73
   -14
  0
VERTEX
  5
A14
  8
RÁM
 10
0.0
 20
0.0
 30
0.0
 70
   128
 71
   -14
 72
     8
 73
    -7
  0
VERTEX
  5
A15
  8
RÁM
 10
0.0
 20
0.0
 30
0.0
 70
   128
 71
   -14
 72
    -7
 73
    -2
  0
VERTEX
  5
A16
  8
RÁM
 10
0.0
 20
0.0
 30
0.0
 70
   128
 71
     7
 72
     6
 73
    -5
  0
VERTEX
  5
A17
  8
RÁM
 10
0.0
 20
0.0
 30
0.0
 70
   128
 71
    -7
 72
     5
 73
    -4
  0
VERTEX
  5
A18
  8
RÁM
 10
0.0
 20
0.0
 30
0.0
 70
   128
 71
    -7
 72
     4
 73
    -3
  0
VERTEX
  5
A19
  8
RÁM
 10
0.0
 20
0.0
 30
0.0
 70
   128
 71
    -7
 72
     3
 73
    -2
  0
SEQEND
  5
EF1
  8
RÁM
  0
POLYLINE
  5
A1A
  8
RÁM
 66
     1
 10
0.0
 20
0.0
 30
0.0
 70
    64
 71
     4
 72
     2
  0
VERTEX
  5
A1B
  8
RÁM
 10
479.5511639986256
 20
18.00000000000001
 30
-2.399998906309585
 70
   192
  0
VERTEX
  5
A1C
  8
RÁM
 10
470.5488360013744
 20
18.00000000000001
 30
-2.399998906309585
 70
   192
  0
VERTEX
  5
A1D
  8
RÁM
 10
470.5488360013744
 20
18.0
 30
2.399998906309586
 70
   192
  0
VERTEX
  5
A1E
  8
RÁM
 10
479.5511639986256
 20
18.00000000000001
 30
2.399998906309585
 70
   192
  0
VERTEX
  5
A1F
  8
RÁM
 10
0.0
 20
0.0
 30
0.0
 70
   128
 71
     3
 72
     4
 73
    -1
  0
VERTEX
  5
A20
  8
RÁM
 10
0.0
 20
0.0
 30
0.0
 70
   128
 71
     2
 72
    -3
 73
     1
  0
SEQEND
  5
EF2
  8
RÁM
  0
ENDBLK
  5
EDF
  8
0
  0
BLOCK
  8
0
  2
*X3
 70
     1
 10
0.0
 20
0.0
 30
0.0
  3
*X3
  1

  0
POLYLINE
  5
A22
  8
SKLO
 66
     1
 10
0.0
 20
0.0
 30
0.0
 70
    64
 71
     4
 72
     2
  0
VERTEX
  5
A23
  8
SKLO
 10
-474.83
 20
17.99999999999989
 30
3.0
 70
   192
  0
VERTEX
  5
A24
  8
SKLO
 10
-474.83
 20
2000.0
 30
3.0
 70
   192
  0
VERTEX
  5
A25
  8
SKLO
 10
-474.83
 20
2000.0
 30
-3.0
 70
   192
  0
VERTEX
  5
A26
  8
SKLO
 10
-474.83
 20
17.99999999999989
 30
-3.0
 70
   192
  0
VERTEX
  5
A27
  8
SKLO
 10
0.0
 20
0.0
 30
0.0
 70
   128
 71
     3
 72
     4
 73
    -1
  0
VERTEX
  5
A28
  8
SKLO
 10
0.0
 20
0.0
 30
0.0
 70
   128
 71
     2
 72
    -3
 73
     1
  0
SEQEND
  5
EF5
  8
SKLO
  0
POLYLINE
  5
A29
  8
SKLO
 66
     1
 10
0.0
 20
0.0
 30
0.0
 70
    64
 71
     4
 72
     2
  0
VERTEX
  5
A2A
  8
SKLO
 10
-474.83
 20
2000.0
 30
3.0
 70
   192
  0
VERTEX
  5
A2B
  8
SKLO
 10
-9.830000000000041
 20
2000.0
 30
3.0
 70
   192
  0
VERTEX
  5
A2C
  8
SKLO
 10
-9.83000000000002
 20
2000.0
 30
-3.0
 70
   192
  0
VERTEX
  5
A2D
  8
SKLO
 10
-474.83
 20
2000.0
 30
-3.0
 70
   192
  0
VERTEX
  5
A2E
  8
SKLO
 10
0.0
 20
0.0
 30
0.0
 70
   128
 71
     3
 72
     4
 73
    -1
  0
VERTEX
  5
A2F
  8
SKLO
 10
0.0
 20
0.0
 30
0.0
 70
   128
 71
     2
 72
    -3
 73
     1
  0
SEQEND
  5
EF6
  8
SKLO
  0
POLYLINE
  5
A30
  8
SKLO
 66
     1
 10
0.0
 20
0.0
 30
0.0
 70
    64
 71
     4
 72
     2
  0
VERTEX
  5
A31
  8
SKLO
 10
-9.83000000000002
 20
2000.0
 30
3.0
 70
   192
  0
VERTEX
  5
A32
  8
SKLO
 10
-9.83000000000002
 20
18.0
 30
3.0
 70
   192
  0
VERTEX
  5
A33
  8
SKLO
 10
-9.83000000000002
 20
17.99999999999989
 30
-3.0
 70
   192
  0
VERTEX
  5
A34
  8
SKLO
 10
-9.83000000000002
 20
2000.0
 30
-3.0
 70
   192
  0
VERTEX
  5
A35
  8
SKLO
 10
0.0
 20
0.0
 30
0.0
 70
   128
 71
     3
 72
     4
 73
    -1
  0
VERTEX
  5
A36
  8
SKLO
 10
0.0
 20
0.0
 30
0.0
 70
   128
 71
     2
 72
    -3
 73
     1
  0
SEQEND
  5
EF7
  8
SKLO
  0
POLYLINE
  5
A37
  8
SKLO
 66
     1
 10
0.0
 20
0.0
 30
0.0
 70
    64
 71
     4
 72
     2
  0
VERTEX
  5
A38
  8
SKLO
 10
-9.83000000000002
 20
17.99999999999989
 30
3.0
 70
   192
  0
VERTEX
  5
A39
  8
SKLO
 10
-474.83
 20
17.99999999999989
 30
3.0
 70
   192
  0
VERTEX
  5
A3A
  8
SKLO
 10
-474.83
 20
17.99999999999989
 30
-3.0
 70
   192
  0
VERTEX
  5
A3B
  8
SKLO
 10
-9.83000000000002
 20
17.99999999999989
 30
-3.0
 70
   192
  0
VERTEX
  5
A3C
  8
SKLO
 10
0.0
 20
0.0
 30
0.0
 70
   128
 71
     3
 72
     4
 73
    -1
  0
VERTEX
  5
A3D
  8
SKLO
 10
0.0
 20
0.0
 30
0.0
 70
   128
 71
     2
 72
    -3
 73
     1
  0
SEQEND
  5
EF8
  8
SKLO
  0
POLYLINE
  5
A3E
  8
SKLO
 66
     1
 10
0.0
 20
0.0
 30
0.0
 70
    64
 71
     4
 72
     2
  0
VERTEX
  5
A3F
  8
SKLO
 10
-474.83
 20
17.99999999999989
 30
-3.0
 70
   192
  0
VERTEX
  5
A40
  8
SKLO
 10
-474.83
 20
2000.0
 30
-3.0
 70
   192
  0
VERTEX
  5
A41
  8
SKLO
 10
-9.830000000000041
 20
2000.0
 30
-3.0
 70
   192
  0
VERTEX
  5
A42
  8
SKLO
 10
-9.83000000000002
 20
18.0
 30
-3.0
 70
   192
  0
VERTEX
  5
A43
  8
SKLO
 10
0.0
 20
0.0
 30
0.0
 70
   128
 71
     3
 72
     4
 73
    -1
  0
VERTEX
  5
A44
  8
SKLO
 10
0.0
 20
0.0
 30
0.0
 70
   128
 71
     2
 72
    -3
 73
     1
  0
SEQEND
  5
EF9
  8
SKLO
  0
POLYLINE
  5
A45
  8
SKLO
 66
     1
 10
0.0
 20
0.0
 30
0.0
 70
    64
 71
     4
 72
     2
  0
VERTEX
  5
A46
  8
SKLO
 10
-474.83
 20
2000.0
 30
3.0
 70
   192
  0
VERTEX
  5
A47
  8
SKLO
 10
-9.83000000000002
 20
2000.0
 30
3.0
 70
   192
  0
VERTEX
  5
A48
  8
SKLO
 10
-9.83000000000002
 20
17.99999999999989
 30
3.0
 70
   192
  0
VERTEX
  5
A49
  8
SKLO
 10
-474.83
 20
17.99999999999989
 30
3.0
 70
   192
  0
VERTEX
  5
A4A
  8
SKLO
 10
0.0
 20
0.0
 30
0.0
 70
   128
 71
     1
 72
     4
 73
    -3
  0
VERTEX
  5
A4B
  8
SKLO
 10
0.0
 20
0.0
 30
0.0
 70
   128
 71
    -1
 72
     3
 73
     2
  0
SEQEND
  5
EFA
  8
SKLO
  0
ENDBLK
  5
EF4
  8
0
  0
BLOCK
  8
0
  2
*X4
 70
     1
 10
0.0
 20
0.0
 30
0.0
  3
*X4
  1

  0
POLYLINE
  5
A4D
  8
SKLO
 66
     1
 10
0.0
 20
0.0
 30
0.0
 70
    64
 71
     4
 72
     2
  0
VERTEX
  5
A4E
  8
SKLO
 10
9.82999999999998
 20
17.99999999999989
 30
3.0
 70
   192
  0
VERTEX
  5
A4F
  8
SKLO
 10
9.82999999999998
 20
2000.0
 30
3.0
 70
   192
  0
VERTEX
  5
A50
  8
SKLO
 10
9.82999999999998
 20
2000.0
 30
-3.0
 70
   192
  0
VERTEX
  5
A51
  8
SKLO
 10
9.82999999999998
 20
17.99999999999989
 30
-3.0
 70
   192
  0
VERTEX
  5
A52
  8
SKLO
 10
0.0
 20
0.0
 30
0.0
 70
   128
 71
     3
 72
     4
 73
    -1
  0
VERTEX
  5
A53
  8
SKLO
 10
0.0
 20
0.0
 30
0.0
 70
   128
 71
     2
 72
    -3
 73
     1
  0
SEQEND
  5
EFD
  8
SKLO
  0
POLYLINE
  5
A54
  8
SKLO
 66
     1
 10
0.0
 20
0.0
 30
0.0
 70
    64
 71
     4
 72
     2
  0
VERTEX
  5
A55
  8
SKLO
 10
9.82999999999998
 20
2000.0
 30
3.0
 70
   192
  0
VERTEX
  5
A56
  8
SKLO
 10
474.83
 20
2000.0
 30
3.0
 70
   192
  0
VERTEX
  5
A57
  8
SKLO
 10
474.83
 20
2000.0
 30
-3.0
 70
   192
  0
VERTEX
  5
A58
  8
SKLO
 10
9.82999999999998
 20
2000.0
 30
-3.0
 70
   192
  0
VERTEX
  5
A59
  8
SKLO
 10
0.0
 20
0.0
 30
0.0
 70
   128
 71
     3
 72
     4
 73
    -1
  0
VERTEX
  5
A5A
  8
SKLO
 10
0.0
 20
0.0
 30
0.0
 70
   128
 71
     2
 72
    -3
 73
     1
  0
SEQEND
  5
EFE
  8
SKLO
  0
POLYLINE
  5
A5B
  8
SKLO
 66
     1
 10
0.0
 20
0.0
 30
0.0
 70
    64
 71
     4
 72
     2
  0
VERTEX
  5
A5C
  8
SKLO
 10
474.83
 20
2000.0
 30
3.0
 70
   192
  0
VERTEX
  5
A5D
  8
SKLO
 10
474.83
 20
17.99999999999989
 30
3.0
 70
   192
  0
VERTEX
  5
A5E
  8
SKLO
 10
474.83
 20
17.99999999999989
 30
-3.0
 70
   192
  0
VERTEX
  5
A5F
  8
SKLO
 10
474.83
 20
2000.0
 30
-3.0
 70
   192
  0
VERTEX
  5
A60
  8
SKLO
 10
0.0
 20
0.0
 30
0.0
 70
   128
 71
     3
 72
     4
 73
    -1
  0
VERTEX
  5
A61
  8
SKLO
 10
0.0
 20
0.0
 30
0.0
 70
   128
 71
     2
 72
    -3
 73
     1
  0
SEQEND
  5
EFF
  8
SKLO
  0
POLYLINE
  5
A62
  8
SKLO
 66
     1
 10
0.0
 20
0.0
 30
0.0
 70
    64
 71
     4
 72
     2
  0
VERTEX
  5
A63
  8
SKLO
 10
474.83
 20
17.99999999999989
 30
3.0
 70
   192
  0
VERTEX
  5
A64
  8
SKLO
 10
9.82999999999998
 20
17.99999999999989
 30
3.0
 70
   192
  0
VERTEX
  5
A65
  8
SKLO
 10
9.82999999999998
 20
17.99999999999989
 30
-3.0
 70
   192
  0
VERTEX
  5
A66
  8
SKLO
 10
474.83
 20
17.99999999999989
 30
-3.0
 70
   192
  0
VERTEX
  5
A67
  8
SKLO
 10
0.0
 20
0.0
 30
0.0
 70
   128
 71
     3
 72
     4
 73
    -1
  0
VERTEX
  5
A68
  8
SKLO
 10
0.0
 20
0.0
 30
0.0
 70
   128
 71
     2
 72
    -3
 73
     1
  0
SEQEND
  5
F00
  8
SKLO
  0
POLYLINE
  5
A69
  8
SKLO
 66
     1
 10
0.0
 20
0.0
 30
0.0
 70
    64
 71
     4
 72
     2
  0
VERTEX
  5
A6A
  8
SKLO
 10
9.82999999999998
 20
17.99999999999989
 30
-3.0
 70
   192
  0
VERTEX
  5
A6B
  8
SKLO
 10
9.82999999999998
 20
2000.0
 30
-3.0
 70
   192
  0
VERTEX
  5
A6C
  8
SKLO
 10
474.83
 20
2000.0
 30
-3.0
 70
   192
  0
VERTEX
  5
A6D
  8
SKLO
 10
474.83
 20
17.99999999999989
 30
-3.0
 70
   192
  0
VERTEX
  5
A6E
  8
SKLO
 10
0.0
 20
0.0
 30
0.0
 70
   128
 71
     3
 72
     4
 73
    -1
  0
VERTEX
  5
A6F
  8
SKLO
 10
0.0
 20
0.0
 30
0.0
 70
   128
 71
     2
 72
    -3
 73
     1
  0
SEQEND
  5
F01
  8
SKLO
  0
POLYLINE
  5
A70
  8
SKLO
 66
     1
 10
0.0
 20
0.0
 30
0.0
 70
    64
 71
     4
 72
     2
  0
VERTEX
  5
A71
  8
SKLO
 10
9.82999999999998
 20
2000.0
 30
3.0
 70
   192
  0
VERTEX
  5
A72
  8
SKLO
 10
474.83
 20
2000.0
 30
3.0
 70
   192
  0
VERTEX
  5
A73
  8
SKLO
 10
474.83
 20
17.99999999999989
 30
3.0
 70
   192
  0
VERTEX
  5
A74
  8
SKLO
 10
9.82999999999998
 20
17.99999999999989
 30
3.0
 70
   192
  0
VERTEX
  5
A75
  8
SKLO
 10
0.0
 20
0.0
 30
0.0
 70
   128
 71
     1
 72
     4
 73
    -3
  0
VERTEX
  5
A76
  8
SKLO
 10
0.0
 20
0.0
 30
0.0
 70
   128
 71
    -1
 72
     3
 73
     2
  0
SEQEND
  5
F02
  8
SKLO
  0
ENDBLK
  5
EFC
  8
0
  0
BLOCK
  8
0
  2
*X5
 70
     1
 10
0.0
 20
0.0
 30
0.0
  3
*X5
  1

  0
POLYLINE
  5
A78
  8
MADLA
 66
     1
 10
0.0
 20
0.0
 30
0.0
 70
    64
 71
    10
 72
     8
  0
VERTEX
  5
A79
  8
MADLA
 10
57.32999999999991
 20
1110.0
 30
-7.999999999998387
 70
   192
  0
VERTEX
  5
A7A
  8
MADLA
 10
62.32999999999991
 20
1110.0
 30
-7.999999999998387
 70
   192
  0
VERTEX
  5
A7B
  8
MADLA
 10
62.32999999999991
 20
1110.0
 30
-2.999999999998384
 70
   192
  0
VERTEX
  5
A7C
  8
MADLA
 10
57.32999999999991
 20
1110.0
 30
-2.999999999998384
 70
   192
  0
VERTEX
  5
A7D
  8
MADLA
 10
59.82999999999991
 20
1107.5
 30
-2.999999999998383
 70
   192
  0
VERTEX
  5
A7E
  8
MADLA
 10
59.82999999999991
 20
1107.5
 30
-7.999999999998387
 70
   192
  0
VERTEX
  5
A7F
  8
MADLA
 10
58.06223304703354
 20
1108.232233047034
 30
-2.999999999998383
 70
   192
  0
VERTEX
  5
A80
  8
MADLA
 10
58.06223304703354
 20
1108.232233047034
 30
-7.999999999998387
 70
   192
  0
VERTEX
  5
A81
  8
MADLA
 10
61.59776695296627
 20
1108.232233047034
 30
-2.999999999998383
 70
   192
  0
VERTEX
  5
A82
  8
MADLA
 10
61.59776695296627
 20
1108.232233047034
 30
-7.999999999998387
 70
   192
  0
VERTEX
  5
A83
  8
MADLA
 10
0.0
 20
0.0
 30
0.0
 70
   128
 71
     8
 72
     1
 73
    -4
  0
VERTEX
  5
A84
  8
MADLA
 10
0.0
 20
0.0
 30
0.0
 70
   128
 71
     7
 72
    -8
 73
     4
  0
VERTEX
  5
A85
  8
MADLA
 10
0.0
 20
0.0
 30
0.0
 70
   128
 71
     6
 72
     8
 73
    -7
  0
VERTEX
  5
A86
  8
MADLA
 10
0.0
 20
0.0
 30
0.0
 70
   128
 71
     5
 72
    -6
 73
     7
  0
VERTEX
  5
A87
  8
MADLA
 10
0.0
 20
0.0
 30
0.0
 70
   128
 71
    10
 72
     6
 73
    -5
  0
VERTEX
  5
A88
  8
MADLA
 10
0.0
 20
0.0
 30
0.0
 70
   128
 71
     9
 72
   -10
 73
     5
  0
VERTEX
  5
A89
  8
MADLA
 10
0.0
 20
0.0
 30
0.0
 70
   128
 71
     2
 72
    10
 73
    -9
  0
VERTEX
  5
A8A
  8
MADLA
 10
0.0
 20
0.0
 30
0.0
 70
   128
 71
     3
 72
    -2
 73
     9
  0
SEQEND
  5
F05
  8
MADLA
  0
POLYLINE
  5
A8B
  8
MADLA
 66
     1
 10
0.0
 20
0.0
 30
0.0
 70
    64
 71
    10
 72
     8
  0
VERTEX
  5
A8C
  8
MADLA
 10
57.32999999999999
 20
910.0
 30
-7.999999999998256
 70
   192
  0
VERTEX
  5
A8D
  8
MADLA
 10
62.32999999999999
 20
910.0
 30
-7.999999999998256
 70
   192
  0
VERTEX
  5
A8E
  8
MADLA
 10
62.33
 20
910.0
 30
-2.999999999998252
 70
   192
  0
VERTEX
  5
A8F
  8
MADLA
 10
57.32999999999999
 20
910.0
 30
-2.999999999998252
 70
   192
  0
VERTEX
  5
A90
  8
MADLA
 10
59.83
 20
907.5
 30
-2.999999999998252
 70
   192
  0
VERTEX
  5
A91
  8
MADLA
 10
59.82999999999999
 20
907.5
 30
-7.999999999998256
 70
   192
  0
VERTEX
  5
A92
  8
MADLA
 10
58.06223304703363
 20
908.2322330470337
 30
-2.999999999998252
 70
   192
  0
VERTEX
  5
A93
  8
MADLA
 10
58.06223304703362
 20
908.2322330470337
 30
-7.999999999998256
 70
   192
  0
VERTEX
  5
A94
  8
MADLA
 10
61.59776695296637
 20
908.2322330470337
 30
-2.999999999998252
 70
   192
  0
VERTEX
  5
A95
  8
MADLA
 10
61.59776695296636
 20
908.2322330470337
 30
-7.999999999998256
 70
   192
  0
VERTEX
  5
A96
  8
MADLA
 10
0.0
 20
0.0
 30
0.0
 70
   128
 71
     8
 72
     1
 73
    -4
  0
VERTEX
  5
A97
  8
MADLA
 10
0.0
 20
0.0
 30
0.0
 70
   128
 71
     7
 72
    -8
 73
     4
  0
VERTEX
  5
A98
  8
MADLA
 10
0.0
 20
0.0
 30
0.0
 70
   128
 71
     6
 72
     8
 73
    -7
  0
VERTEX
  5
A99
  8
MADLA
 10
0.0
 20
0.0
 30
0.0
 70
   128
 71
     5
 72
    -6
 73
     7
  0
VERTEX
  5
A9A
  8
MADLA
 10
0.0
 20
0.0
 30
0.0
 70
   128
 71
    10
 72
     6
 73
    -5
  0
VERTEX
  5
A9B
  8
MADLA
 10
0.0
 20
0.0
 30
0.0
 70
   128
 71
     9
 72
   -10
 73
     5
  0
VERTEX
  5
A9C
  8
MADLA
 10
0.0
 20
0.0
 30
0.0
 70
   128
 71
     2
 72
    10
 73
    -9
  0
VERTEX
  5
A9D
  8
MADLA
 10
0.0
 20
0.0
 30
0.0
 70
   128
 71
     3
 72
    -2
 73
     9
  0
SEQEND
  5
F06
  8
MADLA
  0
POLYLINE
  5
A9E
  8
MADLA
 66
     1
 10
0.0
 20
0.0
 30
0.0
 70
    64
 71
     4
 72
     2
  0
VERTEX
  5
A9F
  8
MADLA
 10
49.82999999999999
 20
920.0
 30
-20.99999999999826
 70
   192
  0
VERTEX
  5
AA0
  8
MADLA
 10
49.82999999999991
 20
1100.0
 30
-20.99999999999838
 70
   192
  0
VERTEX
  5
AA1
  8
MADLA
 10
69.82999999999991
 20
1100.0
 30
-20.99999999999839
 70
   192
  0
VERTEX
  5
AA2
  8
MADLA
 10
69.82999999999998
 20
920.0
 30
-20.99999999999826
 70
   192
  0
VERTEX
  5
AA3
  8
MADLA
 10
0.0
 20
0.0
 30
0.0
 70
   128
 71
     1
 72
     4
 73
    -3
  0
VERTEX
  5
AA4
  8
MADLA
 10
0.0
 20
0.0
 30
0.0
 70
   128
 71
    -1
 72
     3
 73
     2
  0
SEQEND
  5
F07
  8
MADLA
  0
POLYLINE
  5
AA5
  8
MADLA
 66
     1
 10
0.0
 20
0.0
 30
0.0
 70
    64
 71
     8
 72
     6
  0
VERTEX
  5
AA6
  8
MADLA
 10
69.83
 20
900.0
 30
-30.99999999999825
 70
   192
  0
VERTEX
  5
AA7
  8
MADLA
 10
69.8299999999999
 20
1120.0
 30
-30.9999999999984
 70
   192
  0
VERTEX
  5
AA8
  8
MADLA
 10
69.8299999999999
 20
1120.0
 30
-2.999999999998391
 70
   192
  0
VERTEX
  5
AA9
  8
MADLA
 10
69.82999999999991
 20
1100.0
 30
-2.999999999998377
 70
   192
  0
VERTEX
  5
AAA
  8
MADLA
 10
69.82999999999991
 20
1100.0
 30
-20.99999999999838
 70
   192
  0
VERTEX
  5
AAB
  8
MADLA
 10
69.82999999999998
 20
920.0
 30
-20.99999999999827
 70
   192
  0
VERTEX
  5
AAC
  8
MADLA
 10
69.82999999999998
 20
920.0
 30
-2.999999999998259
 70
   192
  0
VERTEX
  5
AAD
  8
MADLA
 10
69.83
 20
900.0
 30
-2.999999999998245
 70
   192
  0
VERTEX
  5
AAE
  8
MADLA
 10
0.0
 20
0.0
 30
0.0
 70
   128
 71
     3
 72
     4
 73
    -5
  0
VERTEX
  5
AAF
  8
MADLA
 10
0.0
 20
0.0
 30
0.0
 70
   128
 71
     2
 72
    -3
 73
    -5
  0
VERTEX
  5
AB0
  8
MADLA
 10
0.0
 20
0.0
 30
0.0
 70
   128
 71
    -6
 72
     1
 73
    -2
  0
VERTEX
  5
AB1
  8
MADLA
 10
0.0
 20
0.0
 30
0.0
 70
   128
 71
     5
 72
    -6
 73
    -2
  0
VERTEX
  5
AB2
  8
MADLA
 10
0.0
 20
0.0
 30
0.0
 70
   128
 71
     7
 72
     8
 73
    -1
  0
VERTEX
  5
AB3
  8
MADLA
 10
0.0
 20
0.0
 30
0.0
 70
   128
 71
     6
 72
    -7
 73
    -1
  0
SEQEND
  5
F08
  8
MADLA
  0
POLYLINE
  5
AB4
  8
MADLA
 66
     1
 10
0.0
 20
0.0
 30
0.0
 70
    64
 71
     4
 72
     2
  0
VERTEX
  5
AB5
  8
MADLA
 10
69.8299999999999
 20
1120.0
 30
-30.99999999999839
 70
   192
  0
VERTEX
  5
AB6
  8
MADLA
 10
49.8299999999999
 20
1120.0
 30
-30.99999999999839
 70
   192
  0
VERTEX
  5
AB7
  8
MADLA
 10
49.8299999999999
 20
1120.0
 30
-2.999999999998391
 70
   192
  0
VERTEX
  5
AB8
  8
MADLA
 10
69.8299999999999
 20
1120.0
 30
-2.999999999998392
 70
   192
  0
VERTEX
  5
AB9
  8
MADLA
 10
0.0
 20
0.0
 30
0.0
 70
   128
 71
     3
 72
     4
 73
    -1
  0
VERTEX
  5
ABA
  8
MADLA
 10
0.0
 20
0.0
 30
0.0
 70
   128
 71
     2
 72
    -3
 73
     1
  0
SEQEND
  5
F09
  8
MADLA
  0
POLYLINE
  5
ABB
  8
MADLA
 66
     1
 10
0.0
 20
0.0
 30
0.0
 70
    64
 71
     8
 72
     6
  0
VERTEX
  5
ABC
  8
MADLA
 10
49.8299999999999
 20
1120.0
 30
-30.99999999999839
 70
   192
  0
VERTEX
  5
ABD
  8
MADLA
 10
49.83
 20
900.0
 30
-30.99999999999825
 70
   192
  0
VERTEX
  5
ABE
  8
MADLA
 10
49.83
 20
900.0
 30
-2.999999999998245
 70
   192
  0
VERTEX
  5
ABF
  8
MADLA
 10
49.82999999999999
 20
920.0
 30
-2.999999999998258
 70
   192
  0
VERTEX
  5
AC0
  8
MADLA
 10
49.82999999999999
 20
920.0
 30
-20.99999999999826
 70
   192
  0
VERTEX
  5
AC1
  8
MADLA
 10
49.82999999999991
 20
1100.0
 30
-20.99999999999838
 70
   192
  0
VERTEX
  5
AC2
  8
MADLA
 10
49.82999999999991
 20
1100.0
 30
-2.999999999998376
 70
   192
  0
VERTEX
  5
AC3
  8
MADLA
 10
49.8299999999999
 20
1120.0
 30
-2.999999999998391
 70
   192
  0
VERTEX
  5
AC4
  8
MADLA
 10
0.0
 20
0.0
 30
0.0
 70
   128
 71
     3
 72
     4
 73
    -5
  0
VERTEX
  5
AC5
  8
MADLA
 10
0.0
 20
0.0
 30
0.0
 70
   128
 71
     2
 72
    -3
 73
    -5
  0
VERTEX
  5
AC6
  8
MADLA
 10
0.0
 20
0.0
 30
0.0
 70
   128
 71
    -6
 72
     1
 73
    -2
  0
VERTEX
  5
AC7
  8
MADLA
 10
0.0
 20
0.0
 30
0.0
 70
   128
 71
     5
 72
    -6
 73
    -2
  0
VERTEX
  5
AC8
  8
MADLA
 10
0.0
 20
0.0
 30
0.0
 70
   128
 71
     7
 72
     8
 73
    -1
  0
VERTEX
  5
AC9
  8
MADLA
 10
0.0
 20
0.0
 30
0.0
 70
   128
 71
     6
 72
    -7
 73
    -1
  0
SEQEND
  5
F0A
  8
MADLA
  0
POLYLINE
  5
ACA
  8
MADLA
 66
     1
 10
0.0
 20
0.0
 30
0.0
 70
    64
 71
     4
 72
     2
  0
VERTEX
  5
ACB
  8
MADLA
 10
49.83
 20
900.0
 30
-30.99999999999825
 70
   192
  0
VERTEX
  5
ACC
  8
MADLA
 10
69.83
 20
900.0
 30
-30.99999999999825
 70
   192
  0
VERTEX
  5
ACD
  8
MADLA
 10
69.83
 20
900.0
 30
-2.999999999998245
 70
   192
  0
VERTEX
  5
ACE
  8
MADLA
 10
49.83
 20
900.0
 30
-2.999999999998245
 70
   192
  0
VERTEX
  5
ACF
  8
MADLA
 10
0.0
 20
0.0
 30
0.0
 70
   128
 71
     3
 72
     4
 73
    -1
  0
VERTEX
  5
AD0
  8
MADLA
 10
0.0
 20
0.0
 30
0.0
 70
   128
 71
     2
 72
    -3
 73
     1
  0
SEQEND
  5
F0B
  8
MADLA
  0
POLYLINE
  5
AD1
  8
MADLA
 66
     1
 10
0.0
 20
0.0
 30
0.0
 70
    64
 71
     4
 72
     2
  0
VERTEX
  5
AD2
  8
MADLA
 10
69.8299999999999
 20
1120.0
 30
-30.9999999999984
 70
   192
  0
VERTEX
  5
AD3
  8
MADLA
 10
69.83
 20
900.0
 30
-30.99999999999825
 70
   192
  0
VERTEX
  5
AD4
  8
MADLA
 10
49.83
 20
900.0
 30
-30.99999999999825
 70
   192
  0
VERTEX
  5
AD5
  8
MADLA
 10
49.8299999999999
 20
1120.0
 30
-30.99999999999839
 70
   192
  0
VERTEX
  5
AD6
  8
MADLA
 10
0.0
 20
0.0
 30
0.0
 70
   128
 71
     3
 72
     4
 73
    -1
  0
VERTEX
  5
AD7
  8
MADLA
 10
0.0
 20
0.0
 30
0.0
 70
   128
 71
     2
 72
    -3
 73
     1
  0
SEQEND
  5
F0C
  8
MADLA
  0
POLYLINE
  5
AD8
  8
MADLA
 66
     1
 10
0.0
 20
0.0
 30
0.0
 70
    64
 71
     4
 72
     2
  0
VERTEX
  5
AD9
  8
MADLA
 10
49.82999999999991
 20
1100.0
 30
-20.99999999999838
 70
   192
  0
VERTEX
  5
ADA
  8
MADLA
 10
49.82999999999991
 20
1100.0
 30
-2.999999999998376
 70
   192
  0
VERTEX
  5
ADB
  8
MADLA
 10
69.82999999999991
 20
1100.0
 30
-2.999999999998376
 70
   192
  0
VERTEX
  5
ADC
  8
MADLA
 10
69.82999999999991
 20
1100.0
 30
-20.99999999999838
 70
   192
  0
VERTEX
  5
ADD
  8
MADLA
 10
0.0
 20
0.0
 30
0.0
 70
   128
 71
     1
 72
     4
 73
    -3
  0
VERTEX
  5
ADE
  8
MADLA
 10
0.0
 20
0.0
 30
0.0
 70
   128
 71
    -1
 72
     3
 73
     2
  0
SEQEND
  5
F0D
  8
MADLA
  0
POLYLINE
  5
ADF
  8
MADLA
 66
     1
 10
0.0
 20
0.0
 30
0.0
 70
    64
 71
    13
 72
    13
  0
VERTEX
  5
AE0
  8
MADLA
 10
49.8299999999999
 20
1120.0
 30
-2.999999999998391
 70
   192
  0
VERTEX
  5
AE1
  8
MADLA
 10
49.82999999999991
 20
1100.0
 30
-2.999999999998377
 70
   192
  0
VERTEX
  5
AE2
  8
MADLA
 10
69.82999999999991
 20
1100.0
 30
-2.999999999998378
 70
   192
  0
VERTEX
  5
AE3
  8
MADLA
 10
69.8299999999999
 20
1120.0
 30
-2.999999999998391
 70
   192
  0
VERTEX
  5
AE4
  8
MADLA
 10
57.32999999999991
 20
1110.0
 30
-2.999999999998384
 70
   192
  0
VERTEX
  5
AE5
  8
MADLA
 10
57.80745751406253
 20
1111.469463130731
 30
-2.999999999998384
 70
   192
  0
VERTEX
  5
AE6
  8
MADLA
 10
59.05745751406254
 20
1112.377641290738
 30
-2.999999999998384
 70
   192
  0
VERTEX
  5
AE7
  8
MADLA
 10
60.60254248593728
 20
1112.377641290738
 30
-2.999999999998384
 70
   192
  0
VERTEX
  5
AE8
  8
MADLA
 10
61.85254248593728
 20
1111.469463130731
 30
-2.999999999998384
 70
   192
  0
VERTEX
  5
AE9
  8
MADLA
 10
62.32999999999991
 20
1110.0
 30
-2.999999999998384
 70
   192
  0
VERTEX
  5
AEA
  8
MADLA
 10
61.59776695296627
 20
1108.232233047034
 30
-2.999999999998383
 70
   192
  0
VERTEX
  5
AEB
  8
MADLA
 10
59.82999999999991
 20
1107.5
 30
-2.999999999998383
 70
   192
  0
VERTEX
  5
AEC
  8
MADLA
 10
58.06223304703354
 20
1108.232233047034
 30
-2.999999999998383
 70
   192
  0
VERTEX
  5
AED
  8
MADLA
 10
0.0
 20
0.0
 30
0.0
 70
   128
 71
    -1
 72
     5
 73
    -6
  0
VERTEX
  5
AEE
  8
MADLA
 10
0.0
 20
0.0
 30
0.0
 70
   128
 71
     6
 72
    -7
 73
    -1
  0
VERTEX
  5
AEF
  8
MADLA
 10
0.0
 20
0.0
 30
0.0
 70
   128
 71
    -8
 72
     4
 73
    -1
  0
VERTEX
  5
AF0
  8
MADLA
 10
0.0
 20
0.0
 30
0.0
 70
   128
 71
     7
 72
    -8
 73
    -1
  0
VERTEX
  5
AF1
  8
MADLA
 10
0.0
 20
0.0
 30
0.0
 70
   128
 71
     8
 72
    -9
 73
    -4
  0
VERTEX
  5
AF2
  8
MADLA
 10
0.0
 20
0.0
 30
0.0
 70
   128
 71
     9
 72
   -10
 73
    -4
  0
VERTEX
  5
AF3
  8
MADLA
 10
0.0
 20
0.0
 30
0.0
 70
   128
 71
   -11
 72
     3
 73
    -4
  0
VERTEX
  5
AF4
  8
MADLA
 10
0.0
 20
0.0
 30
0.0
 70
   128
 71
    10
 72
   -11
 73
    -4
  0
VERTEX
  5
AF5
  8
MADLA
 10
0.0
 20
0.0
 30
0.0
 70
   128
 71
    11
 72
   -12
 73
    -3
  0
VERTEX
  5
AF6
  8
MADLA
 10
0.0
 20
0.0
 30
0.0
 70
   128
 71
   -13
 72
     2
 73
    -3
  0
VERTEX
  5
AF7
  8
MADLA
 10
0.0
 20
0.0
 30
0.0
 70
   128
 71
    12
 72
   -13
 73
    -3
  0
VERTEX
  5
AF8
  8
MADLA
 10
0.0
 20
0.0
 30
0.0
 70
   128
 71
    -5
 72
     1
 73
    -2
  0
VERTEX
  5
AF9
  8
MADLA
 10
0.0
 20
0.0
 30
0.0
 70
   128
 71
    13
 72
    -5
 73
    -2
  0
SEQEND
  5
F0E
  8
MADLA
  0
POLYLINE
  5
AFA
  8
MADLA
 66
     1
 10
0.0
 20
0.0
 30
0.0
 70
    64
 71
     4
 72
     2
  0
VERTEX
  5
AFB
  8
MADLA
 10
69.82999999999998
 20
920.0
 30
-20.99999999999827
 70
   192
  0
VERTEX
  5
AFC
  8
MADLA
 10
69.82999999999998
 20
920.0
 30
-2.999999999998261
 70
   192
  0
VERTEX
  5
AFD
  8
MADLA
 10
49.82999999999999
 20
920.0
 30
-2.999999999998259
 70
   192
  0
VERTEX
  5
AFE
  8
MADLA
 10
49.82999999999998
 20
920.0
 30
-20.99999999999826
 70
   192
  0
VERTEX
  5
AFF
  8
MADLA
 10
0.0
 20
0.0
 30
0.0
 70
   128
 71
     1
 72
     4
 73
    -3
  0
VERTEX
  5
B00
  8
MADLA
 10
0.0
 20
0.0
 30
0.0
 70
   128
 71
    -1
 72
     3
 73
     2
  0
SEQEND
  5
F0F
  8
MADLA
  0
POLYLINE
  5
B01
  8
MADLA
 66
     1
 10
0.0
 20
0.0
 30
0.0
 70
    64
 71
    13
 72
    13
  0
VERTEX
  5
B02
  8
MADLA
 10
49.82999999999999
 20
920.0
 30
-2.999999999998259
 70
   192
  0
VERTEX
  5
B03
  8
MADLA
 10
69.82999999999998
 20
920.0
 30
-2.999999999998258
 70
   192
  0
VERTEX
  5
B04
  8
MADLA
 10
69.83
 20
900.0
 30
-2.999999999998246
 70
   192
  0
VERTEX
  5
B05
  8
MADLA
 10
49.83
 20
900.0
 30
-2.999999999998245
 70
   192
  0
VERTEX
  5
B06
  8
MADLA
 10
57.33
 20
910.0
 30
-2.999999999998252
 70
   192
  0
VERTEX
  5
B07
  8
MADLA
 10
58.06223304703363
 20
908.2322330470337
 30
-2.999999999998252
 70
   192
  0
VERTEX
  5
B08
  8
MADLA
 10
59.83
 20
907.5
 30
-2.999999999998252
 70
   192
  0
VERTEX
  5
B09
  8
MADLA
 10
61.59776695296637
 20
908.2322330470337
 30
-2.999999999998252
 70
   192
  0
VERTEX
  5
B0A
  8
MADLA
 10
62.33
 20
910.0
 30
-2.999999999998252
 70
   192
  0
VERTEX
  5
B0B
  8
MADLA
 10
61.85254248593737
 20
911.4694631307311
 30
-2.999999999998253
 70
   192
  0
VERTEX
  5
B0C
  8
MADLA
 10
60.60254248593737
 20
912.3776412907379
 30
-2.999999999998253
 70
   192
  0
VERTEX
  5
B0D
  8
MADLA
 10
59.05745751406263
 20
912.3776412907379
 30
-2.999999999998253
 70
   192
  0
VERTEX
  5
B0E
  8
MADLA
 10
57.80745751406263
 20
911.4694631307311
 30
-2.999999999998253
 70
   192
  0
VERTEX
  5
B0F
  8
MADLA
 10
0.0
 20
0.0
 30
0.0
 70
   128
 71
     6
 72
    -5
 73
    -4
  0
VERTEX
  5
B10
  8
MADLA
 10
0.0
 20
0.0
 30
0.0
 70
   128
 71
     4
 72
    -3
 73
    -7
  0
VERTEX
  5
B11
  8
MADLA
 10
0.0
 20
0.0
 30
0.0
 70
   128
 71
    -4
 72
     7
 73
    -6
  0
VERTEX
  5
B12
  8
MADLA
 10
0.0
 20
0.0
 30
0.0
 70
   128
 71
    -3
 72
     8
 73
    -7
  0
VERTEX
  5
B13
  8
MADLA
 10
0.0
 20
0.0
 30
0.0
 70
   128
 71
    -3
 72
     9
 73
    -8
  0
VERTEX
  5
B14
  8
MADLA
 10
0.0
 20
0.0
 30
0.0
 70
   128
 71
     3
 72
    -2
 73
   -10
  0
VERTEX
  5
B15
  8
MADLA
 10
0.0
 20
0.0
 30
0.0
 70
   128
 71
    -3
 72
    10
 73
    -9
  0
VERTEX
  5
B16
  8
MADLA
 10
0.0
 20
0.0
 30
0.0
 70
   128
 71
    -2
 72
    11
 73
   -10
  0
VERTEX
  5
B17
  8
MADLA
 10
0.0
 20
0.0
 30
0.0
 70
   128
 71
     2
 72
    -1
 73
   -12
  0
VERTEX
  5
B18
  8
MADLA
 10
0.0
 20
0.0
 30
0.0
 70
   128
 71
    -2
 72
    12
 73
   -11
  0
VERTEX
  5
B19
  8
MADLA
 10
0.0
 20
0.0
 30
0.0
 70
   128
 71
    -1
 72
    13
 73
   -12
  0
VERTEX
  5
B1A
  8
MADLA
 10
0.0
 20
0.0
 30
0.0
 70
   128
 71
     1
 72
    -4
 73
    -5
  0
VERTEX
  5
B1B
  8
MADLA
 10
0.0
 20
0.0
 30
0.0
 70
   128
 71
    -1
 72
     5
 73
   -13
  0
SEQEND
  5
F10
  8
MADLA
  0
POLYLINE
  5
B1C
  8
MADLA
 66
     1
 10
0.0
 20
0.0
 30
0.0
 70
    64
 71
    12
 72
    10
  0
VERTEX
  5
B1D
  8
MADLA
 10
62.32999999999999
 20
910.0
 30
-7.999999999998256
 70
   192
  0
VERTEX
  5
B1E
  8
MADLA
 10
62.33
 20
910.0
 30
-2.999999999998252
 70
   192
  0
VERTEX
  5
B1F
  8
MADLA
 10
61.85254248593737
 20
911.4694631307311
 30
-2.999999999998253
 70
   192
  0
VERTEX
  5
B20
  8
MADLA
 10
61.85254248593736
 20
911.4694631307311
 30
-7.999999999998256
 70
   192
  0
VERTEX
  5
B21
  8
MADLA
 10
57.32999999999999
 20
910.0
 30
-2.999999999998252
 70
   192
  0
VERTEX
  5
B22
  8
MADLA
 10
57.32999999999999
 20
910.0
 30
-7.999999999998256
 70
   192
  0
VERTEX
  5
B23
  8
MADLA
 10
57.80745751406262
 20
911.4694631307311
 30
-7.999999999998256
 70
   192
  0
VERTEX
  5
B24
  8
MADLA
 10
57.80745751406263
 20
911.4694631307311
 30
-2.999999999998253
 70
   192
  0
VERTEX
  5
B25
  8
MADLA
 10
59.05745751406263
 20
912.3776412907379
 30
-7.999999999998256
 70
   192
  0
VERTEX
  5
B26
  8
MADLA
 10
60.60254248593736
 20
912.3776412907379
 30
-7.999999999998256
 70
   192
  0
VERTEX
  5
B27
  8
MADLA
 10
60.60254248593737
 20
912.3776412907379
 30
-2.999999999998253
 70
   192
  0
VERTEX
  5
B28
  8
MADLA
 10
59.05745751406263
 20
912.3776412907379
 30
-2.999999999998253
 70
   192
  0
VERTEX
  5
B29
  8
MADLA
 10
0.0
 20
0.0
 30
0.0
 70
   128
 71
     1
 72
     2
 73
    -3
  0
VERTEX
  5
B2A
  8
MADLA
 10
0.0
 20
0.0
 30
0.0
 70
   128
 71
     4
 72
    -1
 73
     3
  0
VERTEX
  5
B2B
  8
MADLA
 10
0.0
 20
0.0
 30
0.0
 70
   128
 71
     5
 72
     6
 73
    -7
  0
VERTEX
  5
B2C
  8
MADLA
 10
0.0
 20
0.0
 30
0.0
 70
   128
 71
     8
 72
    -5
 73
     7
  0
VERTEX
  5
B2D
  8
MADLA
 10
0.0
 20
0.0
 30
0.0
 70
   128
 71
     9
 72
    10
 73
   -11
  0
VERTEX
  5
B2E
  8
MADLA
 10
0.0
 20
0.0
 30
0.0
 70
   128
 71
    12
 72
    -9
 73
    11
  0
VERTEX
  5
B2F
  8
MADLA
 10
0.0
 20
0.0
 30
0.0
 70
   128
 71
    10
 72
     4
 73
    -3
  0
VERTEX
  5
B30
  8
MADLA
 10
0.0
 20
0.0
 30
0.0
 70
   128
 71
    11
 72
   -10
 73
     3
  0
VERTEX
  5
B31
  8
MADLA
 10
0.0
 20
0.0
 30
0.0
 70
   128
 71
     7
 72
     9
 73
   -12
  0
VERTEX
  5
B32
  8
MADLA
 10
0.0
 20
0.0
 30
0.0
 70
   128
 71
     8
 72
    -7
 73
    12
  0
SEQEND
  5
F11
  8
MADLA
  0
POLYLINE
  5
B33
  8
MADLA
 66
     1
 10
0.0
 20
0.0
 30
0.0
 70
    64
 71
     9
 72
     7
  0
VERTEX
  5
B34
  8
MADLA
 10
62.32999999999999
 20
910.0
 30
-7.999999999998256
 70
   192
  0
VERTEX
  5
B35
  8
MADLA
 10
61.85254248593736
 20
911.4694631307311
 30
-7.999999999998256
 70
   192
  0
VERTEX
  5
B36
  8
MADLA
 10
60.60254248593736
 20
912.3776412907379
 30
-7.999999999998256
 70
   192
  0
VERTEX
  5
B37
  8
MADLA
 10
59.05745751406263
 20
912.3776412907379
 30
-7.999999999998256
 70
   192
  0
VERTEX
  5
B38
  8
MADLA
 10
57.80745751406262
 20
911.4694631307311
 30
-7.999999999998256
 70
   192
  0
VERTEX
  5
B39
  8
MADLA
 10
57.32999999999999
 20
910.0
 30
-7.999999999998256
 70
   192
  0
VERTEX
  5
B3A
  8
MADLA
 10
58.06223304703362
 20
908.2322330470337
 30
-7.999999999998256
 70
   192
  0
VERTEX
  5
B3B
  8
MADLA
 10
59.82999999999999
 20
907.5
 30
-7.999999999998256
 70
   192
  0
VERTEX
  5
B3C
  8
MADLA
 10
61.59776695296636
 20
908.2322330470337
 30
-7.999999999998256
 70
   192
  0
VERTEX
  5
B3D
  8
MADLA
 10
0.0
 20
0.0
 30
0.0
 70
   128
 71
     8
 72
     9
 73
    -1
  0
VERTEX
  5
B3E
  8
MADLA
 10
0.0
 20
0.0
 30
0.0
 70
   128
 71
     7
 72
    -8
 73
    -1
  0
VERTEX
  5
B3F
  8
MADLA
 10
0.0
 20
0.0
 30
0.0
 70
   128
 71
     6
 72
    -7
 73
    -1
  0
VERTEX
  5
B40
  8
MADLA
 10
0.0
 20
0.0
 30
0.0
 70
   128
 71
     5
 72
    -6
 73
    -1
  0
VERTEX
  5
B41
  8
MADLA
 10
0.0
 20
0.0
 30
0.0
 70
   128
 71
     4
 72
    -5
 73
    -1
  0
VERTEX
  5
B42
  8
MADLA
 10
0.0
 20
0.0
 30
0.0
 70
   128
 71
     3
 72
    -4
 73
    -1
  0
VERTEX
  5
B43
  8
MADLA
 10
0.0
 20
0.0
 30
0.0
 70
   128
 71
     2
 72
    -3
 73
     1
  0
SEQEND
  5
F12
  8
MADLA
  0
POLYLINE
  5
B44
  8
MADLA
 66
     1
 10
0.0
 20
0.0
 30
0.0
 70
    64
 71
    12
 72
    10
  0
VERTEX
  5
B45
  8
MADLA
 10
62.32999999999991
 20
1110.0
 30
-7.999999999998387
 70
   192
  0
VERTEX
  5
B46
  8
MADLA
 10
62.32999999999991
 20
1110.0
 30
-2.999999999998384
 70
   192
  0
VERTEX
  5
B47
  8
MADLA
 10
61.85254248593728
 20
1111.469463130731
 30
-2.999999999998384
 70
   192
  0
VERTEX
  5
B48
  8
MADLA
 10
61.85254248593728
 20
1111.469463130731
 30
-7.999999999998387
 70
   192
  0
VERTEX
  5
B49
  8
MADLA
 10
57.32999999999991
 20
1110.0
 30
-2.999999999998384
 70
   192
  0
VERTEX
  5
B4A
  8
MADLA
 10
57.32999999999991
 20
1110.0
 30
-7.999999999998387
 70
   192
  0
VERTEX
  5
B4B
  8
MADLA
 10
57.80745751406253
 20
1111.469463130731
 30
-7.999999999998387
 70
   192
  0
VERTEX
  5
B4C
  8
MADLA
 10
57.80745751406253
 20
1111.469463130731
 30
-2.999999999998384
 70
   192
  0
VERTEX
  5
B4D
  8
MADLA
 10
59.05745751406254
 20
1112.377641290738
 30
-7.999999999998387
 70
   192
  0
VERTEX
  5
B4E
  8
MADLA
 10
60.60254248593728
 20
1112.377641290738
 30
-7.999999999998387
 70
   192
  0
VERTEX
  5
B4F
  8
MADLA
 10
60.60254248593728
 20
1112.377641290738
 30
-2.999999999998384
 70
   192
  0
VERTEX
  5
B50
  8
MADLA
 10
59.05745751406254
 20
1112.377641290738
 30
-2.999999999998384
 70
   192
  0
VERTEX
  5
B51
  8
MADLA
 10
0.0
 20
0.0
 30
0.0
 70
   128
 71
     1
 72
     2
 73
    -3
  0
VERTEX
  5
B52
  8
MADLA
 10
0.0
 20
0.0
 30
0.0
 70
   128
 71
     4
 72
    -1
 73
     3
  0
VERTEX
  5
B53
  8
MADLA
 10
0.0
 20
0.0
 30
0.0
 70
   128
 71
     5
 72
     6
 73
    -7
  0
VERTEX
  5
B54
  8
MADLA
 10
0.0
 20
0.0
 30
0.0
 70
   128
 71
     8
 72
    -5
 73
     7
  0
VERTEX
  5
B55
  8
MADLA
 10
0.0
 20
0.0
 30
0.0
 70
   128
 71
     9
 72
    10
 73
   -11
  0
VERTEX
  5
B56
  8
MADLA
 10
0.0
 20
0.0
 30
0.0
 70
   128
 71
    12
 72
    -9
 73
    11
  0
VERTEX
  5
B57
  8
MADLA
 10
0.0
 20
0.0
 30
0.0
 70
   128
 71
    10
 72
     4
 73
    -3
  0
VERTEX
  5
B58
  8
MADLA
 10
0.0
 20
0.0
 30
0.0
 70
   128
 71
    11
 72
   -10
 73
     3
  0
VERTEX
  5
B59
  8
MADLA
 10
0.0
 20
0.0
 30
0.0
 70
   128
 71
     7
 72
     9
 73
   -12
  0
VERTEX
  5
B5A
  8
MADLA
 10
0.0
 20
0.0
 30
0.0
 70
   128
 71
     8
 72
    -7
 73
    12
  0
SEQEND
  5
F13
  8
MADLA
  0
POLYLINE
  5
B5B
  8
MADLA
 66
     1
 10
0.0
 20
0.0
 30
0.0
 70
    64
 71
     9
 72
     7
  0
VERTEX
  5
B5C
  8
MADLA
 10
62.32999999999991
 20
1110.0
 30
-7.999999999998387
 70
   192
  0
VERTEX
  5
B5D
  8
MADLA
 10
61.85254248593728
 20
1111.469463130731
 30
-7.999999999998387
 70
   192
  0
VERTEX
  5
B5E
  8
MADLA
 10
60.60254248593728
 20
1112.377641290738
 30
-7.999999999998387
 70
   192
  0
VERTEX
  5
B5F
  8
MADLA
 10
59.05745751406254
 20
1112.377641290738
 30
-7.999999999998387
 70
   192
  0
VERTEX
  5
B60
  8
MADLA
 10
57.80745751406253
 20
1111.469463130731
 30
-7.999999999998387
 70
   192
  0
VERTEX
  5
B61
  8
MADLA
 10
57.32999999999991
 20
1110.0
 30
-7.999999999998387
 70
   192
  0
VERTEX
  5
B62
  8
MADLA
 10
58.06223304703354
 20
1108.232233047034
 30
-7.999999999998387
 70
   192
  0
VERTEX
  5
B63
  8
MADLA
 10
59.82999999999991
 20
1107.5
 30
-7.999999999998387
 70
   192
  0
VERTEX
  5
B64
  8
MADLA
 10
61.59776695296627
 20
1108.232233047034
 30
-7.999999999998387
 70
   192
  0
VERTEX
  5
B65
  8
MADLA
 10
0.0
 20
0.0
 30
0.0
 70
   128
 71
     8
 72
     9
 73
    -1
  0
VERTEX
  5
B66
  8
MADLA
 10
0.0
 20
0.0
 30
0.0
 70
   128
 71
     7
 72
    -8
 73
    -1
  0
VERTEX
  5
B67
  8
MADLA
 10
0.0
 20
0.0
 30
0.0
 70
   128
 71
     6
 72
    -7
 73
    -1
  0
VERTEX
  5
B68
  8
MADLA
 10
0.0
 20
0.0
 30
0.0
 70
   128
 71
     5
 72
    -6
 73
    -1
  0
VERTEX
  5
B69
  8
MADLA
 10
0.0
 20
0.0
 30
0.0
 70
   128
 71
     4
 72
    -5
 73
    -1
  0
VERTEX
  5
B6A
  8
MADLA
 10
0.0
 20
0.0
 30
0.0
 70
   128
 71
     3
 72
    -4
 73
    -1
  0
VERTEX
  5
B6B
  8
MADLA
 10
0.0
 20
0.0
 30
0.0
 70
   128
 71
     2
 72
    -3
 73
     1
  0
SEQEND
  5
F14
  8
MADLA
  0
ENDBLK
  5
F04
  8
0
  0
BLOCK
  8
0
  2
*X6
 70
     1
 10
0.0
 20
0.0
 30
0.0
  3
*X6
  1

  0
POLYLINE
  5
B6D
  8
MADLA
 66
     1
 10
0.0
 20
0.0
 30
0.0
 70
    64
 71
    10
 72
     8
  0
VERTEX
  5
B6E
  8
MADLA
 10
62.32999999999999
 20
1110.0
 30
8.0
 70
   192
  0
VERTEX
  5
B6F
  8
MADLA
 10
57.32999999999999
 20
1110.0
 30
8.0
 70
   192
  0
VERTEX
  5
B70
  8
MADLA
 10
57.32999999999999
 20
1110.0
 30
3.0
 70
   192
  0
VERTEX
  5
B71
  8
MADLA
 10
62.32999999999999
 20
1110.0
 30
3.0
 70
   192
  0
VERTEX
  5
B72
  8
MADLA
 10
59.82999999999999
 20
1107.5
 30
3.0
 70
   192
  0
VERTEX
  5
B73
  8
MADLA
 10
59.82999999999999
 20
1107.5
 30
8.0
 70
   192
  0
VERTEX
  5
B74
  8
MADLA
 10
61.59776695296636
 20
1108.232233047034
 30
3.0
 70
   192
  0
VERTEX
  5
B75
  8
MADLA
 10
61.59776695296636
 20
1108.232233047034
 30
8.0
 70
   192
  0
VERTEX
  5
B76
  8
MADLA
 10
58.06223304703362
 20
1108.232233047034
 30
3.0
 70
   192
  0
VERTEX
  5
B77
  8
MADLA
 10
58.06223304703362
 20
1108.232233047034
 30
8.0
 70
   192
  0
VERTEX
  5
B78
  8
MADLA
 10
0.0
 20
0.0
 30
0.0
 70
   128
 71
     8
 72
     1
 73
    -4
  0
VERTEX
  5
B79
  8
MADLA
 10
0.0
 20
0.0
 30
0.0
 70
   128
 71
     7
 72
    -8
 73
     4
  0
VERTEX
  5
B7A
  8
MADLA
 10
0.0
 20
0.0
 30
0.0
 70
   128
 71
     6
 72
     8
 73
    -7
  0
VERTEX
  5
B7B
  8
MADLA
 10
0.0
 20
0.0
 30
0.0
 70
   128
 71
     5
 72
    -6
 73
     7
  0
VERTEX
  5
B7C
  8
MADLA
 10
0.0
 20
0.0
 30
0.0
 70
   128
 71
    10
 72
     6
 73
    -5
  0
VERTEX
  5
B7D
  8
MADLA
 10
0.0
 20
0.0
 30
0.0
 70
   128
 71
     9
 72
   -10
 73
     5
  0
VERTEX
  5
B7E
  8
MADLA
 10
0.0
 20
0.0
 30
0.0
 70
   128
 71
     2
 72
    10
 73
    -9
  0
VERTEX
  5
B7F
  8
MADLA
 10
0.0
 20
0.0
 30
0.0
 70
   128
 71
     3
 72
    -2
 73
     9
  0
SEQEND
  5
F17
  8
MADLA
  0
POLYLINE
  5
B80
  8
MADLA
 66
     1
 10
0.0
 20
0.0
 30
0.0
 70
    64
 71
    10
 72
     8
  0
VERTEX
  5
B81
  8
MADLA
 10
62.32999999999999
 20
910.0
 30
8.0
 70
   192
  0
VERTEX
  5
B82
  8
MADLA
 10
57.32999999999999
 20
910.0
 30
8.0
 70
   192
  0
VERTEX
  5
B83
  8
MADLA
 10
57.32999999999999
 20
910.0
 30
3.0
 70
   192
  0
VERTEX
  5
B84
  8
MADLA
 10
62.32999999999999
 20
910.0
 30
3.0
 70
   192
  0
VERTEX
  5
B85
  8
MADLA
 10
59.82999999999999
 20
907.5
 30
3.0
 70
   192
  0
VERTEX
  5
B86
  8
MADLA
 10
59.82999999999999
 20
907.5
 30
8.0
 70
   192
  0
VERTEX
  5
B87
  8
MADLA
 10
61.59776695296636
 20
908.2322330470337
 30
3.0
 70
   192
  0
VERTEX
  5
B88
  8
MADLA
 10
61.59776695296636
 20
908.2322330470337
 30
8.0
 70
   192
  0
VERTEX
  5
B89
  8
MADLA
 10
58.06223304703362
 20
908.2322330470337
 30
3.0
 70
   192
  0
VERTEX
  5
B8A
  8
MADLA
 10
58.06223304703362
 20
908.2322330470337
 30
8.0
 70
   192
  0
VERTEX
  5
B8B
  8
MADLA
 10
0.0
 20
0.0
 30
0.0
 70
   128
 71
     8
 72
     1
 73
    -4
  0
VERTEX
  5
B8C
  8
MADLA
 10
0.0
 20
0.0
 30
0.0
 70
   128
 71
     7
 72
    -8
 73
     4
  0
VERTEX
  5
B8D
  8
MADLA
 10
0.0
 20
0.0
 30
0.0
 70
   128
 71
     6
 72
     8
 73
    -7
  0
VERTEX
  5
B8E
  8
MADLA
 10
0.0
 20
0.0
 30
0.0
 70
   128
 71
     5
 72
    -6
 73
     7
  0
VERTEX
  5
B8F
  8
MADLA
 10
0.0
 20
0.0
 30
0.0
 70
   128
 71
    10
 72
     6
 73
    -5
  0
VERTEX
  5
B90
  8
MADLA
 10
0.0
 20
0.0
 30
0.0
 70
   128
 71
     9
 72
   -10
 73
     5
  0
VERTEX
  5
B91
  8
MADLA
 10
0.0
 20
0.0
 30
0.0
 70
   128
 71
     2
 72
    10
 73
    -9
  0
VERTEX
  5
B92
  8
MADLA
 10
0.0
 20
0.0
 30
0.0
 70
   128
 71
     3
 72
    -2
 73
     9
  0
SEQEND
  5
F18
  8
MADLA
  0
POLYLINE
  5
B93
  8
MADLA
 66
     1
 10
0.0
 20
0.0
 30
0.0
 70
    64
 71
     4
 72
     2
  0
VERTEX
  5
B94
  8
MADLA
 10
69.82999999999998
 20
920.0
 30
21.0
 70
   192
  0
VERTEX
  5
B95
  8
MADLA
 10
69.82999999999998
 20
1100.0
 30
21.0
 70
   192
  0
VERTEX
  5
B96
  8
MADLA
 10
49.82999999999999
 20
1100.0
 30
21.0
 70
   192
  0
VERTEX
  5
B97
  8
MADLA
 10
49.82999999999999
 20
920.0
 30
21.0
 70
   192
  0
VERTEX
  5
B98
  8
MADLA
 10
0.0
 20
0.0
 30
0.0
 70
   128
 71
     1
 72
     4
 73
    -3
  0
VERTEX
  5
B99
  8
MADLA
 10
0.0
 20
0.0
 30
0.0
 70
   128
 71
    -1
 72
     3
 73
     2
  0
SEQEND
  5
F19
  8
MADLA
  0
POLYLINE
  5
B9A
  8
MADLA
 66
     1
 10
0.0
 20
0.0
 30
0.0
 70
    64
 71
     8
 72
     6
  0
VERTEX
  5
B9B
  8
MADLA
 10
49.82999999999999
 20
900.0
 30
31.0
 70
   192
  0
VERTEX
  5
B9C
  8
MADLA
 10
49.82999999999999
 20
1120.0
 30
31.0
 70
   192
  0
VERTEX
  5
B9D
  8
MADLA
 10
49.82999999999999
 20
1120.0
 30
3.0
 70
   192
  0
VERTEX
  5
B9E
  8
MADLA
 10
49.82999999999999
 20
1100.0
 30
3.0
 70
   192
  0
VERTEX
  5
B9F
  8
MADLA
 10
49.82999999999999
 20
1100.0
 30
21.0
 70
   192
  0
VERTEX
  5
BA0
  8
MADLA
 10
49.82999999999999
 20
920.0
 30
21.0
 70
   192
  0
VERTEX
  5
BA1
  8
MADLA
 10
49.82999999999999
 20
920.0
 30
3.0
 70
   192
  0
VERTEX
  5
BA2
  8
MADLA
 10
49.82999999999999
 20
900.0
 30
3.0
 70
   192
  0
VERTEX
  5
BA3
  8
MADLA
 10
0.0
 20
0.0
 30
0.0
 70
   128
 71
     3
 72
     4
 73
    -5
  0
VERTEX
  5
BA4
  8
MADLA
 10
0.0
 20
0.0
 30
0.0
 70
   128
 71
     2
 72
    -3
 73
    -5
  0
VERTEX
  5
BA5
  8
MADLA
 10
0.0
 20
0.0
 30
0.0
 70
   128
 71
    -6
 72
     1
 73
    -2
  0
VERTEX
  5
BA6
  8
MADLA
 10
0.0
 20
0.0
 30
0.0
 70
   128
 71
     5
 72
    -6
 73
    -2
  0
VERTEX
  5
BA7
  8
MADLA
 10
0.0
 20
0.0
 30
0.0
 70
   128
 71
     7
 72
     8
 73
    -1
  0
VERTEX
  5
BA8
  8
MADLA
 10
0.0
 20
0.0
 30
0.0
 70
   128
 71
     6
 72
    -7
 73
    -1
  0
SEQEND
  5
F1A
  8
MADLA
  0
POLYLINE
  5
BA9
  8
MADLA
 66
     1
 10
0.0
 20
0.0
 30
0.0
 70
    64
 71
     4
 72
     2
  0
VERTEX
  5
BAA
  8
MADLA
 10
49.82999999999999
 20
1120.0
 30
31.0
 70
   192
  0
VERTEX
  5
BAB
  8
MADLA
 10
69.82999999999998
 20
1120.0
 30
31.0
 70
   192
  0
VERTEX
  5
BAC
  8
MADLA
 10
69.82999999999998
 20
1120.0
 30
3.0
 70
   192
  0
VERTEX
  5
BAD
  8
MADLA
 10
49.82999999999999
 20
1120.0
 30
3.0
 70
   192
  0
VERTEX
  5
BAE
  8
MADLA
 10
0.0
 20
0.0
 30
0.0
 70
   128
 71
     3
 72
     4
 73
    -1
  0
VERTEX
  5
BAF
  8
MADLA
 10
0.0
 20
0.0
 30
0.0
 70
   128
 71
     2
 72
    -3
 73
     1
  0
SEQEND
  5
F1B
  8
MADLA
  0
POLYLINE
  5
BB0
  8
MADLA
 66
     1
 10
0.0
 20
0.0
 30
0.0
 70
    64
 71
     8
 72
     6
  0
VERTEX
  5
BB1
  8
MADLA
 10
69.82999999999998
 20
1120.0
 30
31.0
 70
   192
  0
VERTEX
  5
BB2
  8
MADLA
 10
69.82999999999998
 20
900.0
 30
31.0
 70
   192
  0
VERTEX
  5
BB3
  8
MADLA
 10
69.82999999999998
 20
900.0
 30
3.0
 70
   192
  0
VERTEX
  5
BB4
  8
MADLA
 10
69.82999999999998
 20
920.0
 30
3.0
 70
   192
  0
VERTEX
  5
BB5
  8
MADLA
 10
69.82999999999998
 20
920.0
 30
21.0
 70
   192
  0
VERTEX
  5
BB6
  8
MADLA
 10
69.82999999999998
 20
1100.0
 30
21.0
 70
   192
  0
VERTEX
  5
BB7
  8
MADLA
 10
69.82999999999998
 20
1100.0
 30
3.0
 70
   192
  0
VERTEX
  5
BB8
  8
MADLA
 10
69.82999999999998
 20
1120.0
 30
3.0
 70
   192
  0
VERTEX
  5
BB9
  8
MADLA
 10
0.0
 20
0.0
 30
0.0
 70
   128
 71
     3
 72
     4
 73
    -5
  0
VERTEX
  5
BBA
  8
MADLA
 10
0.0
 20
0.0
 30
0.0
 70
   128
 71
     2
 72
    -3
 73
    -5
  0
VERTEX
  5
BBB
  8
MADLA
 10
0.0
 20
0.0
 30
0.0
 70
   128
 71
    -6
 72
     1
 73
    -2
  0
VERTEX
  5
BBC
  8
MADLA
 10
0.0
 20
0.0
 30
0.0
 70
   128
 71
     5
 72
    -6
 73
    -2
  0
VERTEX
  5
BBD
  8
MADLA
 10
0.0
 20
0.0
 30
0.0
 70
   128
 71
     7
 72
     8
 73
    -1
  0
VERTEX
  5
BBE
  8
MADLA
 10
0.0
 20
0.0
 30
0.0
 70
   128
 71
     6
 72
    -7
 73
    -1
  0
SEQEND
  5
F1C
  8
MADLA
  0
POLYLINE
  5
BBF
  8
MADLA
 66
     1
 10
0.0
 20
0.0
 30
0.0
 70
    64
 71
     4
 72
     2
  0
VERTEX
  5
BC0
  8
MADLA
 10
69.82999999999998
 20
900.0
 30
31.0
 70
   192
  0
VERTEX
  5
BC1
  8
MADLA
 10
49.82999999999999
 20
900.0
 30
31.0
 70
   192
  0
VERTEX
  5
BC2
  8
MADLA
 10
49.82999999999999
 20
900.0
 30
3.0
 70
   192
  0
VERTEX
  5
BC3
  8
MADLA
 10
69.82999999999998
 20
900.0
 30
3.0
 70
   192
  0
VERTEX
  5
BC4
  8
MADLA
 10
0.0
 20
0.0
 30
0.0
 70
   128
 71
     3
 72
     4
 73
    -1
  0
VERTEX
  5
BC5
  8
MADLA
 10
0.0
 20
0.0
 30
0.0
 70
   128
 71
     2
 72
    -3
 73
     1
  0
SEQEND
  5
F1D
  8
MADLA
  0
POLYLINE
  5
BC6
  8
MADLA
 66
     1
 10
0.0
 20
0.0
 30
0.0
 70
    64
 71
     4
 72
     2
  0
VERTEX
  5
BC7
  8
MADLA
 10
49.82999999999999
 20
1120.0
 30
31.0
 70
   192
  0
VERTEX
  5
BC8
  8
MADLA
 10
49.82999999999999
 20
900.0
 30
31.0
 70
   192
  0
VERTEX
  5
BC9
  8
MADLA
 10
69.82999999999998
 20
900.0
 30
31.0
 70
   192
  0
VERTEX
  5
BCA
  8
MADLA
 10
69.82999999999998
 20
1120.0
 30
31.0
 70
   192
  0
VERTEX
  5
BCB
  8
MADLA
 10
0.0
 20
0.0
 30
0.0
 70
   128
 71
     3
 72
     4
 73
    -1
  0
VERTEX
  5
BCC
  8
MADLA
 10
0.0
 20
0.0
 30
0.0
 70
   128
 71
     2
 72
    -3
 73
     1
  0
SEQEND
  5
F1E
  8
MADLA
  0
POLYLINE
  5
BCD
  8
MADLA
 66
     1
 10
0.0
 20
0.0
 30
0.0
 70
    64
 71
     4
 72
     2
  0
VERTEX
  5
BCE
  8
MADLA
 10
69.82999999999998
 20
1100.0
 30
21.0
 70
   192
  0
VERTEX
  5
BCF
  8
MADLA
 10
69.82999999999998
 20
1100.0
 30
3.0
 70
   192
  0
VERTEX
  5
BD0
  8
MADLA
 10
49.82999999999999
 20
1100.0
 30
3.0
 70
   192
  0
VERTEX
  5
BD1
  8
MADLA
 10
49.82999999999999
 20
1100.0
 30
21.0
 70
   192
  0
VERTEX
  5
BD2
  8
MADLA
 10
0.0
 20
0.0
 30
0.0
 70
   128
 71
     1
 72
     4
 73
    -3
  0
VERTEX
  5
BD3
  8
MADLA
 10
0.0
 20
0.0
 30
0.0
 70
   128
 71
    -1
 72
     3
 73
     2
  0
SEQEND
  5
F1F
  8
MADLA
  0
POLYLINE
  5
BD4
  8
MADLA
 66
     1
 10
0.0
 20
0.0
 30
0.0
 70
    64
 71
    12
 72
    12
  0
VERTEX
  5
BD5
  8
MADLA
 10
69.82999999999998
 20
1120.0
 30
3.0
 70
   192
  0
VERTEX
  5
BD6
  8
MADLA
 10
69.82999999999998
 20
1100.0
 30
3.0
 70
   192
  0
VERTEX
  5
BD7
  8
MADLA
 10
49.82999999999999
 20
1100.0
 30
3.0
 70
   192
  0
VERTEX
  5
BD8
  8
MADLA
 10
49.82999999999999
 20
1120.0
 30
3.0
 70
   192
  0
VERTEX
  5
BD9
  8
MADLA
 10
62.32999999999999
 20
1110.0
 30
3.0
 70
   192
  0
VERTEX
  5
BDA
  8
MADLA
 10
61.59776695296636
 20
1111.767766952967
 30
3.0
 70
   192
  0
VERTEX
  5
BDB
  8
MADLA
 10
59.82999999999999
 20
1112.5
 30
3.0
 70
   192
  0
VERTEX
  5
BDC
  8
MADLA
 10
58.06223304703362
 20
1111.767766952967
 30
3.0
 70
   192
  0
VERTEX
  5
BDD
  8
MADLA
 10
57.32999999999999
 20
1110.0
 30
3.0
 70
   192
  0
VERTEX
  5
BDE
  8
MADLA
 10
58.06223304703362
 20
1108.232233047034
 30
3.0
 70
   192
  0
VERTEX
  5
BDF
  8
MADLA
 10
59.82999999999999
 20
1107.5
 30
3.0
 70
   192
  0
VERTEX
  5
BE0
  8
MADLA
 10
61.59776695296636
 20
1108.232233047034
 30
3.0
 70
   192
  0
VERTEX
  5
BE1
  8
MADLA
 10
0.0
 20
0.0
 30
0.0
 70
   128
 71
    -1
 72
     5
 73
    -6
  0
VERTEX
  5
BE2
  8
MADLA
 10
0.0
 20
0.0
 30
0.0
 70
   128
 71
     6
 72
    -7
 73
    -1
  0
VERTEX
  5
BE3
  8
MADLA
 10
0.0
 20
0.0
 30
0.0
 70
   128
 71
    -8
 72
     4
 73
    -1
  0
VERTEX
  5
BE4
  8
MADLA
 10
0.0
 20
0.0
 30
0.0
 70
   128
 71
     7
 72
    -8
 73
    -1
  0
VERTEX
  5
BE5
  8
MADLA
 10
0.0
 20
0.0
 30
0.0
 70
   128
 71
     8
 72
    -9
 73
    -4
  0
VERTEX
  5
BE6
  8
MADLA
 10
0.0
 20
0.0
 30
0.0
 70
   128
 71
   -10
 72
     3
 73
    -4
  0
VERTEX
  5
BE7
  8
MADLA
 10
0.0
 20
0.0
 30
0.0
 70
   128
 71
     9
 72
   -10
 73
    -4
  0
VERTEX
  5
BE8
  8
MADLA
 10
0.0
 20
0.0
 30
0.0
 70
   128
 71
   -11
 72
     2
 73
    -3
  0
VERTEX
  5
BE9
  8
MADLA
 10
0.0
 20
0.0
 30
0.0
 70
   128
 71
    10
 72
   -11
 73
    -3
  0
VERTEX
  5
BEA
  8
MADLA
 10
0.0
 20
0.0
 30
0.0
 70
   128
 71
    11
 72
   -12
 73
    -2
  0
VERTEX
  5
BEB
  8
MADLA
 10
0.0
 20
0.0
 30
0.0
 70
   128
 71
    -5
 72
     1
 73
    -2
  0
VERTEX
  5
BEC
  8
MADLA
 10
0.0
 20
0.0
 30
0.0
 70
   128
 71
    12
 72
    -5
 73
    -2
  0
SEQEND
  5
F20
  8
MADLA
  0
POLYLINE
  5
BED
  8
MADLA
 66
     1
 10
0.0
 20
0.0
 30
0.0
 70
    64
 71
     4
 72
     2
  0
VERTEX
  5
BEE
  8
MADLA
 10
49.82999999999999
 20
920.0
 30
21.0
 70
   192
  0
VERTEX
  5
BEF
  8
MADLA
 10
49.82999999999999
 20
920.0
 30
3.0
 70
   192
  0
VERTEX
  5
BF0
  8
MADLA
 10
69.82999999999998
 20
920.0
 30
3.0
 70
   192
  0
VERTEX
  5
BF1
  8
MADLA
 10
69.82999999999998
 20
920.0
 30
21.0
 70
   192
  0
VERTEX
  5
BF2
  8
MADLA
 10
0.0
 20
0.0
 30
0.0
 70
   128
 71
     1
 72
     4
 73
    -3
  0
VERTEX
  5
BF3
  8
MADLA
 10
0.0
 20
0.0
 30
0.0
 70
   128
 71
    -1
 72
     3
 73
     2
  0
SEQEND
  5
F21
  8
MADLA
  0
POLYLINE
  5
BF4
  8
MADLA
 66
     1
 10
0.0
 20
0.0
 30
0.0
 70
    64
 71
    12
 72
    12
  0
VERTEX
  5
BF5
  8
MADLA
 10
69.82999999999998
 20
920.0
 30
3.0
 70
   192
  0
VERTEX
  5
BF6
  8
MADLA
 10
49.82999999999999
 20
920.0
 30
3.0
 70
   192
  0
VERTEX
  5
BF7
  8
MADLA
 10
49.82999999999999
 20
900.0
 30
3.0
 70
   192
  0
VERTEX
  5
BF8
  8
MADLA
 10
69.82999999999998
 20
900.0
 30
3.0
 70
   192
  0
VERTEX
  5
BF9
  8
MADLA
 10
62.32999999999999
 20
910.0
 30
3.0
 70
   192
  0
VERTEX
  5
BFA
  8
MADLA
 10
61.59776695296636
 20
908.2322330470337
 30
3.0
 70
   192
  0
VERTEX
  5
BFB
  8
MADLA
 10
59.82999999999999
 20
907.5
 30
3.0
 70
   192
  0
VERTEX
  5
BFC
  8
MADLA
 10
58.06223304703362
 20
908.2322330470337
 30
3.0
 70
   192
  0
VERTEX
  5
BFD
  8
MADLA
 10
57.32999999999999
 20
910.0
 30
3.0
 70
   192
  0
VERTEX
  5
BFE
  8
MADLA
 10
58.06223304703362
 20
911.7677669529663
 30
3.0
 70
   192
  0
VERTEX
  5
BFF
  8
MADLA
 10
59.82999999999999
 20
912.5
 30
3.0
 70
   192
  0
VERTEX
  5
C00
  8
MADLA
 10
61.59776695296636
 20
911.7677669529663
 30
3.0
 70
   192
  0
VERTEX
  5
C01
  8
MADLA
 10
0.0
 20
0.0
 30
0.0
 70
   128
 71
     6
 72
    -5
 73
    -4
  0
VERTEX
  5
C02
  8
MADLA
 10
0.0
 20
0.0
 30
0.0
 70
   128
 71
    -4
 72
     7
 73
    -6
  0
VERTEX
  5
C03
  8
MADLA
 10
0.0
 20
0.0
 30
0.0
 70
   128
 71
     4
 72
    -3
 73
    -8
  0
VERTEX
  5
C04
  8
MADLA
 10
0.0
 20
0.0
 30
0.0
 70
   128
 71
    -4
 72
     8
 73
    -7
  0
VERTEX
  5
C05
  8
MADLA
 10
0.0
 20
0.0
 30
0.0
 70
   128
 71
    -3
 72
     9
 73
    -8
  0
VERTEX
  5
C06
  8
MADLA
 10
0.0
 20
0.0
 30
0.0
 70
   128
 71
     3
 72
    -2
 73
   -10
  0
VERTEX
  5
C07
  8
MADLA
 10
0.0
 20
0.0
 30
0.0
 70
   128
 71
    -3
 72
    10
 73
    -9
  0
VERTEX
  5
C08
  8
MADLA
 10
0.0
 20
0.0
 30
0.0
 70
   128
 71
     2
 72
    -1
 73
   -11
  0
VERTEX
  5
C09
  8
MADLA
 10
0.0
 20
0.0
 30
0.0
 70
   128
 71
    -2
 72
    11
 73
   -10
  0
VERTEX
  5
C0A
  8
MADLA
 10
0.0
 20
0.0
 30
0.0
 70
   128
 71
    -1
 72
    12
 73
   -11
  0
VERTEX
  5
C0B
  8
MADLA
 10
0.0
 20
0.0
 30
0.0
 70
   128
 71
     1
 72
    -4
 73
    -5
  0
VERTEX
  5
C0C
  8
MADLA
 10
0.0
 20
0.0
 30
0.0
 70
   128
 71
    -1
 72
     5
 73
   -12
  0
SEQEND
  5
F22
  8
MADLA
  0
POLYLINE
  5
C0D
  8
MADLA
 66
     1
 10
0.0
 20
0.0
 30
0.0
 70
    64
 71
    10
 72
     8
  0
VERTEX
  5
C0E
  8
MADLA
 10
57.32999999999999
 20
910.0
 30
8.0
 70
   192
  0
VERTEX
  5
C0F
  8
MADLA
 10
62.32999999999999
 20
910.0
 30
8.0
 70
   192
  0
VERTEX
  5
C10
  8
MADLA
 10
62.32999999999999
 20
910.0
 30
3.0
 70
   192
  0
VERTEX
  5
C11
  8
MADLA
 10
57.32999999999999
 20
910.0
 30
3.0
 70
   192
  0
VERTEX
  5
C12
  8
MADLA
 10
59.82999999999999
 20
912.5
 30
3.0
 70
   192
  0
VERTEX
  5
C13
  8
MADLA
 10
59.82999999999999
 20
912.5
 30
8.0
 70
   192
  0
VERTEX
  5
C14
  8
MADLA
 10
58.06223304703362
 20
911.7677669529663
 30
3.0
 70
   192
  0
VERTEX
  5
C15
  8
MADLA
 10
58.06223304703362
 20
911.7677669529663
 30
8.0
 70
   192
  0
VERTEX
  5
C16
  8
MADLA
 10
61.59776695296636
 20
911.7677669529663
 30
3.0
 70
   192
  0
VERTEX
  5
C17
  8
MADLA
 10
61.59776695296636
 20
911.7677669529663
 30
8.0
 70
   192
  0
VERTEX
  5
C18
  8
MADLA
 10
0.0
 20
0.0
 30
0.0
 70
   128
 71
     8
 72
     1
 73
    -4
  0
VERTEX
  5
C19
  8
MADLA
 10
0.0
 20
0.0
 30
0.0
 70
   128
 71
     7
 72
    -8
 73
     4
  0
VERTEX
  5
C1A
  8
MADLA
 10
0.0
 20
0.0
 30
0.0
 70
   128
 71
     6
 72
     8
 73
    -7
  0
VERTEX
  5
C1B
  8
MADLA
 10
0.0
 20
0.0
 30
0.0
 70
   128
 71
     5
 72
    -6
 73
     7
  0
VERTEX
  5
C1C
  8
MADLA
 10
0.0
 20
0.0
 30
0.0
 70
   128
 71
    10
 72
     6
 73
    -5
  0
VERTEX
  5
C1D
  8
MADLA
 10
0.0
 20
0.0
 30
0.0
 70
   128
 71
     9
 72
   -10
 73
     5
  0
VERTEX
  5
C1E
  8
MADLA
 10
0.0
 20
0.0
 30
0.0
 70
   128
 71
     3
 72
     2
 73
   -10
  0
VERTEX
  5
C1F
  8
MADLA
 10
0.0
 20
0.0
 30
0.0
 70
   128
 71
     9
 72
    -3
 73
    10
  0
SEQEND
  5
F23
  8
MADLA
  0
POLYLINE
  5
C20
  8
MADLA
 66
     1
 10
0.0
 20
0.0
 30
0.0
 70
    64
 71
     8
 72
     6
  0
VERTEX
  5
C21
  8
MADLA
 10
57.32999999999999
 20
910.0
 30
8.0
 70
   192
  0
VERTEX
  5
C22
  8
MADLA
 10
58.06223304703362
 20
911.7677669529663
 30
8.0
 70
   192
  0
VERTEX
  5
C23
  8
MADLA
 10
59.82999999999999
 20
912.5
 30
8.0
 70
   192
  0
VERTEX
  5
C24
  8
MADLA
 10
61.59776695296636
 20
911.7677669529663
 30
8.0
 70
   192
  0
VERTEX
  5
C25
  8
MADLA
 10
62.32999999999999
 20
910.0
 30
8.0
 70
   192
  0
VERTEX
  5
C26
  8
MADLA
 10
61.59776695296636
 20
908.2322330470337
 30
8.0
 70
   192
  0
VERTEX
  5
C27
  8
MADLA
 10
59.82999999999999
 20
907.5
 30
8.0
 70
   192
  0
VERTEX
  5
C28
  8
MADLA
 10
58.06223304703362
 20
908.2322330470337
 30
8.0
 70
   192
  0
VERTEX
  5
C29
  8
MADLA
 10
0.0
 20
0.0
 30
0.0
 70
   128
 71
     7
 72
     8
 73
    -1
  0
VERTEX
  5
C2A
  8
MADLA
 10
0.0
 20
0.0
 30
0.0
 70
   128
 71
     6
 72
    -7
 73
    -1
  0
VERTEX
  5
C2B
  8
MADLA
 10
0.0
 20
0.0
 30
0.0
 70
   128
 71
     5
 72
    -6
 73
    -1
  0
VERTEX
  5
C2C
  8
MADLA
 10
0.0
 20
0.0
 30
0.0
 70
   128
 71
     4
 72
    -5
 73
    -1
  0
VERTEX
  5
C2D
  8
MADLA
 10
0.0
 20
0.0
 30
0.0
 70
   128
 71
     3
 72
    -4
 73
    -1
  0
VERTEX
  5
C2E
  8
MADLA
 10
0.0
 20
0.0
 30
0.0
 70
   128
 71
     2
 72
    -3
 73
     1
  0
SEQEND
  5
F24
  8
MADLA
  0
POLYLINE
  5
C2F
  8
MADLA
 66
     1
 10
0.0
 20
0.0
 30
0.0
 70
    64
 71
    10
 72
     8
  0
VERTEX
  5
C30
  8
MADLA
 10
57.32999999999999
 20
1110.0
 30
8.0
 70
   192
  0
VERTEX
  5
C31
  8
MADLA
 10
62.32999999999999
 20
1110.0
 30
8.0
 70
   192
  0
VERTEX
  5
C32
  8
MADLA
 10
62.32999999999999
 20
1110.0
 30
3.0
 70
   192
  0
VERTEX
  5
C33
  8
MADLA
 10
57.32999999999999
 20
1110.0
 30
3.0
 70
   192
  0
VERTEX
  5
C34
  8
MADLA
 10
59.82999999999999
 20
1112.5
 30
3.0
 70
   192
  0
VERTEX
  5
C35
  8
MADLA
 10
59.82999999999999
 20
1112.5
 30
8.0
 70
   192
  0
VERTEX
  5
C36
  8
MADLA
 10
58.06223304703362
 20
1111.767766952967
 30
3.0
 70
   192
  0
VERTEX
  5
C37
  8
MADLA
 10
58.06223304703362
 20
1111.767766952967
 30
8.0
 70
   192
  0
VERTEX
  5
C38
  8
MADLA
 10
61.59776695296636
 20
1111.767766952967
 30
3.0
 70
   192
  0
VERTEX
  5
C39
  8
MADLA
 10
61.59776695296636
 20
1111.767766952967
 30
8.0
 70
   192
  0
VERTEX
  5
C3A
  8
MADLA
 10
0.0
 20
0.0
 30
0.0
 70
   128
 71
     8
 72
     1
 73
    -4
  0
VERTEX
  5
C3B
  8
MADLA
 10
0.0
 20
0.0
 30
0.0
 70
   128
 71
     7
 72
    -8
 73
     4
  0
VERTEX
  5
C3C
  8
MADLA
 10
0.0
 20
0.0
 30
0.0
 70
   128
 71
     6
 72
     8
 73
    -7
  0
VERTEX
  5
C3D
  8
MADLA
 10
0.0
 20
0.0
 30
0.0
 70
   128
 71
     5
 72
    -6
 73
     7
  0
VERTEX
  5
C3E
  8
MADLA
 10
0.0
 20
0.0
 30
0.0
 70
   128
 71
    10
 72
     6
 73
    -5
  0
VERTEX
  5
C3F
  8
MADLA
 10
0.0
 20
0.0
 30
0.0
 70
   128
 71
     9
 72
   -10
 73
     5
  0
VERTEX
  5
C40
  8
MADLA
 10
0.0
 20
0.0
 30
0.0
 70
   128
 71
     3
 72
     2
 73
   -10
  0
VERTEX
  5
C41
  8
MADLA
 10
0.0
 20
0.0
 30
0.0
 70
   128
 71
     9
 72
    -3
 73
    10
  0
SEQEND
  5
F25
  8
MADLA
  0
POLYLINE
  5
C42
  8
MADLA
 66
     1
 10
0.0
 20
0.0
 30
0.0
 70
    64
 71
     8
 72
     6
  0
VERTEX
  5
C43
  8
MADLA
 10
57.32999999999999
 20
1110.0
 30
8.0
 70
   192
  0
VERTEX
  5
C44
  8
MADLA
 10
58.06223304703362
 20
1111.767766952967
 30
8.0
 70
   192
  0
VERTEX
  5
C45
  8
MADLA
 10
59.82999999999999
 20
1112.5
 30
8.0
 70
   192
  0
VERTEX
  5
C46
  8
MADLA
 10
61.59776695296636
 20
1111.767766952967
 30
8.0
 70
   192
  0
VERTEX
  5
C47
  8
MADLA
 10
62.32999999999999
 20
1110.0
 30
8.0
 70
   192
  0
VERTEX
  5
C48
  8
MADLA
 10
61.59776695296636
 20
1108.232233047034
 30
8.0
 70
   192
  0
VERTEX
  5
C49
  8
MADLA
 10
59.82999999999999
 20
1107.5
 30
8.0
 70
   192
  0
VERTEX
  5
C4A
  8
MADLA
 10
58.06223304703362
 20
1108.232233047034
 30
8.0
 70
   192
  0
VERTEX
  5
C4B
  8
MADLA
 10
0.0
 20
0.0
 30
0.0
 70
   128
 71
     7
 72
     8
 73
    -1
  0
VERTEX
  5
C4C
  8
MADLA
 10
0.0
 20
0.0
 30
0.0
 70
   128
 71
     6
 72
    -7
 73
    -1
  0
VERTEX
  5
C4D
  8
MADLA
 10
0.0
 20
0.0
 30
0.0
 70
   128
 71
     5
 72
    -6
 73
    -1
  0
VERTEX
  5
C4E
  8
MADLA
 10
0.0
 20
0.0
 30
0.0
 70
   128
 71
     4
 72
    -5
 73
    -1
  0
VERTEX
  5
C4F
  8
MADLA
 10
0.0
 20
0.0
 30
0.0
 70
   128
 71
     3
 72
    -4
 73
    -1
  0
VERTEX
  5
C50
  8
MADLA
 10
0.0
 20
0.0
 30
0.0
 70
   128
 71
     2
 72
    -3
 73
     1
  0
SEQEND
  5
F26
  8
MADLA
  0
ENDBLK
  5
F16
  8
0
  0
BLOCK
  8
0
  2
*X7
 70
     1
 10
0.0
 20
0.0
 30
0.0
  3
*X7
  1

  0
POLYLINE
  5
C52
  8
MADLA
 66
     1
 10
0.0
 20
0.0
 30
0.0
 70
    64
 71
    10
 72
     8
  0
VERTEX
  5
C53
  8
MADLA
 10
-57.33000000000022
 20
1110.0
 30
8.0
 70
   192
  0
VERTEX
  5
C54
  8
MADLA
 10
-62.33000000000022
 20
1110.0
 30
8.0
 70
   192
  0
VERTEX
  5
C55
  8
MADLA
 10
-62.33000000000022
 20
1110.0
 30
3.0
 70
   192
  0
VERTEX
  5
C56
  8
MADLA
 10
-57.33000000000022
 20
1110.0
 30
3.0
 70
   192
  0
VERTEX
  5
C57
  8
MADLA
 10
-59.83000000000022
 20
1107.5
 30
3.0
 70
   192
  0
VERTEX
  5
C58
  8
MADLA
 10
-59.83000000000022
 20
1107.5
 30
8.0
 70
   192
  0
VERTEX
  5
C59
  8
MADLA
 10
-58.06223304703385
 20
1108.232233047034
 30
3.0
 70
   192
  0
VERTEX
  5
C5A
  8
MADLA
 10
-58.06223304703385
 20
1108.232233047034
 30
8.0
 70
   192
  0
VERTEX
  5
C5B
  8
MADLA
 10
-61.59776695296659
 20
1108.232233047034
 30
3.0
 70
   192
  0
VERTEX
  5
C5C
  8
MADLA
 10
-61.59776695296659
 20
1108.232233047034
 30
8.0
 70
   192
  0
VERTEX
  5
C5D
  8
MADLA
 10
0.0
 20
0.0
 30
0.0
 70
   128
 71
     8
 72
     1
 73
    -4
  0
VERTEX
  5
C5E
  8
MADLA
 10
0.0
 20
0.0
 30
0.0
 70
   128
 71
     7
 72
    -8
 73
     4
  0
VERTEX
  5
C5F
  8
MADLA
 10
0.0
 20
0.0
 30
0.0
 70
   128
 71
     6
 72
     8
 73
    -7
  0
VERTEX
  5
C60
  8
MADLA
 10
0.0
 20
0.0
 30
0.0
 70
   128
 71
     5
 72
    -6
 73
     7
  0
VERTEX
  5
C61
  8
MADLA
 10
0.0
 20
0.0
 30
0.0
 70
   128
 71
    10
 72
     6
 73
    -5
  0
VERTEX
  5
C62
  8
MADLA
 10
0.0
 20
0.0
 30
0.0
 70
   128
 71
     9
 72
   -10
 73
     5
  0
VERTEX
  5
C63
  8
MADLA
 10
0.0
 20
0.0
 30
0.0
 70
   128
 71
     2
 72
    10
 73
    -9
  0
VERTEX
  5
C64
  8
MADLA
 10
0.0
 20
0.0
 30
0.0
 70
   128
 71
     3
 72
    -2
 73
     9
  0
SEQEND
  5
F29
  8
MADLA
  0
POLYLINE
  5
C65
  8
MADLA
 66
     1
 10
0.0
 20
0.0
 30
0.0
 70
    64
 71
    10
 72
     8
  0
VERTEX
  5
C66
  8
MADLA
 10
-57.33000000000022
 20
910.0000000000002
 30
8.0
 70
   192
  0
VERTEX
  5
C67
  8
MADLA
 10
-62.33000000000022
 20
910.0000000000002
 30
8.0
 70
   192
  0
VERTEX
  5
C68
  8
MADLA
 10
-62.33000000000022
 20
910.0000000000002
 30
3.0
 70
   192
  0
VERTEX
  5
C69
  8
MADLA
 10
-57.33000000000022
 20
910.0000000000002
 30
3.0
 70
   192
  0
VERTEX
  5
C6A
  8
MADLA
 10
-59.83000000000022
 20
907.5000000000002
 30
3.0
 70
   192
  0
VERTEX
  5
C6B
  8
MADLA
 10
-59.83000000000022
 20
907.5000000000002
 30
8.0
 70
   192
  0
VERTEX
  5
C6C
  8
MADLA
 10
-58.06223304703385
 20
908.2322330470339
 30
3.0
 70
   192
  0
VERTEX
  5
C6D
  8
MADLA
 10
-58.06223304703385
 20
908.2322330470339
 30
8.0
 70
   192
  0
VERTEX
  5
C6E
  8
MADLA
 10
-61.59776695296659
 20
908.2322330470339
 30
3.0
 70
   192
  0
VERTEX
  5
C6F
  8
MADLA
 10
-61.59776695296659
 20
908.2322330470339
 30
8.0
 70
   192
  0
VERTEX
  5
C70
  8
MADLA
 10
0.0
 20
0.0
 30
0.0
 70
   128
 71
     8
 72
     1
 73
    -4
  0
VERTEX
  5
C71
  8
MADLA
 10
0.0
 20
0.0
 30
0.0
 70
   128
 71
     7
 72
    -8
 73
     4
  0
VERTEX
  5
C72
  8
MADLA
 10
0.0
 20
0.0
 30
0.0
 70
   128
 71
     6
 72
     8
 73
    -7
  0
VERTEX
  5
C73
  8
MADLA
 10
0.0
 20
0.0
 30
0.0
 70
   128
 71
     5
 72
    -6
 73
     7
  0
VERTEX
  5
C74
  8
MADLA
 10
0.0
 20
0.0
 30
0.0
 70
   128
 71
    10
 72
     6
 73
    -5
  0
VERTEX
  5
C75
  8
MADLA
 10
0.0
 20
0.0
 30
0.0
 70
   128
 71
     9
 72
   -10
 73
     5
  0
VERTEX
  5
C76
  8
MADLA
 10
0.0
 20
0.0
 30
0.0
 70
   128
 71
     2
 72
    10
 73
    -9
  0
VERTEX
  5
C77
  8
MADLA
 10
0.0
 20
0.0
 30
0.0
 70
   128
 71
     3
 72
    -2
 73
     9
  0
SEQEND
  5
F2A
  8
MADLA
  0
POLYLINE
  5
C78
  8
MADLA
 66
     1
 10
0.0
 20
0.0
 30
0.0
 70
    64
 71
     4
 72
     2
  0
VERTEX
  5
C79
  8
MADLA
 10
-49.83000000000022
 20
920.0000000000002
 30
21.0
 70
   192
  0
VERTEX
  5
C7A
  8
MADLA
 10
-49.83000000000022
 20
1100.0
 30
21.0
 70
   192
  0
VERTEX
  5
C7B
  8
MADLA
 10
-69.83000000000021
 20
1100.0
 30
21.0
 70
   192
  0
VERTEX
  5
C7C
  8
MADLA
 10
-69.83000000000021
 20
920.0000000000002
 30
21.0
 70
   192
  0
VERTEX
  5
C7D
  8
MADLA
 10
0.0
 20
0.0
 30
0.0
 70
   128
 71
     1
 72
     4
 73
    -3
  0
VERTEX
  5
C7E
  8
MADLA
 10
0.0
 20
0.0
 30
0.0
 70
   128
 71
    -1
 72
     3
 73
     2
  0
SEQEND
  5
F2B
  8
MADLA
  0
POLYLINE
  5
C7F
  8
MADLA
 66
     1
 10
0.0
 20
0.0
 30
0.0
 70
    64
 71
     8
 72
     6
  0
VERTEX
  5
C80
  8
MADLA
 10
-69.83000000000021
 20
900.0000000000002
 30
31.0
 70
   192
  0
VERTEX
  5
C81
  8
MADLA
 10
-69.83000000000021
 20
1120.0
 30
31.0
 70
   192
  0
VERTEX
  5
C82
  8
MADLA
 10
-69.83000000000021
 20
1120.0
 30
3.0
 70
   192
  0
VERTEX
  5
C83
  8
MADLA
 10
-69.83000000000021
 20
1100.0
 30
3.0
 70
   192
  0
VERTEX
  5
C84
  8
MADLA
 10
-69.83000000000021
 20
1100.0
 30
21.0
 70
   192
  0
VERTEX
  5
C85
  8
MADLA
 10
-69.83000000000021
 20
920.0000000000002
 30
21.0
 70
   192
  0
VERTEX
  5
C86
  8
MADLA
 10
-69.83000000000021
 20
920.0000000000002
 30
3.0
 70
   192
  0
VERTEX
  5
C87
  8
MADLA
 10
-69.83000000000021
 20
900.0000000000002
 30
3.0
 70
   192
  0
VERTEX
  5
C88
  8
MADLA
 10
0.0
 20
0.0
 30
0.0
 70
   128
 71
     3
 72
     4
 73
    -5
  0
VERTEX
  5
C89
  8
MADLA
 10
0.0
 20
0.0
 30
0.0
 70
   128
 71
     2
 72
    -3
 73
    -5
  0
VERTEX
  5
C8A
  8
MADLA
 10
0.0
 20
0.0
 30
0.0
 70
   128
 71
    -6
 72
     1
 73
    -2
  0
VERTEX
  5
C8B
  8
MADLA
 10
0.0
 20
0.0
 30
0.0
 70
   128
 71
     5
 72
    -6
 73
    -2
  0
VERTEX
  5
C8C
  8
MADLA
 10
0.0
 20
0.0
 30
0.0
 70
   128
 71
     7
 72
     8
 73
    -1
  0
VERTEX
  5
C8D
  8
MADLA
 10
0.0
 20
0.0
 30
0.0
 70
   128
 71
     6
 72
    -7
 73
    -1
  0
SEQEND
  5
F2C
  8
MADLA
  0
POLYLINE
  5
C8E
  8
MADLA
 66
     1
 10
0.0
 20
0.0
 30
0.0
 70
    64
 71
     4
 72
     2
  0
VERTEX
  5
C8F
  8
MADLA
 10
-69.83000000000021
 20
1120.0
 30
31.0
 70
   192
  0
VERTEX
  5
C90
  8
MADLA
 10
-49.83000000000022
 20
1120.0
 30
31.0
 70
   192
  0
VERTEX
  5
C91
  8
MADLA
 10
-49.83000000000022
 20
1120.0
 30
3.0
 70
   192
  0
VERTEX
  5
C92
  8
MADLA
 10
-69.83000000000021
 20
1120.0
 30
3.0
 70
   192
  0
VERTEX
  5
C93
  8
MADLA
 10
0.0
 20
0.0
 30
0.0
 70
   128
 71
     3
 72
     4
 73
    -1
  0
VERTEX
  5
C94
  8
MADLA
 10
0.0
 20
0.0
 30
0.0
 70
   128
 71
     2
 72
    -3
 73
     1
  0
SEQEND
  5
F2D
  8
MADLA
  0
POLYLINE
  5
C95
  8
MADLA
 66
     1
 10
0.0
 20
0.0
 30
0.0
 70
    64
 71
     8
 72
     6
  0
VERTEX
  5
C96
  8
MADLA
 10
-49.83000000000022
 20
1120.0
 30
31.0
 70
   192
  0
VERTEX
  5
C97
  8
MADLA
 10
-49.83000000000022
 20
900.0000000000002
 30
31.0
 70
   192
  0
VERTEX
  5
C98
  8
MADLA
 10
-49.83000000000022
 20
900.0000000000002
 30
3.0
 70
   192
  0
VERTEX
  5
C99
  8
MADLA
 10
-49.83000000000022
 20
920.0000000000002
 30
3.0
 70
   192
  0
VERTEX
  5
C9A
  8
MADLA
 10
-49.83000000000022
 20
920.0000000000002
 30
21.0
 70
   192
  0
VERTEX
  5
C9B
  8
MADLA
 10
-49.83000000000022
 20
1100.0
 30
21.0
 70
   192
  0
VERTEX
  5
C9C
  8
MADLA
 10
-49.83000000000022
 20
1100.0
 30
3.0
 70
   192
  0
VERTEX
  5
C9D
  8
MADLA
 10
-49.83000000000022
 20
1120.0
 30
3.0
 70
   192
  0
VERTEX
  5
C9E
  8
MADLA
 10
0.0
 20
0.0
 30
0.0
 70
   128
 71
     3
 72
     4
 73
    -5
  0
VERTEX
  5
C9F
  8
MADLA
 10
0.0
 20
0.0
 30
0.0
 70
   128
 71
     2
 72
    -3
 73
    -5
  0
VERTEX
  5
CA0
  8
MADLA
 10
0.0
 20
0.0
 30
0.0
 70
   128
 71
    -6
 72
     1
 73
    -2
  0
VERTEX
  5
CA1
  8
MADLA
 10
0.0
 20
0.0
 30
0.0
 70
   128
 71
     5
 72
    -6
 73
    -2
  0
VERTEX
  5
CA2
  8
MADLA
 10
0.0
 20
0.0
 30
0.0
 70
   128
 71
     7
 72
     8
 73
    -1
  0
VERTEX
  5
CA3
  8
MADLA
 10
0.0
 20
0.0
 30
0.0
 70
   128
 71
     6
 72
    -7
 73
    -1
  0
SEQEND
  5
F2E
  8
MADLA
  0
POLYLINE
  5
CA4
  8
MADLA
 66
     1
 10
0.0
 20
0.0
 30
0.0
 70
    64
 71
     4
 72
     2
  0
VERTEX
  5
CA5
  8
MADLA
 10
-49.83000000000022
 20
900.0000000000002
 30
31.0
 70
   192
  0
VERTEX
  5
CA6
  8
MADLA
 10
-69.83000000000021
 20
900.0000000000002
 30
31.0
 70
   192
  0
VERTEX
  5
CA7
  8
MADLA
 10
-69.83000000000021
 20
900.0000000000002
 30
3.0
 70
   192
  0
VERTEX
  5
CA8
  8
MADLA
 10
-49.83000000000022
 20
900.0000000000002
 30
3.0
 70
   192
  0
VERTEX
  5
CA9
  8
MADLA
 10
0.0
 20
0.0
 30
0.0
 70
   128
 71
     3
 72
     4
 73
    -1
  0
VERTEX
  5
CAA
  8
MADLA
 10
0.0
 20
0.0
 30
0.0
 70
   128
 71
     2
 72
    -3
 73
     1
  0
SEQEND
  5
F2F
  8
MADLA
  0
POLYLINE
  5
CAB
  8
MADLA
 66
     1
 10
0.0
 20
0.0
 30
0.0
 70
    64
 71
     4
 72
     2
  0
VERTEX
  5
CAC
  8
MADLA
 10
-69.83000000000021
 20
1120.0
 30
31.0
 70
   192
  0
VERTEX
  5
CAD
  8
MADLA
 10
-69.83000000000021
 20
900.0000000000002
 30
31.0
 70
   192
  0
VERTEX
  5
CAE
  8
MADLA
 10
-49.83000000000022
 20
900.0000000000002
 30
31.0
 70
   192
  0
VERTEX
  5
CAF
  8
MADLA
 10
-49.83000000000022
 20
1120.0
 30
31.0
 70
   192
  0
VERTEX
  5
CB0
  8
MADLA
 10
0.0
 20
0.0
 30
0.0
 70
   128
 71
     3
 72
     4
 73
    -1
  0
VERTEX
  5
CB1
  8
MADLA
 10
0.0
 20
0.0
 30
0.0
 70
   128
 71
     2
 72
    -3
 73
     1
  0
SEQEND
  5
F30
  8
MADLA
  0
POLYLINE
  5
CB2
  8
MADLA
 66
     1
 10
0.0
 20
0.0
 30
0.0
 70
    64
 71
     4
 72
     2
  0
VERTEX
  5
CB3
  8
MADLA
 10
-49.83000000000022
 20
1100.0
 30
21.0
 70
   192
  0
VERTEX
  5
CB4
  8
MADLA
 10
-49.83000000000022
 20
1100.0
 30
3.0
 70
   192
  0
VERTEX
  5
CB5
  8
MADLA
 10
-69.83000000000021
 20
1100.0
 30
3.0
 70
   192
  0
VERTEX
  5
CB6
  8
MADLA
 10
-69.83000000000021
 20
1100.0
 30
21.0
 70
   192
  0
VERTEX
  5
CB7
  8
MADLA
 10
0.0
 20
0.0
 30
0.0
 70
   128
 71
     1
 72
     4
 73
    -3
  0
VERTEX
  5
CB8
  8
MADLA
 10
0.0
 20
0.0
 30
0.0
 70
   128
 71
    -1
 72
     3
 73
     2
  0
SEQEND
  5
F31
  8
MADLA
  0
POLYLINE
  5
CB9
  8
MADLA
 66
     1
 10
0.0
 20
0.0
 30
0.0
 70
    64
 71
    12
 72
    12
  0
VERTEX
  5
CBA
  8
MADLA
 10
-49.83000000000022
 20
1120.0
 30
3.0
 70
   192
  0
VERTEX
  5
CBB
  8
MADLA
 10
-49.83000000000022
 20
1100.0
 30
3.0
 70
   192
  0
VERTEX
  5
CBC
  8
MADLA
 10
-69.83000000000021
 20
1100.0
 30
3.0
 70
   192
  0
VERTEX
  5
CBD
  8
MADLA
 10
-69.83000000000021
 20
1120.0
 30
3.0
 70
   192
  0
VERTEX
  5
CBE
  8
MADLA
 10
-57.33000000000022
 20
1110.0
 30
3.0
 70
   192
  0
VERTEX
  5
CBF
  8
MADLA
 10
-58.06223304703385
 20
1111.767766952967
 30
3.0
 70
   192
  0
VERTEX
  5
CC0
  8
MADLA
 10
-59.83000000000022
 20
1112.5
 30
3.0
 70
   192
  0
VERTEX
  5
CC1
  8
MADLA
 10
-61.59776695296659
 20
1111.767766952967
 30
3.0
 70
   192
  0
VERTEX
  5
CC2
  8
MADLA
 10
-62.33000000000022
 20
1110.0
 30
3.0
 70
   192
  0
VERTEX
  5
CC3
  8
MADLA
 10
-61.59776695296659
 20
1108.232233047034
 30
3.0
 70
   192
  0
VERTEX
  5
CC4
  8
MADLA
 10
-59.83000000000022
 20
1107.5
 30
3.0
 70
   192
  0
VERTEX
  5
CC5
  8
MADLA
 10
-58.06223304703385
 20
1108.232233047034
 30
3.0
 70
   192
  0
VERTEX
  5
CC6
  8
MADLA
 10
0.0
 20
0.0
 30
0.0
 70
   128
 71
    -1
 72
     5
 73
    -6
  0
VERTEX
  5
CC7
  8
MADLA
 10
0.0
 20
0.0
 30
0.0
 70
   128
 71
    -7
 72
     4
 73
    -1
  0
VERTEX
  5
CC8
  8
MADLA
 10
0.0
 20
0.0
 30
0.0
 70
   128
 71
     6
 72
    -7
 73
    -1
  0
VERTEX
  5
CC9
  8
MADLA
 10
0.0
 20
0.0
 30
0.0
 70
   128
 71
     7
 72
    -8
 73
    -4
  0
VERTEX
  5
CCA
  8
MADLA
 10
0.0
 20
0.0
 30
0.0
 70
   128
 71
     8
 72
    -9
 73
    -4
  0
VERTEX
  5
CCB
  8
MADLA
 10
0.0
 20
0.0
 30
0.0
 70
   128
 71
   -10
 72
     3
 73
    -4
  0
VERTEX
  5
CCC
  8
MADLA
 10
0.0
 20
0.0
 30
0.0
 70
   128
 71
     9
 72
   -10
 73
    -4
  0
VERTEX
  5
CCD
  8
MADLA
 10
0.0
 20
0.0
 30
0.0
 70
   128
 71
    10
 72
   -11
 73
    -3
  0
VERTEX
  5
CCE
  8
MADLA
 10
0.0
 20
0.0
 30
0.0
 70
   128
 71
   -12
 72
     2
 73
    -3
  0
VERTEX
  5
CCF
  8
MADLA
 10
0.0
 20
0.0
 30
0.0
 70
   128
 71
    11
 72
   -12
 73
    -3
  0
VERTEX
  5
CD0
  8
MADLA
 10
0.0
 20
0.0
 30
0.0
 70
   128
 71
    -5
 72
     1
 73
    -2
  0
VERTEX
  5
CD1
  8
MADLA
 10
0.0
 20
0.0
 30
0.0
 70
   128
 71
    12
 72
    -5
 73
    -2
  0
SEQEND
  5
F32
  8
MADLA
  0
POLYLINE
  5
CD2
  8
MADLA
 66
     1
 10
0.0
 20
0.0
 30
0.0
 70
    64
 71
     4
 72
     2
  0
VERTEX
  5
CD3
  8
MADLA
 10
-69.83000000000021
 20
920.0000000000002
 30
21.0
 70
   192
  0
VERTEX
  5
CD4
  8
MADLA
 10
-69.83000000000021
 20
920.0000000000002
 30
3.0
 70
   192
  0
VERTEX
  5
CD5
  8
MADLA
 10
-49.83000000000022
 20
920.0000000000002
 30
3.0
 70
   192
  0
VERTEX
  5
CD6
  8
MADLA
 10
-49.83000000000022
 20
920.0000000000002
 30
21.0
 70
   192
  0
VERTEX
  5
CD7
  8
MADLA
 10
0.0
 20
0.0
 30
0.0
 70
   128
 71
     1
 72
     4
 73
    -3
  0
VERTEX
  5
CD8
  8
MADLA
 10
0.0
 20
0.0
 30
0.0
 70
   128
 71
    -1
 72
     3
 73
     2
  0
SEQEND
  5
F33
  8
MADLA
  0
POLYLINE
  5
CD9
  8
MADLA
 66
     1
 10
0.0
 20
0.0
 30
0.0
 70
    64
 71
    12
 72
    12
  0
VERTEX
  5
CDA
  8
MADLA
 10
-49.83000000000022
 20
920.0000000000002
 30
3.0
 70
   192
  0
VERTEX
  5
CDB
  8
MADLA
 10
-69.83000000000021
 20
920.0000000000002
 30
3.0
 70
   192
  0
VERTEX
  5
CDC
  8
MADLA
 10
-69.83000000000021
 20
900.0000000000002
 30
3.0
 70
   192
  0
VERTEX
  5
CDD
  8
MADLA
 10
-49.83000000000022
 20
900.0000000000002
 30
3.0
 70
   192
  0
VERTEX
  5
CDE
  8
MADLA
 10
-57.33000000000022
 20
910.0000000000002
 30
3.0
 70
   192
  0
VERTEX
  5
CDF
  8
MADLA
 10
-58.06223304703385
 20
908.2322330470339
 30
3.0
 70
   192
  0
VERTEX
  5
CE0
  8
MADLA
 10
-59.83000000000022
 20
907.5000000000002
 30
3.0
 70
   192
  0
VERTEX
  5
CE1
  8
MADLA
 10
-61.59776695296659
 20
908.2322330470339
 30
3.0
 70
   192
  0
VERTEX
  5
CE2
  8
MADLA
 10
-62.33000000000022
 20
910.0000000000002
 30
3.0
 70
   192
  0
VERTEX
  5
CE3
  8
MADLA
 10
-61.59776695296659
 20
911.7677669529666
 30
3.0
 70
   192
  0
VERTEX
  5
CE4
  8
MADLA
 10
-59.83000000000022
 20
912.5000000000002
 30
3.0
 70
   192
  0
VERTEX
  5
CE5
  8
MADLA
 10
-58.06223304703385
 20
911.7677669529666
 30
3.0
 70
   192
  0
VERTEX
  5
CE6
  8
MADLA
 10
0.0
 20
0.0
 30
0.0
 70
   128
 71
     6
 72
    -5
 73
    -4
  0
VERTEX
  5
CE7
  8
MADLA
 10
0.0
 20
0.0
 30
0.0
 70
   128
 71
     4
 72
    -3
 73
    -7
  0
VERTEX
  5
CE8
  8
MADLA
 10
0.0
 20
0.0
 30
0.0
 70
   128
 71
    -4
 72
     7
 73
    -6
  0
VERTEX
  5
CE9
  8
MADLA
 10
0.0
 20
0.0
 30
0.0
 70
   128
 71
    -3
 72
     8
 73
    -7
  0
VERTEX
  5
CEA
  8
MADLA
 10
0.0
 20
0.0
 30
0.0
 70
   128
 71
    -3
 72
     9
 73
    -8
  0
VERTEX
  5
CEB
  8
MADLA
 10
0.0
 20
0.0
 30
0.0
 70
   128
 71
     3
 72
    -2
 73
   -10
  0
VERTEX
  5
CEC
  8
MADLA
 10
0.0
 20
0.0
 30
0.0
 70
   128
 71
    -3
 72
    10
 73
    -9
  0
VERTEX
  5
CED
  8
MADLA
 10
0.0
 20
0.0
 30
0.0
 70
   128
 71
    -2
 72
    11
 73
   -10
  0
VERTEX
  5
CEE
  8
MADLA
 10
0.0
 20
0.0
 30
0.0
 70
   128
 71
     2
 72
    -1
 73
   -12
  0
VERTEX
  5
CEF
  8
MADLA
 10
0.0
 20
0.0
 30
0.0
 70
   128
 71
    -2
 72
    12
 73
   -11
  0
VERTEX
  5
CF0
  8
MADLA
 10
0.0
 20
0.0
 30
0.0
 70
   128
 71
     1
 72
    -4
 73
    -5
  0
VERTEX
  5
CF1
  8
MADLA
 10
0.0
 20
0.0
 30
0.0
 70
   128
 71
    -1
 72
     5
 73
   -12
  0
SEQEND
  5
F34
  8
MADLA
  0
POLYLINE
  5
CF2
  8
MADLA
 66
     1
 10
0.0
 20
0.0
 30
0.0
 70
    64
 71
    10
 72
     8
  0
VERTEX
  5
CF3
  8
MADLA
 10
-62.33000000000022
 20
910.0000000000002
 30
8.0
 70
   192
  0
VERTEX
  5
CF4
  8
MADLA
 10
-57.33000000000022
 20
910.0000000000002
 30
8.0
 70
   192
  0
VERTEX
  5
CF5
  8
MADLA
 10
-57.33000000000022
 20
910.0000000000002
 30
3.0
 70
   192
  0
VERTEX
  5
CF6
  8
MADLA
 10
-62.33000000000022
 20
910.0000000000002
 30
3.0
 70
   192
  0
VERTEX
  5
CF7
  8
MADLA
 10
-59.83000000000022
 20
912.5000000000002
 30
3.0
 70
   192
  0
VERTEX
  5
CF8
  8
MADLA
 10
-59.83000000000022
 20
912.5000000000002
 30
8.0
 70
   192
  0
VERTEX
  5
CF9
  8
MADLA
 10
-61.59776695296659
 20
911.7677669529666
 30
3.0
 70
   192
  0
VERTEX
  5
CFA
  8
MADLA
 10
-61.59776695296659
 20
911.7677669529666
 30
8.0
 70
   192
  0
VERTEX
  5
CFB
  8
MADLA
 10
-58.06223304703385
 20
911.7677669529666
 30
3.0
 70
   192
  0
VERTEX
  5
CFC
  8
MADLA
 10
-58.06223304703385
 20
911.7677669529666
 30
8.0
 70
   192
  0
VERTEX
  5
CFD
  8
MADLA
 10
0.0
 20
0.0
 30
0.0
 70
   128
 71
     8
 72
     1
 73
    -4
  0
VERTEX
  5
CFE
  8
MADLA
 10
0.0
 20
0.0
 30
0.0
 70
   128
 71
     7
 72
    -8
 73
     4
  0
VERTEX
  5
CFF
  8
MADLA
 10
0.0
 20
0.0
 30
0.0
 70
   128
 71
     6
 72
     8
 73
    -7
  0
VERTEX
  5
D00
  8
MADLA
 10
0.0
 20
0.0
 30
0.0
 70
   128
 71
     5
 72
    -6
 73
     7
  0
VERTEX
  5
D01
  8
MADLA
 10
0.0
 20
0.0
 30
0.0
 70
   128
 71
    10
 72
     6
 73
    -5
  0
VERTEX
  5
D02
  8
MADLA
 10
0.0
 20
0.0
 30
0.0
 70
   128
 71
     9
 72
   -10
 73
     5
  0
VERTEX
  5
D03
  8
MADLA
 10
0.0
 20
0.0
 30
0.0
 70
   128
 71
     3
 72
     2
 73
   -10
  0
VERTEX
  5
D04
  8
MADLA
 10
0.0
 20
0.0
 30
0.0
 70
   128
 71
     9
 72
    -3
 73
    10
  0
SEQEND
  5
F35
  8
MADLA
  0
POLYLINE
  5
D05
  8
MADLA
 66
     1
 10
0.0
 20
0.0
 30
0.0
 70
    64
 71
     8
 72
     6
  0
VERTEX
  5
D06
  8
MADLA
 10
-62.33000000000022
 20
910.0000000000002
 30
8.0
 70
   192
  0
VERTEX
  5
D07
  8
MADLA
 10
-61.59776695296659
 20
911.7677669529666
 30
8.0
 70
   192
  0
VERTEX
  5
D08
  8
MADLA
 10
-59.83000000000022
 20
912.5000000000002
 30
8.0
 70
   192
  0
VERTEX
  5
D09
  8
MADLA
 10
-58.06223304703385
 20
911.7677669529666
 30
8.0
 70
   192
  0
VERTEX
  5
D0A
  8
MADLA
 10
-57.33000000000022
 20
910.0000000000002
 30
8.0
 70
   192
  0
VERTEX
  5
D0B
  8
MADLA
 10
-58.06223304703385
 20
908.2322330470339
 30
8.0
 70
   192
  0
VERTEX
  5
D0C
  8
MADLA
 10
-59.83000000000022
 20
907.5000000000002
 30
8.0
 70
   192
  0
VERTEX
  5
D0D
  8
MADLA
 10
-61.59776695296659
 20
908.2322330470339
 30
8.0
 70
   192
  0
VERTEX
  5
D0E
  8
MADLA
 10
0.0
 20
0.0
 30
0.0
 70
   128
 71
     7
 72
     8
 73
    -1
  0
VERTEX
  5
D0F
  8
MADLA
 10
0.0
 20
0.0
 30
0.0
 70
   128
 71
     6
 72
    -7
 73
    -1
  0
VERTEX
  5
D10
  8
MADLA
 10
0.0
 20
0.0
 30
0.0
 70
   128
 71
     5
 72
    -6
 73
    -1
  0
VERTEX
  5
D11
  8
MADLA
 10
0.0
 20
0.0
 30
0.0
 70
   128
 71
     4
 72
    -5
 73
    -1
  0
VERTEX
  5
D12
  8
MADLA
 10
0.0
 20
0.0
 30
0.0
 70
   128
 71
     3
 72
    -4
 73
    -1
  0
VERTEX
  5
D13
  8
MADLA
 10
0.0
 20
0.0
 30
0.0
 70
   128
 71
     2
 72
    -3
 73
     1
  0
SEQEND
  5
F36
  8
MADLA
  0
POLYLINE
  5
D14
  8
MADLA
 66
     1
 10
0.0
 20
0.0
 30
0.0
 70
    64
 71
    10
 72
     8
  0
VERTEX
  5
D15
  8
MADLA
 10
-62.33000000000022
 20
1110.0
 30
8.0
 70
   192
  0
VERTEX
  5
D16
  8
MADLA
 10
-57.33000000000022
 20
1110.0
 30
8.0
 70
   192
  0
VERTEX
  5
D17
  8
MADLA
 10
-57.33000000000022
 20
1110.0
 30
3.0
 70
   192
  0
VERTEX
  5
D18
  8
MADLA
 10
-62.33000000000022
 20
1110.0
 30
3.0
 70
   192
  0
VERTEX
  5
D19
  8
MADLA
 10
-59.83000000000022
 20
1112.5
 30
3.0
 70
   192
  0
VERTEX
  5
D1A
  8
MADLA
 10
-59.83000000000022
 20
1112.5
 30
8.0
 70
   192
  0
VERTEX
  5
D1B
  8
MADLA
 10
-61.59776695296659
 20
1111.767766952967
 30
3.0
 70
   192
  0
VERTEX
  5
D1C
  8
MADLA
 10
-61.59776695296659
 20
1111.767766952967
 30
8.0
 70
   192
  0
VERTEX
  5
D1D
  8
MADLA
 10
-58.06223304703385
 20
1111.767766952967
 30
3.0
 70
   192
  0
VERTEX
  5
D1E
  8
MADLA
 10
-58.06223304703385
 20
1111.767766952967
 30
8.0
 70
   192
  0
VERTEX
  5
D1F
  8
MADLA
 10
0.0
 20
0.0
 30
0.0
 70
   128
 71
     8
 72
     1
 73
    -4
  0
VERTEX
  5
D20
  8
MADLA
 10
0.0
 20
0.0
 30
0.0
 70
   128
 71
     7
 72
    -8
 73
     4
  0
VERTEX
  5
D21
  8
MADLA
 10
0.0
 20
0.0
 30
0.0
 70
   128
 71
     6
 72
     8
 73
    -7
  0
VERTEX
  5
D22
  8
MADLA
 10
0.0
 20
0.0
 30
0.0
 70
   128
 71
     5
 72
    -6
 73
     7
  0
VERTEX
  5
D23
  8
MADLA
 10
0.0
 20
0.0
 30
0.0
 70
   128
 71
    10
 72
     6
 73
    -5
  0
VERTEX
  5
D24
  8
MADLA
 10
0.0
 20
0.0
 30
0.0
 70
   128
 71
     9
 72
   -10
 73
     5
  0
VERTEX
  5
D25
  8
MADLA
 10
0.0
 20
0.0
 30
0.0
 70
   128
 71
     3
 72
     2
 73
   -10
  0
VERTEX
  5
D26
  8
MADLA
 10
0.0
 20
0.0
 30
0.0
 70
   128
 71
     9
 72
    -3
 73
    10
  0
SEQEND
  5
F37
  8
MADLA
  0
POLYLINE
  5
D27
  8
MADLA
 66
     1
 10
0.0
 20
0.0
 30
0.0
 70
    64
 71
     8
 72
     6
  0
VERTEX
  5
D28
  8
MADLA
 10
-62.33000000000022
 20
1110.0
 30
8.0
 70
   192
  0
VERTEX
  5
D29
  8
MADLA
 10
-61.59776695296659
 20
1111.767766952967
 30
8.0
 70
   192
  0
VERTEX
  5
D2A
  8
MADLA
 10
-59.83000000000022
 20
1112.5
 30
8.0
 70
   192
  0
VERTEX
  5
D2B
  8
MADLA
 10
-58.06223304703385
 20
1111.767766952967
 30
8.0
 70
   192
  0
VERTEX
  5
D2C
  8
MADLA
 10
-57.33000000000022
 20
1110.0
 30
8.0
 70
   192
  0
VERTEX
  5
D2D
  8
MADLA
 10
-58.06223304703385
 20
1108.232233047034
 30
8.0
 70
   192
  0
VERTEX
  5
D2E
  8
MADLA
 10
-59.83000000000022
 20
1107.5
 30
8.0
 70
   192
  0
VERTEX
  5
D2F
  8
MADLA
 10
-61.59776695296659
 20
1108.232233047034
 30
8.0
 70
   192
  0
VERTEX
  5
D30
  8
MADLA
 10
0.0
 20
0.0
 30
0.0
 70
   128
 71
     7
 72
     8
 73
    -1
  0
VERTEX
  5
D31
  8
MADLA
 10
0.0
 20
0.0
 30
0.0
 70
   128
 71
     6
 72
    -7
 73
    -1
  0
VERTEX
  5
D32
  8
MADLA
 10
0.0
 20
0.0
 30
0.0
 70
   128
 71
     5
 72
    -6
 73
    -1
  0
VERTEX
  5
D33
  8
MADLA
 10
0.0
 20
0.0
 30
0.0
 70
   128
 71
     4
 72
    -5
 73
    -1
  0
VERTEX
  5
D34
  8
MADLA
 10
0.0
 20
0.0
 30
0.0
 70
   128
 71
     3
 72
    -4
 73
    -1
  0
VERTEX
  5
D35
  8
MADLA
 10
0.0
 20
0.0
 30
0.0
 70
   128
 71
     2
 72
    -3
 73
     1
  0
SEQEND
  5
F38
  8
MADLA
  0
ENDBLK
  5
F28
  8
0
  0
BLOCK
  8
0
  2
*X8
 70
     1
 10
0.0
 20
0.0
 30
0.0
  3
*X8
  1

  0
POLYLINE
  5
D37
  8
MADLA
 66
     1
 10
0.0
 20
0.0
 30
0.0
 70
    64
 71
    10
 72
     8
  0
VERTEX
  5
D38
  8
MADLA
 10
-62.33000000000027
 20
1110.0
 30
-8.000000000000004
 70
   192
  0
VERTEX
  5
D39
  8
MADLA
 10
-57.33000000000027
 20
1110.0
 30
-8.000000000000004
 70
   192
  0
VERTEX
  5
D3A
  8
MADLA
 10
-57.33000000000027
 20
1110.0
 30
-3.000000000000004
 70
   192
  0
VERTEX
  5
D3B
  8
MADLA
 10
-62.33000000000027
 20
1110.0
 30
-3.000000000000004
 70
   192
  0
VERTEX
  5
D3C
  8
MADLA
 10
-59.83000000000027
 20
1107.5
 30
-3.000000000000004
 70
   192
  0
VERTEX
  5
D3D
  8
MADLA
 10
-59.83000000000027
 20
1107.5
 30
-8.000000000000004
 70
   192
  0
VERTEX
  5
D3E
  8
MADLA
 10
-61.59776695296664
 20
1108.232233047034
 30
-3.000000000000004
 70
   192
  0
VERTEX
  5
D3F
  8
MADLA
 10
-61.59776695296664
 20
1108.232233047034
 30
-8.000000000000004
 70
   192
  0
VERTEX
  5
D40
  8
MADLA
 10
-58.0622330470339
 20
1108.232233047034
 30
-3.000000000000004
 70
   192
  0
VERTEX
  5
D41
  8
MADLA
 10
-58.0622330470339
 20
1108.232233047034
 30
-8.000000000000004
 70
   192
  0
VERTEX
  5
D42
  8
MADLA
 10
0.0
 20
0.0
 30
0.0
 70
   128
 71
     8
 72
     1
 73
    -4
  0
VERTEX
  5
D43
  8
MADLA
 10
0.0
 20
0.0
 30
0.0
 70
   128
 71
     7
 72
    -8
 73
     4
  0
VERTEX
  5
D44
  8
MADLA
 10
0.0
 20
0.0
 30
0.0
 70
   128
 71
     6
 72
     8
 73
    -7
  0
VERTEX
  5
D45
  8
MADLA
 10
0.0
 20
0.0
 30
0.0
 70
   128
 71
     5
 72
    -6
 73
     7
  0
VERTEX
  5
D46
  8
MADLA
 10
0.0
 20
0.0
 30
0.0
 70
   128
 71
    10
 72
     6
 73
    -5
  0
VERTEX
  5
D47
  8
MADLA
 10
0.0
 20
0.0
 30
0.0
 70
   128
 71
     9
 72
   -10
 73
     5
  0
VERTEX
  5
D48
  8
MADLA
 10
0.0
 20
0.0
 30
0.0
 70
   128
 71
     2
 72
    10
 73
    -9
  0
VERTEX
  5
D49
  8
MADLA
 10
0.0
 20
0.0
 30
0.0
 70
   128
 71
     3
 72
    -2
 73
     9
  0
SEQEND
  5
F3B
  8
MADLA
  0
POLYLINE
  5
D4A
  8
MADLA
 66
     1
 10
0.0
 20
0.0
 30
0.0
 70
    64
 71
    10
 72
     8
  0
VERTEX
  5
D4B
  8
MADLA
 10
-62.33000000000025
 20
910.0000000000002
 30
-8.000000000000004
 70
   192
  0
VERTEX
  5
D4C
  8
MADLA
 10
-57.33000000000025
 20
910.0000000000002
 30
-8.000000000000004
 70
   192
  0
VERTEX
  5
D4D
  8
MADLA
 10
-57.33000000000025
 20
910.0000000000002
 30
-3.000000000000004
 70
   192
  0
VERTEX
  5
D4E
  8
MADLA
 10
-62.33000000000025
 20
910.0000000000002
 30
-3.000000000000004
 70
   192
  0
VERTEX
  5
D4F
  8
MADLA
 10
-59.83000000000025
 20
907.5000000000002
 30
-3.000000000000004
 70
   192
  0
VERTEX
  5
D50
  8
MADLA
 10
-59.83000000000025
 20
907.5000000000002
 30
-8.000000000000004
 70
   192
  0
VERTEX
  5
D51
  8
MADLA
 10
-61.59776695296662
 20
908.2322330470339
 30
-3.000000000000004
 70
   192
  0
VERTEX
  5
D52
  8
MADLA
 10
-61.59776695296662
 20
908.2322330470339
 30
-8.000000000000004
 70
   192
  0
VERTEX
  5
D53
  8
MADLA
 10
-58.06223304703388
 20
908.2322330470339
 30
-3.000000000000004
 70
   192
  0
VERTEX
  5
D54
  8
MADLA
 10
-58.06223304703388
 20
908.2322330470339
 30
-8.000000000000004
 70
   192
  0
VERTEX
  5
D55
  8
MADLA
 10
0.0
 20
0.0
 30
0.0
 70
   128
 71
     8
 72
     1
 73
    -4
  0
VERTEX
  5
D56
  8
MADLA
 10
0.0
 20
0.0
 30
0.0
 70
   128
 71
     7
 72
    -8
 73
     4
  0
VERTEX
  5
D57
  8
MADLA
 10
0.0
 20
0.0
 30
0.0
 70
   128
 71
     6
 72
     8
 73
    -7
  0
VERTEX
  5
D58
  8
MADLA
 10
0.0
 20
0.0
 30
0.0
 70
   128
 71
     5
 72
    -6
 73
     7
  0
VERTEX
  5
D59
  8
MADLA
 10
0.0
 20
0.0
 30
0.0
 70
   128
 71
    10
 72
     6
 73
    -5
  0
VERTEX
  5
D5A
  8
MADLA
 10
0.0
 20
0.0
 30
0.0
 70
   128
 71
     9
 72
   -10
 73
     5
  0
VERTEX
  5
D5B
  8
MADLA
 10
0.0
 20
0.0
 30
0.0
 70
   128
 71
     2
 72
    10
 73
    -9
  0
VERTEX
  5
D5C
  8
MADLA
 10
0.0
 20
0.0
 30
0.0
 70
   128
 71
     3
 72
    -2
 73
     9
  0
SEQEND
  5
F3C
  8
MADLA
  0
POLYLINE
  5
D5D
  8
MADLA
 66
     1
 10
0.0
 20
0.0
 30
0.0
 70
    64
 71
     4
 72
     2
  0
VERTEX
  5
D5E
  8
MADLA
 10
-69.83000000000025
 20
920.0000000000002
 30
-21.00000000000001
 70
   192
  0
VERTEX
  5
D5F
  8
MADLA
 10
-69.83000000000027
 20
1100.0
 30
-21.00000000000001
 70
   192
  0
VERTEX
  5
D60
  8
MADLA
 10
-49.83000000000028
 20
1100.0
 30
-21.00000000000001
 70
   192
  0
VERTEX
  5
D61
  8
MADLA
 10
-49.83000000000025
 20
920.0000000000002
 30
-21.00000000000001
 70
   192
  0
VERTEX
  5
D62
  8
MADLA
 10
0.0
 20
0.0
 30
0.0
 70
   128
 71
     1
 72
     4
 73
    -3
  0
VERTEX
  5
D63
  8
MADLA
 10
0.0
 20
0.0
 30
0.0
 70
   128
 71
    -1
 72
     3
 73
     2
  0
SEQEND
  5
F3D
  8
MADLA
  0
POLYLINE
  5
D64
  8
MADLA
 66
     1
 10
0.0
 20
0.0
 30
0.0
 70
    64
 71
     8
 72
     6
  0
VERTEX
  5
D65
  8
MADLA
 10
-49.83000000000025
 20
900.0000000000002
 30
-31.00000000000001
 70
   192
  0
VERTEX
  5
D66
  8
MADLA
 10
-49.83000000000028
 20
1120.0
 30
-31.00000000000001
 70
   192
  0
VERTEX
  5
D67
  8
MADLA
 10
-49.83000000000027
 20
1120.0
 30
-3.000000000000004
 70
   192
  0
VERTEX
  5
D68
  8
MADLA
 10
-49.83000000000027
 20
1100.0
 30
-3.000000000000004
 70
   192
  0
VERTEX
  5
D69
  8
MADLA
 10
-49.83000000000027
 20
1100.0
 30
-21.00000000000001
 70
   192
  0
VERTEX
  5
D6A
  8
MADLA
 10
-49.83000000000025
 20
920.0000000000002
 30
-21.00000000000001
 70
   192
  0
VERTEX
  5
D6B
  8
MADLA
 10
-49.83000000000025
 20
920.0000000000002
 30
-3.000000000000004
 70
   192
  0
VERTEX
  5
D6C
  8
MADLA
 10
-49.83000000000025
 20
900.0000000000002
 30
-3.000000000000004
 70
   192
  0
VERTEX
  5
D6D
  8
MADLA
 10
0.0
 20
0.0
 30
0.0
 70
   128
 71
     3
 72
     4
 73
    -5
  0
VERTEX
  5
D6E
  8
MADLA
 10
0.0
 20
0.0
 30
0.0
 70
   128
 71
     2
 72
    -3
 73
    -5
  0
VERTEX
  5
D6F
  8
MADLA
 10
0.0
 20
0.0
 30
0.0
 70
   128
 71
    -6
 72
     1
 73
    -2
  0
VERTEX
  5
D70
  8
MADLA
 10
0.0
 20
0.0
 30
0.0
 70
   128
 71
     5
 72
    -6
 73
    -2
  0
VERTEX
  5
D71
  8
MADLA
 10
0.0
 20
0.0
 30
0.0
 70
   128
 71
     7
 72
     8
 73
    -1
  0
VERTEX
  5
D72
  8
MADLA
 10
0.0
 20
0.0
 30
0.0
 70
   128
 71
     6
 72
    -7
 73
    -1
  0
SEQEND
  5
F3E
  8
MADLA
  0
POLYLINE
  5
D73
  8
MADLA
 66
     1
 10
0.0
 20
0.0
 30
0.0
 70
    64
 71
     4
 72
     2
  0
VERTEX
  5
D74
  8
MADLA
 10
-49.83000000000027
 20
1120.0
 30
-31.00000000000001
 70
   192
  0
VERTEX
  5
D75
  8
MADLA
 10
-69.83000000000027
 20
1120.0
 30
-31.00000000000001
 70
   192
  0
VERTEX
  5
D76
  8
MADLA
 10
-69.83000000000027
 20
1120.0
 30
-3.000000000000004
 70
   192
  0
VERTEX
  5
D77
  8
MADLA
 10
-49.83000000000027
 20
1120.0
 30
-3.000000000000005
 70
   192
  0
VERTEX
  5
D78
  8
MADLA
 10
0.0
 20
0.0
 30
0.0
 70
   128
 71
     3
 72
     4
 73
    -1
  0
VERTEX
  5
D79
  8
MADLA
 10
0.0
 20
0.0
 30
0.0
 70
   128
 71
     2
 72
    -3
 73
     1
  0
SEQEND
  5
F3F
  8
MADLA
  0
POLYLINE
  5
D7A
  8
MADLA
 66
     1
 10
0.0
 20
0.0
 30
0.0
 70
    64
 71
     8
 72
     6
  0
VERTEX
  5
D7B
  8
MADLA
 10
-69.83000000000028
 20
1120.0
 30
-31.00000000000001
 70
   192
  0
VERTEX
  5
D7C
  8
MADLA
 10
-69.83000000000025
 20
900.0000000000002
 30
-31.00000000000001
 70
   192
  0
VERTEX
  5
D7D
  8
MADLA
 10
-69.83000000000025
 20
900.0000000000002
 30
-3.000000000000004
 70
   192
  0
VERTEX
  5
D7E
  8
MADLA
 10
-69.83000000000025
 20
920.0000000000002
 30
-3.000000000000004
 70
   192
  0
VERTEX
  5
D7F
  8
MADLA
 10
-69.83000000000025
 20
920.0000000000002
 30
-21.00000000000001
 70
   192
  0
VERTEX
  5
D80
  8
MADLA
 10
-69.83000000000027
 20
1100.0
 30
-21.00000000000001
 70
   192
  0
VERTEX
  5
D81
  8
MADLA
 10
-69.83000000000027
 20
1100.0
 30
-3.000000000000004
 70
   192
  0
VERTEX
  5
D82
  8
MADLA
 10
-69.83000000000027
 20
1120.0
 30
-3.000000000000004
 70
   192
  0
VERTEX
  5
D83
  8
MADLA
 10
0.0
 20
0.0
 30
0.0
 70
   128
 71
     3
 72
     4
 73
    -5
  0
VERTEX
  5
D84
  8
MADLA
 10
0.0
 20
0.0
 30
0.0
 70
   128
 71
     2
 72
    -3
 73
    -5
  0
VERTEX
  5
D85
  8
MADLA
 10
0.0
 20
0.0
 30
0.0
 70
   128
 71
    -6
 72
     1
 73
    -2
  0
VERTEX
  5
D86
  8
MADLA
 10
0.0
 20
0.0
 30
0.0
 70
   128
 71
     5
 72
    -6
 73
    -2
  0
VERTEX
  5
D87
  8
MADLA
 10
0.0
 20
0.0
 30
0.0
 70
   128
 71
     7
 72
     8
 73
    -1
  0
VERTEX
  5
D88
  8
MADLA
 10
0.0
 20
0.0
 30
0.0
 70
   128
 71
     6
 72
    -7
 73
    -1
  0
SEQEND
  5
F40
  8
MADLA
  0
POLYLINE
  5
D89
  8
MADLA
 66
     1
 10
0.0
 20
0.0
 30
0.0
 70
    64
 71
     4
 72
     2
  0
VERTEX
  5
D8A
  8
MADLA
 10
-69.83000000000025
 20
900.0000000000002
 30
-31.00000000000001
 70
   192
  0
VERTEX
  5
D8B
  8
MADLA
 10
-49.83000000000025
 20
900.0000000000002
 30
-31.00000000000001
 70
   192
  0
VERTEX
  5
D8C
  8
MADLA
 10
-49.83000000000025
 20
900.0000000000002
 30
-3.000000000000004
 70
   192
  0
VERTEX
  5
D8D
  8
MADLA
 10
-69.83000000000025
 20
900.0000000000002
 30
-3.000000000000004
 70
   192
  0
VERTEX
  5
D8E
  8
MADLA
 10
0.0
 20
0.0
 30
0.0
 70
   128
 71
     3
 72
     4
 73
    -1
  0
VERTEX
  5
D8F
  8
MADLA
 10
0.0
 20
0.0
 30
0.0
 70
   128
 71
     2
 72
    -3
 73
     1
  0
SEQEND
  5
F41
  8
MADLA
  0
POLYLINE
  5
D90
  8
MADLA
 66
     1
 10
0.0
 20
0.0
 30
0.0
 70
    64
 71
     4
 72
     2
  0
VERTEX
  5
D91
  8
MADLA
 10
-49.83000000000028
 20
1120.0
 30
-31.00000000000001
 70
   192
  0
VERTEX
  5
D92
  8
MADLA
 10
-49.83000000000025
 20
900.0000000000002
 30
-31.00000000000001
 70
   192
  0
VERTEX
  5
D93
  8
MADLA
 10
-69.83000000000025
 20
900.0000000000002
 30
-31.00000000000001
 70
   192
  0
VERTEX
  5
D94
  8
MADLA
 10
-69.83000000000028
 20
1120.0
 30
-31.00000000000001
 70
   192
  0
VERTEX
  5
D95
  8
MADLA
 10
0.0
 20
0.0
 30
0.0
 70
   128
 71
     3
 72
     4
 73
    -1
  0
VERTEX
  5
D96
  8
MADLA
 10
0.0
 20
0.0
 30
0.0
 70
   128
 71
     2
 72
    -3
 73
     1
  0
SEQEND
  5
F42
  8
MADLA
  0
POLYLINE
  5
D97
  8
MADLA
 66
     1
 10
0.0
 20
0.0
 30
0.0
 70
    64
 71
     4
 72
     2
  0
VERTEX
  5
D98
  8
MADLA
 10
-69.83000000000027
 20
1100.0
 30
-21.00000000000001
 70
   192
  0
VERTEX
  5
D99
  8
MADLA
 10
-69.83000000000027
 20
1100.0
 30
-3.000000000000004
 70
   192
  0
VERTEX
  5
D9A
  8
MADLA
 10
-49.83000000000027
 20
1100.0
 30
-3.000000000000004
 70
   192
  0
VERTEX
  5
D9B
  8
MADLA
 10
-49.83000000000027
 20
1100.0
 30
-21.00000000000001
 70
   192
  0
VERTEX
  5
D9C
  8
MADLA
 10
0.0
 20
0.0
 30
0.0
 70
   128
 71
     1
 72
     4
 73
    -3
  0
VERTEX
  5
D9D
  8
MADLA
 10
0.0
 20
0.0
 30
0.0
 70
   128
 71
    -1
 72
     3
 73
     2
  0
SEQEND
  5
F43
  8
MADLA
  0
POLYLINE
  5
D9E
  8
MADLA
 66
     1
 10
0.0
 20
0.0
 30
0.0
 70
    64
 71
    12
 72
    12
  0
VERTEX
  5
D9F
  8
MADLA
 10
-69.83000000000027
 20
1120.0
 30
-3.000000000000004
 70
   192
  0
VERTEX
  5
DA0
  8
MADLA
 10
-69.83000000000027
 20
1100.0
 30
-3.000000000000004
 70
   192
  0
VERTEX
  5
DA1
  8
MADLA
 10
-49.83000000000027
 20
1100.0
 30
-3.000000000000005
 70
   192
  0
VERTEX
  5
DA2
  8
MADLA
 10
-49.83000000000027
 20
1120.0
 30
-3.000000000000004
 70
   192
  0
VERTEX
  5
DA3
  8
MADLA
 10
-62.33000000000027
 20
1110.0
 30
-3.000000000000004
 70
   192
  0
VERTEX
  5
DA4
  8
MADLA
 10
-61.59776695296664
 20
1111.767766952967
 30
-3.000000000000004
 70
   192
  0
VERTEX
  5
DA5
  8
MADLA
 10
-59.83000000000027
 20
1112.5
 30
-3.000000000000004
 70
   192
  0
VERTEX
  5
DA6
  8
MADLA
 10
-58.0622330470339
 20
1111.767766952967
 30
-3.000000000000004
 70
   192
  0
VERTEX
  5
DA7
  8
MADLA
 10
-57.33000000000027
 20
1110.0
 30
-3.000000000000004
 70
   192
  0
VERTEX
  5
DA8
  8
MADLA
 10
-58.0622330470339
 20
1108.232233047034
 30
-3.000000000000004
 70
   192
  0
VERTEX
  5
DA9
  8
MADLA
 10
-59.83000000000027
 20
1107.5
 30
-3.000000000000004
 70
   192
  0
VERTEX
  5
DAA
  8
MADLA
 10
-61.59776695296664
 20
1108.232233047034
 30
-3.000000000000004
 70
   192
  0
VERTEX
  5
DAB
  8
MADLA
 10
0.0
 20
0.0
 30
0.0
 70
   128
 71
    -1
 72
     5
 73
    -6
  0
VERTEX
  5
DAC
  8
MADLA
 10
0.0
 20
0.0
 30
0.0
 70
   128
 71
    -7
 72
     4
 73
    -1
  0
VERTEX
  5
DAD
  8
MADLA
 10
0.0
 20
0.0
 30
0.0
 70
   128
 71
     6
 72
    -7
 73
    -1
  0
VERTEX
  5
DAE
  8
MADLA
 10
0.0
 20
0.0
 30
0.0
 70
   128
 71
     7
 72
    -8
 73
    -4
  0
VERTEX
  5
DAF
  8
MADLA
 10
0.0
 20
0.0
 30
0.0
 70
   128
 71
     8
 72
    -9
 73
    -4
  0
VERTEX
  5
DB0
  8
MADLA
 10
0.0
 20
0.0
 30
0.0
 70
   128
 71
   -10
 72
     3
 73
    -4
  0
VERTEX
  5
DB1
  8
MADLA
 10
0.0
 20
0.0
 30
0.0
 70
   128
 71
     9
 72
   -10
 73
    -4
  0
VERTEX
  5
DB2
  8
MADLA
 10
0.0
 20
0.0
 30
0.0
 70
   128
 71
   -11
 72
     2
 73
    -3
  0
VERTEX
  5
DB3
  8
MADLA
 10
0.0
 20
0.0
 30
0.0
 70
   128
 71
    10
 72
   -11
 73
    -3
  0
VERTEX
  5
DB4
  8
MADLA
 10
0.0
 20
0.0
 30
0.0
 70
   128
 71
    11
 72
   -12
 73
    -2
  0
VERTEX
  5
DB5
  8
MADLA
 10
0.0
 20
0.0
 30
0.0
 70
   128
 71
    -5
 72
     1
 73
    -2
  0
VERTEX
  5
DB6
  8
MADLA
 10
0.0
 20
0.0
 30
0.0
 70
   128
 71
    12
 72
    -5
 73
    -2
  0
SEQEND
  5
F44
  8
MADLA
  0
POLYLINE
  5
DB7
  8
MADLA
 66
     1
 10
0.0
 20
0.0
 30
0.0
 70
    64
 71
     4
 72
     2
  0
VERTEX
  5
DB8
  8
MADLA
 10
-49.83000000000025
 20
920.0000000000002
 30
-21.00000000000001
 70
   192
  0
VERTEX
  5
DB9
  8
MADLA
 10
-49.83000000000025
 20
920.0000000000002
 30
-3.000000000000005
 70
   192
  0
VERTEX
  5
DBA
  8
MADLA
 10
-69.83000000000025
 20
920.0000000000002
 30
-3.000000000000004
 70
   192
  0
VERTEX
  5
DBB
  8
MADLA
 10
-69.83000000000025
 20
920.0000000000002
 30
-21.00000000000001
 70
   192
  0
VERTEX
  5
DBC
  8
MADLA
 10
0.0
 20
0.0
 30
0.0
 70
   128
 71
     1
 72
     4
 73
    -3
  0
VERTEX
  5
DBD
  8
MADLA
 10
0.0
 20
0.0
 30
0.0
 70
   128
 71
    -1
 72
     3
 73
     2
  0
SEQEND
  5
F45
  8
MADLA
  0
POLYLINE
  5
DBE
  8
MADLA
 66
     1
 10
0.0
 20
0.0
 30
0.0
 70
    64
 71
    12
 72
    12
  0
VERTEX
  5
DBF
  8
MADLA
 10
-69.83000000000025
 20
920.0000000000002
 30
-3.000000000000004
 70
   192
  0
VERTEX
  5
DC0
  8
MADLA
 10
-49.83000000000025
 20
920.0000000000002
 30
-3.000000000000004
 70
   192
  0
VERTEX
  5
DC1
  8
MADLA
 10
-49.83000000000025
 20
900.0000000000002
 30
-3.000000000000005
 70
   192
  0
VERTEX
  5
DC2
  8
MADLA
 10
-69.83000000000025
 20
900.0000000000002
 30
-3.000000000000004
 70
   192
  0
VERTEX
  5
DC3
  8
MADLA
 10
-62.33000000000025
 20
910.0000000000002
 30
-3.000000000000004
 70
   192
  0
VERTEX
  5
DC4
  8
MADLA
 10
-61.59776695296662
 20
908.2322330470339
 30
-3.000000000000004
 70
   192
  0
VERTEX
  5
DC5
  8
MADLA
 10
-59.83000000000025
 20
907.5000000000002
 30
-3.000000000000004
 70
   192
  0
VERTEX
  5
DC6
  8
MADLA
 10
-58.06223304703388
 20
908.2322330470339
 30
-3.000000000000004
 70
   192
  0
VERTEX
  5
DC7
  8
MADLA
 10
-57.33000000000025
 20
910.0000000000002
 30
-3.000000000000004
 70
   192
  0
VERTEX
  5
DC8
  8
MADLA
 10
-58.06223304703388
 20
911.7677669529666
 30
-3.000000000000004
 70
   192
  0
VERTEX
  5
DC9
  8
MADLA
 10
-59.83000000000025
 20
912.5000000000002
 30
-3.000000000000004
 70
   192
  0
VERTEX
  5
DCA
  8
MADLA
 10
-61.59776695296662
 20
911.7677669529666
 30
-3.000000000000004
 70
   192
  0
VERTEX
  5
DCB
  8
MADLA
 10
0.0
 20
0.0
 30
0.0
 70
   128
 71
     6
 72
    -5
 73
    -4
  0
VERTEX
  5
DCC
  8
MADLA
 10
0.0
 20
0.0
 30
0.0
 70
   128
 71
     4
 72
    -3
 73
    -7
  0
VERTEX
  5
DCD
  8
MADLA
 10
0.0
 20
0.0
 30
0.0
 70
   128
 71
    -4
 72
     7
 73
    -6
  0
VERTEX
  5
DCE
  8
MADLA
 10
0.0
 20
0.0
 30
0.0
 70
   128
 71
    -3
 72
     8
 73
    -7
  0
VERTEX
  5
DCF
  8
MADLA
 10
0.0
 20
0.0
 30
0.0
 70
   128
 71
    -3
 72
     9
 73
    -8
  0
VERTEX
  5
DD0
  8
MADLA
 10
0.0
 20
0.0
 30
0.0
 70
   128
 71
     3
 72
    -2
 73
   -10
  0
VERTEX
  5
DD1
  8
MADLA
 10
0.0
 20
0.0
 30
0.0
 70
   128
 71
    -3
 72
    10
 73
    -9
  0
VERTEX
  5
DD2
  8
MADLA
 10
0.0
 20
0.0
 30
0.0
 70
   128
 71
    -2
 72
    11
 73
   -10
  0
VERTEX
  5
DD3
  8
MADLA
 10
0.0
 20
0.0
 30
0.0
 70
   128
 71
     2
 72
    -1
 73
   -12
  0
VERTEX
  5
DD4
  8
MADLA
 10
0.0
 20
0.0
 30
0.0
 70
   128
 71
    -2
 72
    12
 73
   -11
  0
VERTEX
  5
DD5
  8
MADLA
 10
0.0
 20
0.0
 30
0.0
 70
   128
 71
     1
 72
    -4
 73
    -5
  0
VERTEX
  5
DD6
  8
MADLA
 10
0.0
 20
0.0
 30
0.0
 70
   128
 71
    -1
 72
     5
 73
   -12
  0
SEQEND
  5
F46
  8
MADLA
  0
POLYLINE
  5
DD7
  8
MADLA
 66
     1
 10
0.0
 20
0.0
 30
0.0
 70
    64
 71
    10
 72
     8
  0
VERTEX
  5
DD8
  8
MADLA
 10
-57.33000000000025
 20
910.0000000000002
 30
-8.000000000000004
 70
   192
  0
VERTEX
  5
DD9
  8
MADLA
 10
-62.33000000000025
 20
910.0000000000002
 30
-8.000000000000004
 70
   192
  0
VERTEX
  5
DDA
  8
MADLA
 10
-62.33000000000025
 20
910.0000000000002
 30
-3.000000000000004
 70
   192
  0
VERTEX
  5
DDB
  8
MADLA
 10
-57.33000000000025
 20
910.0000000000002
 30
-3.000000000000004
 70
   192
  0
VERTEX
  5
DDC
  8
MADLA
 10
-59.83000000000025
 20
912.5000000000002
 30
-3.000000000000004
 70
   192
  0
VERTEX
  5
DDD
  8
MADLA
 10
-59.83000000000025
 20
912.5000000000002
 30
-8.000000000000004
 70
   192
  0
VERTEX
  5
DDE
  8
MADLA
 10
-58.06223304703388
 20
911.7677669529666
 30
-3.000000000000004
 70
   192
  0
VERTEX
  5
DDF
  8
MADLA
 10
-58.06223304703388
 20
911.7677669529666
 30
-8.000000000000004
 70
   192
  0
VERTEX
  5
DE0
  8
MADLA
 10
-61.59776695296662
 20
911.7677669529666
 30
-3.000000000000004
 70
   192
  0
VERTEX
  5
DE1
  8
MADLA
 10
-61.59776695296662
 20
911.7677669529666
 30
-8.000000000000004
 70
   192
  0
VERTEX
  5
DE2
  8
MADLA
 10
0.0
 20
0.0
 30
0.0
 70
   128
 71
     8
 72
     1
 73
    -4
  0
VERTEX
  5
DE3
  8
MADLA
 10
0.0
 20
0.0
 30
0.0
 70
   128
 71
     7
 72
    -8
 73
     4
  0
VERTEX
  5
DE4
  8
MADLA
 10
0.0
 20
0.0
 30
0.0
 70
   128
 71
     6
 72
     8
 73
    -7
  0
VERTEX
  5
DE5
  8
MADLA
 10
0.0
 20
0.0
 30
0.0
 70
   128
 71
     5
 72
    -6
 73
     7
  0
VERTEX
  5
DE6
  8
MADLA
 10
0.0
 20
0.0
 30
0.0
 70
   128
 71
    10
 72
     6
 73
    -5
  0
VERTEX
  5
DE7
  8
MADLA
 10
0.0
 20
0.0
 30
0.0
 70
   128
 71
     9
 72
   -10
 73
     5
  0
VERTEX
  5
DE8
  8
MADLA
 10
0.0
 20
0.0
 30
0.0
 70
   128
 71
     3
 72
     2
 73
   -10
  0
VERTEX
  5
DE9
  8
MADLA
 10
0.0
 20
0.0
 30
0.0
 70
   128
 71
     9
 72
    -3
 73
    10
  0
SEQEND
  5
F47
  8
MADLA
  0
POLYLINE
  5
DEA
  8
MADLA
 66
     1
 10
0.0
 20
0.0
 30
0.0
 70
    64
 71
     8
 72
     6
  0
VERTEX
  5
DEB
  8
MADLA
 10
-57.33000000000025
 20
910.0000000000002
 30
-8.000000000000004
 70
   192
  0
VERTEX
  5
DEC
  8
MADLA
 10
-58.06223304703388
 20
911.7677669529666
 30
-8.000000000000004
 70
   192
  0
VERTEX
  5
DED
  8
MADLA
 10
-59.83000000000025
 20
912.5000000000002
 30
-8.000000000000004
 70
   192
  0
VERTEX
  5
DEE
  8
MADLA
 10
-61.59776695296662
 20
911.7677669529666
 30
-8.000000000000004
 70
   192
  0
VERTEX
  5
DEF
  8
MADLA
 10
-62.33000000000025
 20
910.0000000000002
 30
-8.000000000000004
 70
   192
  0
VERTEX
  5
DF0
  8
MADLA
 10
-61.59776695296662
 20
908.2322330470339
 30
-8.000000000000004
 70
   192
  0
VERTEX
  5
DF1
  8
MADLA
 10
-59.83000000000025
 20
907.5000000000002
 30
-8.000000000000004
 70
   192
  0
VERTEX
  5
DF2
  8
MADLA
 10
-58.06223304703388
 20
908.2322330470339
 30
-8.000000000000004
 70
   192
  0
VERTEX
  5
DF3
  8
MADLA
 10
0.0
 20
0.0
 30
0.0
 70
   128
 71
     7
 72
     8
 73
    -1
  0
VERTEX
  5
DF4
  8
MADLA
 10
0.0
 20
0.0
 30
0.0
 70
   128
 71
     6
 72
    -7
 73
    -1
  0
VERTEX
  5
DF5
  8
MADLA
 10
0.0
 20
0.0
 30
0.0
 70
   128
 71
     5
 72
    -6
 73
    -1
  0
VERTEX
  5
DF6
  8
MADLA
 10
0.0
 20
0.0
 30
0.0
 70
   128
 71
     4
 72
    -5
 73
    -1
  0
VERTEX
  5
DF7
  8
MADLA
 10
0.0
 20
0.0
 30
0.0
 70
   128
 71
     3
 72
    -4
 73
    -1
  0
VERTEX
  5
DF8
  8
MADLA
 10
0.0
 20
0.0
 30
0.0
 70
   128
 71
     2
 72
    -3
 73
     1
  0
SEQEND
  5
F48
  8
MADLA
  0
POLYLINE
  5
DF9
  8
MADLA
 66
     1
 10
0.0
 20
0.0
 30
0.0
 70
    64
 71
    10
 72
     8
  0
VERTEX
  5
DFA
  8
MADLA
 10
-57.33000000000027
 20
1110.0
 30
-8.000000000000004
 70
   192
  0
VERTEX
  5
DFB
  8
MADLA
 10
-62.33000000000027
 20
1110.0
 30
-8.000000000000004
 70
   192
  0
VERTEX
  5
DFC
  8
MADLA
 10
-62.33000000000027
 20
1110.0
 30
-3.000000000000004
 70
   192
  0
VERTEX
  5
DFD
  8
MADLA
 10
-57.33000000000027
 20
1110.0
 30
-3.000000000000004
 70
   192
  0
VERTEX
  5
DFE
  8
MADLA
 10
-59.83000000000027
 20
1112.5
 30
-3.000000000000004
 70
   192
  0
VERTEX
  5
DFF
  8
MADLA
 10
-59.83000000000027
 20
1112.5
 30
-8.000000000000004
 70
   192
  0
VERTEX
  5
E00
  8
MADLA
 10
-58.0622330470339
 20
1111.767766952967
 30
-3.000000000000004
 70
   192
  0
VERTEX
  5
E01
  8
MADLA
 10
-58.0622330470339
 20
1111.767766952967
 30
-8.000000000000004
 70
   192
  0
VERTEX
  5
E02
  8
MADLA
 10
-61.59776695296664
 20
1111.767766952967
 30
-3.000000000000004
 70
   192
  0
VERTEX
  5
E03
  8
MADLA
 10
-61.59776695296664
 20
1111.767766952967
 30
-8.000000000000004
 70
   192
  0
VERTEX
  5
E04
  8
MADLA
 10
0.0
 20
0.0
 30
0.0
 70
   128
 71
     8
 72
     1
 73
    -4
  0
VERTEX
  5
E05
  8
MADLA
 10
0.0
 20
0.0
 30
0.0
 70
   128
 71
     7
 72
    -8
 73
     4
  0
VERTEX
  5
E06
  8
MADLA
 10
0.0
 20
0.0
 30
0.0
 70
   128
 71
     6
 72
     8
 73
    -7
  0
VERTEX
  5
E07
  8
MADLA
 10
0.0
 20
0.0
 30
0.0
 70
   128
 71
     5
 72
    -6
 73
     7
  0
VERTEX
  5
E08
  8
MADLA
 10
0.0
 20
0.0
 30
0.0
 70
   128
 71
    10
 72
     6
 73
    -5
  0
VERTEX
  5
E09
  8
MADLA
 10
0.0
 20
0.0
 30
0.0
 70
   128
 71
     9
 72
   -10
 73
     5
  0
VERTEX
  5
E0A
  8
MADLA
 10
0.0
 20
0.0
 30
0.0
 70
   128
 71
     3
 72
     2
 73
   -10
  0
VERTEX
  5
E0B
  8
MADLA
 10
0.0
 20
0.0
 30
0.0
 70
   128
 71
     9
 72
    -3
 73
    10
  0
SEQEND
  5
F49
  8
MADLA
  0
POLYLINE
  5
E0C
  8
MADLA
 66
     1
 10
0.0
 20
0.0
 30
0.0
 70
    64
 71
     8
 72
     6
  0
VERTEX
  5
E0D
  8
MADLA
 10
-57.33000000000027
 20
1110.0
 30
-8.000000000000004
 70
   192
  0
VERTEX
  5
E0E
  8
MADLA
 10
-58.0622330470339
 20
1111.767766952967
 30
-8.000000000000004
 70
   192
  0
VERTEX
  5
E0F
  8
MADLA
 10
-59.83000000000027
 20
1112.5
 30
-8.000000000000004
 70
   192
  0
VERTEX
  5
E10
  8
MADLA
 10
-61.59776695296664
 20
1111.767766952967
 30
-8.000000000000004
 70
   192
  0
VERTEX
  5
E11
  8
MADLA
 10
-62.33000000000027
 20
1110.0
 30
-8.000000000000004
 70
   192
  0
VERTEX
  5
E12
  8
MADLA
 10
-61.59776695296664
 20
1108.232233047034
 30
-8.000000000000004
 70
   192
  0
VERTEX
  5
E13
  8
MADLA
 10
-59.83000000000027
 20
1107.5
 30
-8.000000000000004
 70
   192
  0
VERTEX
  5
E14
  8
MADLA
 10
-58.0622330470339
 20
1108.232233047034
 30
-8.000000000000004
 70
   192
  0
VERTEX
  5
E15
  8
MADLA
 10
0.0
 20
0.0
 30
0.0
 70
   128
 71
     7
 72
     8
 73
    -1
  0
VERTEX
  5
E16
  8
MADLA
 10
0.0
 20
0.0
 30
0.0
 70
   128
 71
     6
 72
    -7
 73
    -1
  0
VERTEX
  5
E17
  8
MADLA
 10
0.0
 20
0.0
 30
0.0
 70
   128
 71
     5
 72
    -6
 73
    -1
  0
VERTEX
  5
E18
  8
MADLA
 10
0.0
 20
0.0
 30
0.0
 70
   128
 71
     4
 72
    -5
 73
    -1
  0
VERTEX
  5
E19
  8
MADLA
 10
0.0
 20
0.0
 30
0.0
 70
   128
 71
     3
 72
    -4
 73
    -1
  0
VERTEX
  5
E1A
  8
MADLA
 10
0.0
 20
0.0
 30
0.0
 70
   128
 71
     2
 72
    -3
 73
     1
  0
SEQEND
  5
F4A
  8
MADLA
  0
ENDBLK
  5
F3A
  8
0
  0
BLOCK
  8
0
  2
*X9
 70
     1
 10
0.0
 20
0.0
 30
0.0
  3
*X9
  1

  0
POLYLINE
  5
E1C
  8
GUMA
 66
     1
 10
0.0
 20
0.0
 30
0.0
 70
    64
 71
     4
 72
     2
  0
VERTEX
  5
E1D
  8
GUMA
 10
15.32999999999998
 20
18.0
 30
-2.999999999999999
 70
   192
  0
VERTEX
  5
E1E
  8
GUMA
 10
15.32999999999998
 20
2000.0
 30
-2.999999999999999
 70
   192
  0
VERTEX
  5
E1F
  8
GUMA
 10
15.32999999999998
 20
2000.0
 30
-3.719999999999999
 70
   192
  0
VERTEX
  5
E20
  8
GUMA
 10
15.32999999999998
 20
18.00000000000001
 30
-3.719999999999999
 70
   192
  0
VERTEX
  5
E21
  8
GUMA
 10
0.0
 20
0.0
 30
0.0
 70
   128
 71
     1
 72
     4
 73
    -3
  0
VERTEX
  5
E22
  8
GUMA
 10
0.0
 20
0.0
 30
0.0
 70
   128
 71
    -1
 72
     3
 73
     2
  0
SEQEND
  5
F4D
  8
GUMA
  0
POLYLINE
  5
E23
  8
GUMA
 66
     1
 10
0.0
 20
0.0
 30
0.0
 70
    64
 71
     4
 72
     2
  0
VERTEX
  5
E24
  8
GUMA
 10
15.32999999999998
 20
18.0
 30
-3.719999999999999
 70
   192
  0
VERTEX
  5
E25
  8
GUMA
 10
15.32999999999998
 20
2000.0
 30
-3.719999999999999
 70
   192
  0
VERTEX
  5
E26
  8
GUMA
 10
2.07999999999998
 20
2000.0
 30
-3.720000000000003
 70
   192
  0
VERTEX
  5
E27
  8
GUMA
 10
2.079999999999981
 20
18.00000000000001
 30
-3.720000000000003
 70
   192
  0
VERTEX
  5
E28
  8
GUMA
 10
0.0
 20
0.0
 30
0.0
 70
   128
 71
     1
 72
     4
 73
    -3
  0
VERTEX
  5
E29
  8
GUMA
 10
0.0
 20
0.0
 30
0.0
 70
   128
 71
    -1
 72
     3
 73
     2
  0
SEQEND
  5
F4E
  8
GUMA
  0
POLYLINE
  5
E2A
  8
GUMA
 66
     1
 10
0.0
 20
0.0
 30
0.0
 70
    64
 71
     4
 72
     2
  0
VERTEX
  5
E2B
  8
GUMA
 10
2.07999999999998
 20
18.0
 30
-3.720000000000003
 70
   192
  0
VERTEX
  5
E2C
  8
GUMA
 10
2.07999999999998
 20
2000.0
 30
-3.720000000000003
 70
   192
  0
VERTEX
  5
E2D
  8
GUMA
 10
-0.9200000000000224
 20
2000.0
 30
3.719999999999997
 70
   192
  0
VERTEX
  5
E2E
  8
GUMA
 10
-0.920000000000023
 20
18.00000000000001
 30
3.719999999999995
 70
   192
  0
VERTEX
  5
E2F
  8
GUMA
 10
0.0
 20
0.0
 30
0.0
 70
   128
 71
     1
 72
     4
 73
    -3
  0
VERTEX
  5
E30
  8
GUMA
 10
0.0
 20
0.0
 30
0.0
 70
   128
 71
    -1
 72
     3
 73
     2
  0
SEQEND
  5
F4F
  8
GUMA
  0
POLYLINE
  5
E31
  8
GUMA
 66
     1
 10
0.0
 20
0.0
 30
0.0
 70
    64
 71
     4
 72
     2
  0
VERTEX
  5
E32
  8
GUMA
 10
-0.9200000000000224
 20
18.0
 30
3.719999999999997
 70
   192
  0
VERTEX
  5
E33
  8
GUMA
 10
-0.9200000000000212
 20
2000.0
 30
3.719999999999997
 70
   192
  0
VERTEX
  5
E34
  8
GUMA
 10
15.32999999999998
 20
2000.0
 30
3.720000000000001
 70
   192
  0
VERTEX
  5
E35
  8
GUMA
 10
15.32999999999998
 20
18.00000000000001
 30
3.720000000000001
 70
   192
  0
VERTEX
  5
E36
  8
GUMA
 10
0.0
 20
0.0
 30
0.0
 70
   128
 71
     1
 72
     4
 73
    -3
  0
VERTEX
  5
E37
  8
GUMA
 10
0.0
 20
0.0
 30
0.0
 70
   128
 71
    -1
 72
     3
 73
     2
  0
SEQEND
  5
F50
  8
GUMA
  0
POLYLINE
  5
E38
  8
GUMA
 66
     1
 10
0.0
 20
0.0
 30
0.0
 70
    64
 71
     4
 72
     2
  0
VERTEX
  5
E39
  8
GUMA
 10
15.32999999999998
 20
18.0
 30
3.720000000000001
 70
   192
  0
VERTEX
  5
E3A
  8
GUMA
 10
15.32999999999998
 20
2000.0
 30
3.720000000000001
 70
   192
  0
VERTEX
  5
E3B
  8
GUMA
 10
15.32999999999998
 20
2000.0
 30
3.000000000000001
 70
   192
  0
VERTEX
  5
E3C
  8
GUMA
 10
15.32999999999998
 20
18.00000000000001
 30
3.000000000000001
 70
   192
  0
VERTEX
  5
E3D
  8
GUMA
 10
0.0
 20
0.0
 30
0.0
 70
   128
 71
     1
 72
     4
 73
    -3
  0
VERTEX
  5
E3E
  8
GUMA
 10
0.0
 20
0.0
 30
0.0
 70
   128
 71
    -1
 72
     3
 73
     2
  0
SEQEND
  5
F51
  8
GUMA
  0
POLYLINE
  5
E3F
  8
GUMA
 66
     1
 10
0.0
 20
0.0
 30
0.0
 70
    64
 71
     4
 72
     2
  0
VERTEX
  5
E40
  8
GUMA
 10
15.32999999999998
 20
18.0
 30
3.000000000000001
 70
   192
  0
VERTEX
  5
E41
  8
GUMA
 10
15.32999999999998
 20
2000.0
 30
3.000000000000001
 70
   192
  0
VERTEX
  5
E42
  8
GUMA
 10
9.829999999999979
 20
2000.0
 30
3.0
 70
   192
  0
VERTEX
  5
E43
  8
GUMA
 10
9.829999999999979
 20
18.00000000000001
 30
3.0
 70
   192
  0
VERTEX
  5
E44
  8
GUMA
 10
0.0
 20
0.0
 30
0.0
 70
   128
 71
     1
 72
     4
 73
    -3
  0
VERTEX
  5
E45
  8
GUMA
 10
0.0
 20
0.0
 30
0.0
 70
   128
 71
    -1
 72
     3
 73
     2
  0
SEQEND
  5
F52
  8
GUMA
  0
POLYLINE
  5
E46
  8
GUMA
 66
     1
 10
0.0
 20
0.0
 30
0.0
 70
    64
 71
     4
 72
     2
  0
VERTEX
  5
E47
  8
GUMA
 10
9.829999999999979
 20
18.0
 30
3.0
 70
   192
  0
VERTEX
  5
E48
  8
GUMA
 10
9.82999999999998
 20
2000.0
 30
3.0
 70
   192
  0
VERTEX
  5
E49
  8
GUMA
 10
9.82999999999998
 20
2000.0
 30
-3.0
 70
   192
  0
VERTEX
  5
E4A
  8
GUMA
 10
9.82999999999998
 20
18.00000000000001
 30
-3.0
 70
   192
  0
VERTEX
  5
E4B
  8
GUMA
 10
0.0
 20
0.0
 30
0.0
 70
   128
 71
     1
 72
     4
 73
    -3
  0
VERTEX
  5
E4C
  8
GUMA
 10
0.0
 20
0.0
 30
0.0
 70
   128
 71
    -1
 72
     3
 73
     2
  0
SEQEND
  5
F53
  8
GUMA
  0
POLYLINE
  5
E4D
  8
GUMA
 66
     1
 10
0.0
 20
0.0
 30
0.0
 70
    64
 71
     4
 72
     2
  0
VERTEX
  5
E4E
  8
GUMA
 10
9.82999999999998
 20
18.0
 30
-3.0
 70
   192
  0
VERTEX
  5
E4F
  8
GUMA
 10
9.82999999999998
 20
2000.0
 30
-3.0
 70
   192
  0
VERTEX
  5
E50
  8
GUMA
 10
15.32999999999998
 20
2000.0
 30
-2.999999999999999
 70
   192
  0
VERTEX
  5
E51
  8
GUMA
 10
15.32999999999998
 20
18.00000000000001
 30
-2.999999999999999
 70
   192
  0
VERTEX
  5
E52
  8
GUMA
 10
0.0
 20
0.0
 30
0.0
 70
   128
 71
     1
 72
     4
 73
    -3
  0
VERTEX
  5
E53
  8
GUMA
 10
0.0
 20
0.0
 30
0.0
 70
   128
 71
    -1
 72
     3
 73
     2
  0
SEQEND
  5
F54
  8
GUMA
  0
POLYLINE
  5
E54
  8
GUMA
 66
     1
 10
0.0
 20
0.0
 30
0.0
 70
    64
 71
     8
 72
     6
  0
VERTEX
  5
E55
  8
GUMA
 10
15.32999999999998
 20
2000.0
 30
-2.999999999999999
 70
   192
  0
VERTEX
  5
E56
  8
GUMA
 10
9.82999999999998
 20
2000.0
 30
-3.0
 70
   192
  0
VERTEX
  5
E57
  8
GUMA
 10
9.829999999999979
 20
2000.0
 30
3.0
 70
   192
  0
VERTEX
  5
E58
  8
GUMA
 10
15.32999999999998
 20
2000.0
 30
3.000000000000001
 70
   192
  0
VERTEX
  5
E59
  8
GUMA
 10
15.32999999999998
 20
2000.0
 30
3.720000000000001
 70
   192
  0
VERTEX
  5
E5A
  8
GUMA
 10
-0.920000000000023
 20
2000.0
 30
3.719999999999995
 70
   192
  0
VERTEX
  5
E5B
  8
GUMA
 10
2.079999999999981
 20
2000.0
 30
-3.720000000000003
 70
   192
  0
VERTEX
  5
E5C
  8
GUMA
 10
15.32999999999998
 20
2000.0
 30
-3.719999999999999
 70
   192
  0
VERTEX
  5
E5D
  8
GUMA
 10
0.0
 20
0.0
 30
0.0
 70
   128
 71
     2
 72
     1
 73
    -8
  0
VERTEX
  5
E5E
  8
GUMA
 10
0.0
 20
0.0
 30
0.0
 70
   128
 71
    -2
 72
     8
 73
    -7
  0
VERTEX
  5
E5F
  8
GUMA
 10
0.0
 20
0.0
 30
0.0
 70
   128
 71
     7
 72
    -6
 73
    -3
  0
VERTEX
  5
E60
  8
GUMA
 10
0.0
 20
0.0
 30
0.0
 70
   128
 71
    -7
 72
     3
 73
    -2
  0
VERTEX
  5
E61
  8
GUMA
 10
0.0
 20
0.0
 30
0.0
 70
   128
 71
     6
 72
    -5
 73
    -3
  0
VERTEX
  5
E62
  8
GUMA
 10
0.0
 20
0.0
 30
0.0
 70
   128
 71
     5
 72
     4
 73
    -3
  0
SEQEND
  5
F55
  8
GUMA
  0
POLYLINE
  5
E63
  8
GUMA
 66
     1
 10
0.0
 20
0.0
 30
0.0
 70
    64
 71
     8
 72
     6
  0
VERTEX
  5
E64
  8
GUMA
 10
15.32999999999998
 20
18.00000000000001
 30
-3.719999999999999
 70
   192
  0
VERTEX
  5
E65
  8
GUMA
 10
15.32999999999998
 20
18.00000000000001
 30
-2.999999999999999
 70
   192
  0
VERTEX
  5
E66
  8
GUMA
 10
9.82999999999998
 20
18.00000000000001
 30
-3.0
 70
   192
  0
VERTEX
  5
E67
  8
GUMA
 10
9.82999999999998
 20
18.00000000000001
 30
3.0
 70
   192
  0
VERTEX
  5
E68
  8
GUMA
 10
15.32999999999998
 20
18.00000000000001
 30
3.000000000000001
 70
   192
  0
VERTEX
  5
E69
  8
GUMA
 10
15.32999999999998
 20
18.00000000000001
 30
3.720000000000001
 70
   192
  0
VERTEX
  5
E6A
  8
GUMA
 10
-0.9200000000000212
 20
18.00000000000001
 30
3.719999999999997
 70
   192
  0
VERTEX
  5
E6B
  8
GUMA
 10
2.07999999999998
 20
18.00000000000001
 30
-3.720000000000003
 70
   192
  0
VERTEX
  5
E6C
  8
GUMA
 10
0.0
 20
0.0
 30
0.0
 70
   128
 71
     1
 72
     2
 73
    -3
  0
VERTEX
  5
E6D
  8
GUMA
 10
0.0
 20
0.0
 30
0.0
 70
   128
 71
     8
 72
    -1
 73
    -3
  0
VERTEX
  5
E6E
  8
GUMA
 10
0.0
 20
0.0
 30
0.0
 70
   128
 71
    -4
 72
     7
 73
    -8
  0
VERTEX
  5
E6F
  8
GUMA
 10
0.0
 20
0.0
 30
0.0
 70
   128
 71
     3
 72
    -4
 73
    -8
  0
VERTEX
  5
E70
  8
GUMA
 10
0.0
 20
0.0
 30
0.0
 70
   128
 71
    -4
 72
     6
 73
    -7
  0
VERTEX
  5
E71
  8
GUMA
 10
0.0
 20
0.0
 30
0.0
 70
   128
 71
     4
 72
     5
 73
    -6
  0
SEQEND
  5
F56
  8
GUMA
  0
ENDBLK
  5
F4C
  8
0
  0
BLOCK
  8
0
  2
*X10
 70
     1
 10
0.0
 20
0.0
 30
0.0
  3
*X10
  1

  0
POLYLINE
  5
E73
  8
GUMA
 66
     1
 10
0.0
 20
0.0
 30
0.0
 70
    64
 71
     4
 72
     2
  0
VERTEX
  5
E74
  8
GUMA
 10
-15.17000000000002
 20
18.0
 30
3.719999999999992
 70
   192
  0
VERTEX
  5
E75
  8
GUMA
 10
-15.17000000000002
 20
2000.0
 30
3.719999999999992
 70
   192
  0
VERTEX
  5
E76
  8
GUMA
 10
-1.920000000000021
 20
2000.0
 30
3.719999999999997
 70
   192
  0
VERTEX
  5
E77
  8
GUMA
 10
-1.920000000000021
 20
18.00000000000001
 30
3.719999999999997
 70
   192
  0
VERTEX
  5
E78
  8
GUMA
 10
0.0
 20
0.0
 30
0.0
 70
   128
 71
     1
 72
     4
 73
    -3
  0
VERTEX
  5
E79
  8
GUMA
 10
0.0
 20
0.0
 30
0.0
 70
   128
 71
    -1
 72
     3
 73
     2
  0
SEQEND
  5
F59
  8
GUMA
  0
POLYLINE
  5
E7A
  8
GUMA
 66
     1
 10
0.0
 20
0.0
 30
0.0
 70
    64
 71
     4
 72
     2
  0
VERTEX
  5
E7B
  8
GUMA
 10
-1.920000000000021
 20
18.0
 30
3.719999999999997
 70
   192
  0
VERTEX
  5
E7C
  8
GUMA
 10
-1.920000000000021
 20
2000.0
 30
3.719999999999997
 70
   192
  0
VERTEX
  5
E7D
  8
GUMA
 10
1.079999999999981
 20
2000.0
 30
-3.720000000000003
 70
   192
  0
VERTEX
  5
E7E
  8
GUMA
 10
1.079999999999981
 20
18.00000000000001
 30
-3.720000000000003
 70
   192
  0
VERTEX
  5
E7F
  8
GUMA
 10
0.0
 20
0.0
 30
0.0
 70
   128
 71
     1
 72
     4
 73
    -3
  0
VERTEX
  5
E80
  8
GUMA
 10
0.0
 20
0.0
 30
0.0
 70
   128
 71
    -1
 72
     3
 73
     2
  0
SEQEND
  5
F5A
  8
GUMA
  0
POLYLINE
  5
E81
  8
GUMA
 66
     1
 10
0.0
 20
0.0
 30
0.0
 70
    64
 71
     4
 72
     2
  0
VERTEX
  5
E82
  8
GUMA
 10
1.079999999999981
 20
18.0
 30
-3.720000000000003
 70
   192
  0
VERTEX
  5
E83
  8
GUMA
 10
1.079999999999981
 20
2000.0
 30
-3.720000000000003
 70
   192
  0
VERTEX
  5
E84
  8
GUMA
 10
-15.17000000000002
 20
2000.0
 30
-3.720000000000008
 70
   192
  0
VERTEX
  5
E85
  8
GUMA
 10
-15.17000000000002
 20
18.00000000000001
 30
-3.720000000000008
 70
   192
  0
VERTEX
  5
E86
  8
GUMA
 10
0.0
 20
0.0
 30
0.0
 70
   128
 71
     1
 72
     4
 73
    -3
  0
VERTEX
  5
E87
  8
GUMA
 10
0.0
 20
0.0
 30
0.0
 70
   128
 71
    -1
 72
     3
 73
     2
  0
SEQEND
  5
F5B
  8
GUMA
  0
POLYLINE
  5
E88
  8
GUMA
 66
     1
 10
0.0
 20
0.0
 30
0.0
 70
    64
 71
     4
 72
     2
  0
VERTEX
  5
E89
  8
GUMA
 10
-15.17000000000002
 20
18.0
 30
-3.720000000000008
 70
   192
  0
VERTEX
  5
E8A
  8
GUMA
 10
-15.17000000000002
 20
2000.0
 30
-3.720000000000008
 70
   192
  0
VERTEX
  5
E8B
  8
GUMA
 10
-15.17000000000002
 20
2000.0
 30
-3.000000000000008
 70
   192
  0
VERTEX
  5
E8C
  8
GUMA
 10
-15.17000000000002
 20
18.00000000000001
 30
-3.000000000000008
 70
   192
  0
VERTEX
  5
E8D
  8
GUMA
 10
0.0
 20
0.0
 30
0.0
 70
   128
 71
     1
 72
     4
 73
    -3
  0
VERTEX
  5
E8E
  8
GUMA
 10
0.0
 20
0.0
 30
0.0
 70
   128
 71
    -1
 72
     3
 73
     2
  0
SEQEND
  5
F5C
  8
GUMA
  0
POLYLINE
  5
E8F
  8
GUMA
 66
     1
 10
0.0
 20
0.0
 30
0.0
 70
    64
 71
     4
 72
     2
  0
VERTEX
  5
E90
  8
GUMA
 10
-15.17000000000002
 20
18.0
 30
-3.000000000000008
 70
   192
  0
VERTEX
  5
E91
  8
GUMA
 10
-15.17000000000002
 20
2000.0
 30
-3.000000000000008
 70
   192
  0
VERTEX
  5
E92
  8
GUMA
 10
-9.67000000000002
 20
2000.0
 30
-3.000000000000006
 70
   192
  0
VERTEX
  5
E93
  8
GUMA
 10
-9.67000000000002
 20
18.00000000000001
 30
-3.000000000000005
 70
   192
  0
VERTEX
  5
E94
  8
GUMA
 10
0.0
 20
0.0
 30
0.0
 70
   128
 71
     1
 72
     4
 73
    -3
  0
VERTEX
  5
E95
  8
GUMA
 10
0.0
 20
0.0
 30
0.0
 70
   128
 71
    -1
 72
     3
 73
     2
  0
SEQEND
  5
F5D
  8
GUMA
  0
POLYLINE
  5
E96
  8
GUMA
 66
     1
 10
0.0
 20
0.0
 30
0.0
 70
    64
 71
     4
 72
     2
  0
VERTEX
  5
E97
  8
GUMA
 10
-9.67000000000002
 20
18.0
 30
-3.000000000000006
 70
   192
  0
VERTEX
  5
E98
  8
GUMA
 10
-9.67000000000002
 20
2000.0
 30
-3.000000000000006
 70
   192
  0
VERTEX
  5
E99
  8
GUMA
 10
-9.670000000000021
 20
2000.0
 30
2.999999999999994
 70
   192
  0
VERTEX
  5
E9A
  8
GUMA
 10
-9.670000000000021
 20
18.00000000000001
 30
2.999999999999994
 70
   192
  0
VERTEX
  5
E9B
  8
GUMA
 10
0.0
 20
0.0
 30
0.0
 70
   128
 71
     1
 72
     4
 73
    -3
  0
VERTEX
  5
E9C
  8
GUMA
 10
0.0
 20
0.0
 30
0.0
 70
   128
 71
    -1
 72
     3
 73
     2
  0
SEQEND
  5
F5E
  8
GUMA
  0
POLYLINE
  5
E9D
  8
GUMA
 66
     1
 10
0.0
 20
0.0
 30
0.0
 70
    64
 71
     4
 72
     2
  0
VERTEX
  5
E9E
  8
GUMA
 10
-9.670000000000021
 20
18.0
 30
2.999999999999994
 70
   192
  0
VERTEX
  5
E9F
  8
GUMA
 10
-9.670000000000021
 20
2000.0
 30
2.999999999999994
 70
   192
  0
VERTEX
  5
EA0
  8
GUMA
 10
-15.17000000000002
 20
2000.0
 30
2.999999999999992
 70
   192
  0
VERTEX
  5
EA1
  8
GUMA
 10
-15.17000000000002
 20
18.00000000000001
 30
2.999999999999992
 70
   192
  0
VERTEX
  5
EA2
  8
GUMA
 10
0.0
 20
0.0
 30
0.0
 70
   128
 71
     1
 72
     4
 73
    -3
  0
VERTEX
  5
EA3
  8
GUMA
 10
0.0
 20
0.0
 30
0.0
 70
   128
 71
    -1
 72
     3
 73
     2
  0
SEQEND
  5
F5F
  8
GUMA
  0
POLYLINE
  5
EA4
  8
GUMA
 66
     1
 10
0.0
 20
0.0
 30
0.0
 70
    64
 71
     4
 72
     2
  0
VERTEX
  5
EA5
  8
GUMA
 10
-15.17000000000002
 20
18.0
 30
2.999999999999992
 70
   192
  0
VERTEX
  5
EA6
  8
GUMA
 10
-15.17000000000002
 20
2000.0
 30
2.999999999999992
 70
   192
  0
VERTEX
  5
EA7
  8
GUMA
 10
-15.17000000000002
 20
2000.0
 30
3.719999999999992
 70
   192
  0
VERTEX
  5
EA8
  8
GUMA
 10
-15.17000000000002
 20
18.00000000000001
 30
3.719999999999992
 70
   192
  0
VERTEX
  5
EA9
  8
GUMA
 10
0.0
 20
0.0
 30
0.0
 70
   128
 71
     1
 72
     4
 73
    -3
  0
VERTEX
  5
EAA
  8
GUMA
 10
0.0
 20
0.0
 30
0.0
 70
   128
 71
    -1
 72
     3
 73
     2
  0
SEQEND
  5
F60
  8
GUMA
  0
POLYLINE
  5
EAB
  8
GUMA
 66
     1
 10
0.0
 20
0.0
 30
0.0
 70
    64
 71
     8
 72
     6
  0
VERTEX
  5
EAC
  8
GUMA
 10
-15.17000000000002
 20
2000.0
 30
3.719999999999992
 70
   192
  0
VERTEX
  5
EAD
  8
GUMA
 10
-1.920000000000021
 20
2000.0
 30
3.719999999999997
 70
   192
  0
VERTEX
  5
EAE
  8
GUMA
 10
1.079999999999981
 20
2000.0
 30
-3.720000000000003
 70
   192
  0
VERTEX
  5
EAF
  8
GUMA
 10
-15.17000000000002
 20
2000.0
 30
-3.720000000000008
 70
   192
  0
VERTEX
  5
EB0
  8
GUMA
 10
-15.17000000000002
 20
2000.0
 30
-3.000000000000008
 70
   192
  0
VERTEX
  5
EB1
  8
GUMA
 10
-9.67000000000002
 20
2000.0
 30
-3.000000000000005
 70
   192
  0
VERTEX
  5
EB2
  8
GUMA
 10
-9.670000000000021
 20
2000.0
 30
2.999999999999994
 70
   192
  0
VERTEX
  5
EB3
  8
GUMA
 10
-15.17000000000002
 20
2000.0
 30
2.999999999999992
 70
   192
  0
VERTEX
  5
EB4
  8
GUMA
 10
0.0
 20
0.0
 30
0.0
 70
   128
 71
     4
 72
     5
 73
    -6
  0
VERTEX
  5
EB5
  8
GUMA
 10
0.0
 20
0.0
 30
0.0
 70
   128
 71
     3
 72
    -4
 73
    -6
  0
VERTEX
  5
EB6
  8
GUMA
 10
0.0
 20
0.0
 30
0.0
 70
   128
 71
    -7
 72
     2
 73
    -3
  0
VERTEX
  5
EB7
  8
GUMA
 10
0.0
 20
0.0
 30
0.0
 70
   128
 71
     6
 72
    -7
 73
    -3
  0
VERTEX
  5
EB8
  8
GUMA
 10
0.0
 20
0.0
 30
0.0
 70
   128
 71
    -7
 72
     1
 73
    -2
  0
VERTEX
  5
EB9
  8
GUMA
 10
0.0
 20
0.0
 30
0.0
 70
   128
 71
     7
 72
     8
 73
    -1
  0
SEQEND
  5
F61
  8
GUMA
  0
POLYLINE
  5
EBA
  8
GUMA
 66
     1
 10
0.0
 20
0.0
 30
0.0
 70
    64
 71
     8
 72
     6
  0
VERTEX
  5
EBB
  8
GUMA
 10
-1.920000000000021
 20
18.00000000000001
 30
3.719999999999997
 70
   192
  0
VERTEX
  5
EBC
  8
GUMA
 10
1.079999999999981
 20
18.00000000000001
 30
-3.720000000000003
 70
   192
  0
VERTEX
  5
EBD
  8
GUMA
 10
-15.17000000000002
 20
18.00000000000001
 30
-3.720000000000008
 70
   192
  0
VERTEX
  5
EBE
  8
GUMA
 10
-15.17000000000002
 20
18.00000000000001
 30
-3.000000000000008
 70
   192
  0
VERTEX
  5
EBF
  8
GUMA
 10
-9.67000000000002
 20
18.00000000000001
 30
-3.000000000000006
 70
   192
  0
VERTEX
  5
EC0
  8
GUMA
 10
-9.670000000000021
 20
18.00000000000001
 30
2.999999999999994
 70
   192
  0
VERTEX
  5
EC1
  8
GUMA
 10
-15.17000000000002
 20
18.00000000000001
 30
2.999999999999992
 70
   192
  0
VERTEX
  5
EC2
  8
GUMA
 10
-15.17000000000002
 20
18.00000000000001
 30
3.719999999999992
 70
   192
  0
VERTEX
  5
EC3
  8
GUMA
 10
0.0
 20
0.0
 30
0.0
 70
   128
 71
     5
 72
     4
 73
    -3
  0
VERTEX
  5
EC4
  8
GUMA
 10
0.0
 20
0.0
 30
0.0
 70
   128
 71
    -5
 72
     3
 73
    -2
  0
VERTEX
  5
EC5
  8
GUMA
 10
0.0
 20
0.0
 30
0.0
 70
   128
 71
     2
 72
    -1
 73
    -6
  0
VERTEX
  5
EC6
  8
GUMA
 10
0.0
 20
0.0
 30
0.0
 70
   128
 71
    -2
 72
     6
 73
    -5
  0
VERTEX
  5
EC7
  8
GUMA
 10
0.0
 20
0.0
 30
0.0
 70
   128
 71
     1
 72
    -8
 73
    -6
  0
VERTEX
  5
EC8
  8
GUMA
 10
0.0
 20
0.0
 30
0.0
 70
   128
 71
     8
 72
     7
 73
    -6
  0
SEQEND
  5
F62
  8
GUMA
  0
ENDBLK
  5
F58
  8
0
  0
ENDSEC
  0
SECTION
  2
ENTITIES
  0
INSERT
  5
BE
  8
RÁM
  2
*X1
 10
0.0
 20
0.0
 30
0.0
  0
INSERT
  5
BF
  8
RÁM
  2
*X2
 10
0.0
 20
0.0
 30
0.0
  0
INSERT
  5
C0
  8
SKLO
  2
*X3
 10
0.0
 20
0.0
 30
0.0
  0
INSERT
  5
C1
  8
SKLO
  2
*X4
 10
0.0
 20
0.0
 30
0.0
  0
INSERT
  5
C2
  8
MADLA
  2
*X5
 10
0.0
 20
0.0
 30
0.0
  0
INSERT
  5
C3
  8
MADLA
  2
*X6
 10
0.0
 20
0.0
 30
0.0
  0
INSERT
  5
C4
  8
MADLA
  2
*X7
 10
0.0
 20
0.0
 30
0.0
  0
INSERT
  5
C5
  8
MADLA
  2
*X8
 10
0.0
 20
0.0
 30
0.0
  0
INSERT
  5
C6
  8
GUMA
  2
*X9
 10
0.0
 20
0.0
 30
0.0
  0
INSERT
  5
C7
  8
GUMA
  2
*X10
 10
0.0
 20
0.0
 30
0.0
  0
ENDSEC
  0
EOF
