  0
SECTION
  2
HEADER
  9
$ACADVER
  1
AC1009
  9
$DWGCODEPAGE
  3
ansi_1250
  9
$INSBASE
 10
0.0
 20
0.0
 30
0.0
  9
$EXTMIN
 10
-291.000000000008
 20
-73.5153727245924
 30
36.65124399637579
  9
$EXTMAX
 10
291.000000000006
 20
71.4846310213911
 30
401.6512439964985
  9
$LIMMIN
 10
0.0
 20
0.0
  9
$LIMMAX
 10
420.0
 20
297.0
  9
$ORTHOMODE
 70
     0
  9
$REGENMODE
 70
     1
  9
$FILLMODE
 70
     1
  9
$QTEXTMODE
 70
     0
  9
$MIRRTEXT
 70
     0
  9
$DRAGMODE
 70
     2
  9
$LTSCALE
 40
1.0
  9
$OSMODE
 70
   511
  9
$ATTMODE
 70
     1
  9
$TEXTSIZE
 40
2.5
  9
$TRACEWID
 40
1.0
  9
$TEXTSTYLE
  7
STANDARD
  9
$CLAYER
  8
0
  9
$CELTYPE
  6
BYLAYER
  9
$CECOLOR
 62
   256
  9
$DIMSCALE
 40
1.0
  9
$DIMASZ
 40
2.5
  9
$DIMEXO
 40
0.625
  9
$DIMDLI
 40
3.75
  9
$DIMRND
 40
0.0
  9
$DIMDLE
 40
0.0
  9
$DIMEXE
 40
1.25
  9
$DIMTP
 40
0.0
  9
$DIMTM
 40
0.0
  9
$DIMTXT
 40
2.5
  9
$DIMCEN
 40
-2.5
  9
$DIMTSZ
 40
0.0
  9
$DIMTOL
 70
     0
  9
$DIMLIM
 70
     0
  9
$DIMTIH
 70
     0
  9
$DIMTOH
 70
     0
  9
$DIMSE1
 70
     0
  9
$DIMSE2
 70
     0
  9
$DIMTAD
 70
     1
  9
$DIMZIN
 70
     8
  9
$DIMBLK
  1

  9
$DIMASO
 70
     1
  9
$DIMSHO
 70
     1
  9
$DIMPOST
  1

  9
$DIMAPOST
  1

  9
$DIMALT
 70
     0
  9
$DIMALTD
 70
     3
  9
$DIMALTF
 40
0.03937007874016
  9
$DIMLFAC
 40
1.0
  9
$DIMTOFL
 70
     1
  9
$DIMTVP
 40
0.0
  9
$DIMTIX
 70
     0
  9
$DIMSOXD
 70
     0
  9
$DIMSAH
 70
     0
  9
$DIMBLK1
  1

  9
$DIMBLK2
  1

  9
$DIMSTYLE
  2
ISO-25
  9
$DIMCLRD
 70
     0
  9
$DIMCLRE
 70
     0
  9
$DIMCLRT
 70
     0
  9
$DIMTFAC
 40
1.0
  9
$DIMGAP
 40
0.625
  9
$LUNITS
 70
     2
  9
$LUPREC
 70
     3
  9
$SKETCHINC
 40
1.0
  9
$FILLETRAD
 40
10.0
  9
$AUNITS
 70
     0
  9
$AUPREC
 70
     0
  9
$MENU
  1
.
  9
$ELEVATION
 40
0.0
  9
$PELEVATION
 40
0.0
  9
$THICKNESS
 40
0.0
  9
$LIMCHECK
 70
     0
  9
$CHAMFERA
 40
10.0
  9
$CHAMFERB
 40
10.0
  9
$SKPOLY
 70
     0
  9
$TDCREATE
 40
2455022.720692848
  9
$TDUPDATE
 40
2460416.664542072
  9
$TDINDWG
 40
0.0003448264
  9
$TDUSRTIMER
 40
0.0003448264
  9
$USRTIMER
 70
     1
  9
$ANGBASE
 50
0.0
  9
$ANGDIR
 70
     0
  9
$PDMODE
 70
     0
  9
$PDSIZE
 40
0.0
  9
$PLINEWID
 40
0.0
  9
$COORDS
 70
     1
  9
$SPLFRAME
 70
     0
  9
$SPLINETYPE
 70
     6
  9
$SPLINESEGS
 70
     8
  9
$ATTDIA
 70
     0
  9
$ATTREQ
 70
     1
  9
$HANDLING
 70
     1
  9
$HANDSEED
  5
D01
  9
$SURFTAB1
 70
     6
  9
$SURFTAB2
 70
     6
  9
$SURFTYPE
 70
     6
  9
$SURFU
 70
     6
  9
$SURFV
 70
     6
  9
$UCSNAME
  2

  9
$UCSORG
 10
0.0
 20
0.0
 30
0.0
  9
$UCSXDIR
 10
1.0
 20
0.0
 30
0.0
  9
$UCSYDIR
 10
0.0
 20
1.0
 30
0.0
  9
$PUCSNAME
  2

  9
$PUCSORG
 10
0.0
 20
0.0
 30
0.0
  9
$PUCSXDIR
 10
1.0
 20
0.0
 30
0.0
  9
$PUCSYDIR
 10
0.0
 20
1.0
 30
0.0
  9
$USERI1
 70
     0
  9
$USERI2
 70
     0
  9
$USERI3
 70
     0
  9
$USERI4
 70
     0
  9
$USERI5
 70
     0
  9
$USERR1
 40
0.0
  9
$USERR2
 40
0.0
  9
$USERR3
 40
0.0
  9
$USERR4
 40
0.0
  9
$USERR5
 40
0.0
  9
$WORLDVIEW
 70
     1
  9
$SHADEDGE
 70
     3
  9
$SHADEDIF
 70
    70
  9
$TILEMODE
 70
     1
  9
$MAXACTVP
 70
    64
  9
$PLIMCHECK
 70
     0
  9
$PEXTMIN
 10
1.000000000000000E+20
 20
1.000000000000000E+20
 30
1.000000000000000E+20
  9
$PEXTMAX
 10
-1.000000000000000E+20
 20
-1.000000000000000E+20
 30
-1.000000000000000E+20
  9
$PLIMMIN
 10
0.0
 20
0.0
  9
$PLIMMAX
 10
0.0
 20
0.0
  9
$UNITMODE
 70
     0
  9
$VISRETAIN
 70
     1
  9
$PLINEGEN
 70
     0
  9
$PSLTSCALE
 70
     1
  0
ENDSEC
  0
SECTION
  2
TABLES
  0
TABLE
  2
VPORT
 70
     1
  0
VPORT
  2
*ACTIVE
 70
     0
 10
0.0
 20
0.0
 11
1.0
 21
1.0
 12
134.1869158878494
 22
-1.015370851600665
 13
0.0
 23
0.0
 14
10.0
 24
10.0
 15
10.0
 25
10.0
 16
0.0
 26
0.0
 36
1.0
 17
-134.1869158878504
 27
0.0
 37
0.0
 40
314.0269565217467
 41
1.89041095890411
 42
50.0
 43
0.0
 44
0.0
 50
0.0
 51
0.0
 71
    16
 72
  1000
 73
     1
 74
     3
 75
     0
 76
     0
 77
     0
 78
     0
  0
ENDTAB
  0
TABLE
  2
LTYPE
 70
     1
  0
LTYPE
  2
CONTINUOUS
 70
     0
  3
Solid line
 72
    65
 73
     0
 40
0.0
  0
ENDTAB
  0
TABLE
  2
LAYER
 70
     1
  0
LAYER
  2
0
 70
     0
 62
     7
  6
CONTINUOUS
  0
ENDTAB
  0
TABLE
  2
STYLE
 70
     2
  0
STYLE
  2
STANDARD
 70
     0
 40
0.0
 41
1.0
 50
0.0
 71
     0
 42
2.5
  3
arial.ttf
  4

  0
STYLE
  2
ANNOTATIVE
 70
     0
 40
0.0
 41
1.0
 50
0.0
 71
     0
 42
2.5
  3
arial.ttf
  4

  0
ENDTAB
  0
TABLE
  2
VIEW
 70
     0
  0
ENDTAB
  0
TABLE
  2
UCS
 70
     0
  0
ENDTAB
  0
TABLE
  2
APPID
 70
     2
  0
APPID
  2
ACAD
 70
     0
  0
APPID
  2
ACADANNOTATIVE
 70
     0
  0
ENDTAB
  0
TABLE
  2
DIMSTYLE
 70
     2
  0
DIMSTYLE
  2
ISO-25
 70
     0
  3

  4

  5

  6

  7

 40
1.0
 41
2.5
 42
0.625
 43
3.75
 44
1.25
 45
0.0
 46
0.0
 47
0.0
 48
0.0
140
2.5
141
-2.5
142
0.0
143
0.03937007874016
144
1.0
145
0.0
146
1.0
147
0.625
 71
     0
 72
     0
 73
     0
 74
     0
 75
     0
 76
     0
 77
     1
 78
     8
170
     0
171
     3
172
     1
173
     0
174
     0
175
     0
176
     0
177
     0
178
     0
  0
DIMSTYLE
  2
ANNOTATIVE
 70
     0
  3

  4

  5

  6

  7

 40
0.0
 41
2.5
 42
0.625
 43
3.75
 44
1.25
 45
0.0
 46
0.0
 47
0.0
 48
0.0
140
2.5
141
-2.5
142
0.0
143
0.03937007874016
144
1.0
145
0.0
146
1.0
147
0.625
 71
     0
 72
     0
 73
     0
 74
     0
 75
     0
 76
     0
 77
     1
 78
     8
170
     0
171
     3
172
     1
173
     0
174
     0
175
     0
176
     0
177
     0
178
     0
  0
ENDTAB
  0
ENDSEC
  0
SECTION
  2
BLOCKS
  0
BLOCK
  8
0
  2
$MODEL_SPACE
 70
     0
 10
0.0
 20
0.0
 30
0.0
  3
$MODEL_SPACE
  1

  0
ENDBLK
  5
21
  8
0
  0
BLOCK
 67
     1
  8
0
  2
$PAPER_SPACE
 70
     0
 10
0.0
 20
0.0
 30
0.0
  3
$PAPER_SPACE
  1

  0
ENDBLK
  5
1D
 67
     1
  8
0
  0
BLOCK
  8
0
  2
*X1
 70
     1
 10
0.0
 20
0.0
 30
0.0
  3
*X1
  1

  0
POLYLINE
  5
6E7
  8
0
 66
     1
 10
0.0
 20
0.0
 30
0.0
 70
    64
 71
    12
 72
    10
  0
VERTEX
  5
6E8
  8
0
 10
-100.015435204384
 20
-48.37555072523228
 30
144.1512439963751
 70
   192
  0
VERTEX
  5
6E9
  8
0
 10
-33.44256750134766
 20
-54.81364005075729
 30
144.1512439963678
 70
   192
  0
VERTEX
  5
6EA
  8
0
 10
33.44253698887745
 20
-54.81364270445375
 30
144.1512439963677
 70
   192
  0
VERTEX
  5
6EB
  8
0
 10
100.015435208134
 20
-48.37555069290828
 30
144.1512439963751
 70
   192
  0
VERTEX
  5
6EC
  8
0
 10
100.0068638116459
 20
-48.46098140508077
 30
144.151243996433
 70
   192
  0
VERTEX
  5
6ED
  8
0
 10
100.0017165256652
 20
-48.54668659201486
 30
144.1512439963938
 70
   192
  0
VERTEX
  5
6EE
  8
0
 10
99.9999999999945
 20
-48.63252903246326
 30
144.1512439963749
 70
   192
  0
VERTEX
  5
6EF
  8
0
 10
99.9999999999945
 20
-73.51537272442127
 30
144.1512439963464
 70
   192
  0
VERTEX
  5
6F0
  8
0
 10
-100.000000000006
 20
-73.51537272442127
 30
144.1512439963464
 70
   192
  0
VERTEX
  5
6F1
  8
0
 10
-100.000000000006
 20
-48.63252903360227
 30
144.1512439963749
 70
   192
  0
VERTEX
  5
6F2
  8
0
 10
-100.0017165252583
 20
-48.54668660361555
 30
144.1512439963938
 70
   192
  0
VERTEX
  5
6F3
  8
0
 10
-100.0068638099839
 20
-48.46098142709286
 30
144.151243996433
 70
   192
  0
VERTEX
  5
6F4
  8
0
 10
0.0
 20
0.0
 30
0.0
 70
   128
 71
     3
 72
     4
 73
    -5
  0
VERTEX
  5
6F5
  8
0
 10
0.0
 20
0.0
 30
0.0
 70
   128
 71
     5
 72
    -6
 73
    -3
  0
VERTEX
  5
6F6
  8
0
 10
0.0
 20
0.0
 30
0.0
 70
   128
 71
     6
 72
    -7
 73
    -3
  0
VERTEX
  5
6F7
  8
0
 10
0.0
 20
0.0
 30
0.0
 70
   128
 71
     9
 72
   -10
 73
    -2
  0
VERTEX
  5
6F8
  8
0
 10
0.0
 20
0.0
 30
0.0
 70
   128
 71
    -3
 72
     8
 73
    -9
  0
VERTEX
  5
6F9
  8
0
 10
0.0
 20
0.0
 30
0.0
 70
   128
 71
     2
 72
    -3
 73
    -9
  0
VERTEX
  5
6FA
  8
0
 10
0.0
 20
0.0
 30
0.0
 70
   128
 71
    -3
 72
     7
 73
    -8
  0
VERTEX
  5
6FB
  8
0
 10
0.0
 20
0.0
 30
0.0
 70
   128
 71
    10
 72
   -11
 73
    -2
  0
VERTEX
  5
6FC
  8
0
 10
0.0
 20
0.0
 30
0.0
 70
   128
 71
    11
 72
   -12
 73
    -2
  0
VERTEX
  5
6FD
  8
0
 10
0.0
 20
0.0
 30
0.0
 70
   128
 71
    12
 72
     1
 73
    -2
  0
SEQEND
  5
CCA
  8
0
  0
POLYLINE
  5
6FE
  8
0
 66
     1
 10
0.0
 20
0.0
 30
0.0
 70
    64
 71
    12
 72
    10
  0
VERTEX
  5
6FF
  8
0
 10
-100.015435177917
 20
-48.37555057125839
 30
294.1512439963752
 70
   192
  0
VERTEX
  5
700
  8
0
 10
-100.0068637982085
 20
-48.46098119804711
 30
294.151243996317
 70
   192
  0
VERTEX
  5
701
  8
0
 10
-100.0017165223124
 20
-48.54668629879901
 30
294.1512439963561
 70
   192
  0
VERTEX
  5
702
  8
0
 10
-100.000000000006
 20
-48.6325286526654
 30
294.1512439963748
 70
   192
  0
VERTEX
  5
703
  8
0
 10
-100.000000000006
 20
-73.51537272459241
 30
294.1512439963465
 70
   192
  0
VERTEX
  5
704
  8
0
 10
99.9999999999945
 20
-73.51537272459241
 30
294.1512439963465
 70
   192
  0
VERTEX
  5
705
  8
0
 10
99.9999999999945
 20
-48.63252865151841
 30
294.1512439963748
 70
   192
  0
VERTEX
  5
706
  8
0
 10
100.0017165227197
 20
-48.546686287193
 30
294.1512439963561
 70
   192
  0
VERTEX
  5
707
  8
0
 10
100.0068637998701
 20
-48.46098117603197
 30
294.151243996317
 70
   192
  0
VERTEX
  5
708
  8
0
 10
100.015435181666
 20
-48.37555053893438
 30
294.1512439963752
 70
   192
  0
VERTEX
  5
709
  8
0
 10
33.44253697984534
 20
-54.8136425431076
 30
294.1512439963679
 70
   192
  0
VERTEX
  5
70A
  8
0
 10
-33.44256749231469
 20
-54.81363988941273
 30
294.1512439963678
 70
   192
  0
VERTEX
  5
70B
  8
0
 10
0.0
 20
0.0
 30
0.0
 70
   128
 71
   -11
 72
     6
 73
    -7
  0
VERTEX
  5
70C
  8
0
 10
0.0
 20
0.0
 30
0.0
 70
   128
 71
     7
 72
    -8
 73
   -11
  0
VERTEX
  5
70D
  8
0
 10
0.0
 20
0.0
 30
0.0
 70
   128
 71
     8
 72
    -9
 73
   -11
  0
VERTEX
  5
70E
  8
0
 10
0.0
 20
0.0
 30
0.0
 70
   128
 71
     9
 72
    10
 73
   -11
  0
VERTEX
  5
70F
  8
0
 10
0.0
 20
0.0
 30
0.0
 70
   128
 71
   -12
 72
     5
 73
    -6
  0
VERTEX
  5
710
  8
0
 10
0.0
 20
0.0
 30
0.0
 70
   128
 71
    11
 72
   -12
 73
    -6
  0
VERTEX
  5
711
  8
0
 10
0.0
 20
0.0
 30
0.0
 70
   128
 71
    12
 72
     1
 73
    -2
  0
VERTEX
  5
712
  8
0
 10
0.0
 20
0.0
 30
0.0
 70
   128
 71
     2
 72
    -3
 73
   -12
  0
VERTEX
  5
713
  8
0
 10
0.0
 20
0.0
 30
0.0
 70
   128
 71
     3
 72
    -4
 73
   -12
  0
VERTEX
  5
714
  8
0
 10
0.0
 20
0.0
 30
0.0
 70
   128
 71
     4
 72
    -5
 73
   -12
  0
SEQEND
  5
CCB
  8
0
  0
POLYLINE
  5
715
  8
0
 66
     1
 10
0.0
 20
0.0
 30
0.0
 70
    64
 71
     6
 72
     4
  0
VERTEX
  5
716
  8
0
 10
-100.000000000006
 20
-48.6325286526654
 30
294.1512439963748
 70
   192
  0
VERTEX
  5
717
  8
0
 10
-100.000000000006
 20
-57.37349912155663
 30
244.4083339643837
 70
   192
  0
VERTEX
  5
718
  8
0
 10
-100.000000000006
 20
-57.37348616859354
 30
193.8940865886176
 70
   192
  0
VERTEX
  5
719
  8
0
 10
-100.000000000006
 20
-48.63252903360227
 30
144.1512439963749
 70
   192
  0
VERTEX
  5
71A
  8
0
 10
-100.000000000006
 20
-73.51537272442127
 30
144.1512439963464
 70
   192
  0
VERTEX
  5
71B
  8
0
 10
-100.000000000006
 20
-73.51537272459241
 30
294.1512439963465
 70
   192
  0
VERTEX
  5
71C
  8
0
 10
0.0
 20
0.0
 30
0.0
 70
   128
 71
     6
 72
     1
 73
    -2
  0
VERTEX
  5
71D
  8
0
 10
0.0
 20
0.0
 30
0.0
 70
   128
 71
    -3
 72
     5
 73
    -6
  0
VERTEX
  5
71E
  8
0
 10
0.0
 20
0.0
 30
0.0
 70
   128
 71
     2
 72
    -3
 73
    -6
  0
VERTEX
  5
71F
  8
0
 10
0.0
 20
0.0
 30
0.0
 70
   128
 71
     3
 72
     4
 73
    -5
  0
SEQEND
  5
CCC
  8
0
  0
POLYLINE
  5
720
  8
0
 66
     1
 10
0.0
 20
0.0
 30
0.0
 70
    64
 71
    48
 72
    48
  0
VERTEX
  5
721
  8
0
 10
-102.143472767308
 20
-45.34655609027252
 30
140.0054840814892
 70
   192
  0
VERTEX
  5
722
  8
0
 10
-34.14313336640898
 20
-52.07508353570036
 30
139.9670543651207
 70
   192
  0
VERTEX
  5
723
  8
0
 10
34.14314124546956
 20
-52.07508377507168
 30
139.967054380901
 70
   192
  0
VERTEX
  5
724
  8
0
 10
102.143472767988
 20
-45.34655609480151
 30
140.005484080172
 70
   192
  0
VERTEX
  5
725
  8
0
 10
102.221543661257
 20
-55.19085771683638
 30
192.5308250633701
 70
   192
  0
VERTEX
  5
726
  8
0
 10
102.2215432911593
 20
-55.19083959099694
 30
245.7717913256731
 70
   192
  0
VERTEX
  5
727
  8
0
 10
102.143472803678
 20
-45.34655633234014
 30
298.2970039815836
 70
   192
  0
VERTEX
  5
728
  8
0
 10
34.14314124546939
 20
-52.07508377525138
 30
298.335433611819
 70
   192
  0
VERTEX
  5
729
  8
0
 10
-34.1431333664087
 20
-52.07508353588049
 30
298.335433627601
 70
   192
  0
VERTEX
  5
72A
  8
0
 10
-102.143472802997
 20
-45.34655632781115
 30
298.2970039802661
 70
   192
  0
VERTEX
  5
72B
  8
0
 10
-102.2215432911569
 20
-55.19083959099726
 30
245.7717913256732
 70
   192
  0
VERTEX
  5
72C
  8
0
 10
-102.2215436612494
 20
-55.19085771683744
 30
192.5308250633701
 70
   192
  0
VERTEX
  5
72D
  8
0
 10
99.7203506916705
 20
-46.47061745773811
 30
295.6179544207495
 70
   192
  0
VERTEX
  5
72E
  8
0
 10
100.3852021204079
 20
-46.37277158766737
 30
295.6180270801823
 70
   192
  0
VERTEX
  5
72F
  8
0
 10
101.0499599182437
 20
-46.27426158656141
 30
295.6180958910893
 70
   192
  0
VERTEX
  5
730
  8
0
 10
101.714623378066
 20
-46.17508736617812
 30
295.6181608515174
 70
   192
  0
VERTEX
  5
731
  8
0
 10
101.7144301735624
 20
-46.35913722528933
 30
294.9568233498087
 70
   192
  0
VERTEX
  5
732
  8
0
 10
101.7142389215963
 20
-46.54150535181564
 30
294.2950148211082
 70
   192
  0
VERTEX
  5
733
  8
0
 10
101.714049616575
 20
-46.72219220132784
 30
293.6327393900154
 70
   192
  0
VERTEX
  5
734
  8
0
 10
101.7051946635723
 20
-55.40244782846083
 30
244.2409024279804
 70
   192
  0
VERTEX
  5
735
  8
0
 10
101.7051943959636
 20
-55.40243057399901
 30
194.0615932249074
 70
   192
  0
VERTEX
  5
736
  8
0
 10
101.714049624717
 20
-46.72219263744085
 30
144.6697488100271
 70
   192
  0
VERTEX
  5
737
  8
0
 10
101.7142389289786
 20
-46.54150642246792
 30
144.0074759031728
 70
   192
  0
VERTEX
  5
738
  8
0
 10
101.7144301807116
 20
-46.35913813061704
 30
143.3456670410226
 70
   192
  0
VERTEX
  5
739
  8
0
 10
101.714623385202
 20
-46.17508757227959
 30
142.684327318276
 70
   192
  0
VERTEX
  5
73A
  8
0
 10
101.0499653841446
 20
-46.27426219389621
 30
142.6843966145615
 70
   192
  0
VERTEX
  5
73B
  8
0
 10
100.3852077233727
 20
-46.37277217973043
 30
142.6844654246766
 70
   192
  0
VERTEX
  5
73C
  8
0
 10
99.72035069866189
 20
-46.47061766402658
 30
142.6845337491251
 70
   192
  0
VERTEX
  5
73D
  8
0
 10
33.34560555400479
 20
-52.88971765167489
 30
142.6889622548293
 70
   192
  0
VERTEX
  5
73E
  8
0
 10
-33.34559272641265
 20
-52.88971534036605
 30
142.6889622623867
 70
   192
  0
VERTEX
  5
73F
  8
0
 10
-99.72035065169209
 20
-46.4706177026146
 30
142.6845337474542
 70
   192
  0
VERTEX
  5
740
  8
0
 10
-100.3852026607929
 20
-46.37277295117134
 30
142.6844654239406
 70
   192
  0
VERTEX
  5
741
  8
0
 10
-101.0499611090374
 20
-46.27426283938997
 30
142.6843966141783
 70
   192
  0
VERTEX
  5
742
  8
0
 10
-101.71462337574
 20
-46.17508757471758
 30
142.6843273179317
 70
   192
  0
VERTEX
  5
743
  8
0
 10
-101.7144301718619
 20
-46.35913750900899
 30
143.3456648388067
 70
   192
  0
VERTEX
  5
744
  8
0
 10
-101.7142389201749
 20
-46.54150571324769
 30
144.0074733770146
 70
   192
  0
VERTEX
  5
745
  8
0
 10
-101.714049615127
 20
-46.72219263992785
 30
144.6697488096859
 70
   192
  0
VERTEX
  5
746
  8
0
 10
-101.7051944110547
 20
-55.40243190499678
 30
194.061588549719
 70
   192
  0
VERTEX
  5
747
  8
0
 10
-101.7051946151703
 20
-55.40244675694337
 30
244.2408984740306
 70
   192
  0
VERTEX
  5
748
  8
0
 10
-101.714049606982
 20
-46.72219220381582
 30
293.6327393903545
 70
   192
  0
VERTEX
  5
749
  8
0
 10
-101.714238911302
 20
-46.54150606601466
 30
294.295012295637
 70
   192
  0
VERTEX
  5
74A
  8
0
 10
-101.7144301634005
 20
-46.35913785181175
 30
294.956821148277
 70
   192
  0
VERTEX
  5
74B
  8
0
 10
-101.714623368604
 20
-46.17508736861611
 30
295.6181608518618
 70
   192
  0
VERTEX
  5
74C
  8
0
 10
-101.049959834896
 20
-46.27426160565398
 30
295.6180958919763
 70
   192
  0
VERTEX
  5
74D
  8
0
 10
-100.3852020253781
 20
-46.37277161875182
 30
295.6180270815105
 70
   192
  0
VERTEX
  5
74E
  8
0
 10
-99.72035064470029
 20
-46.47061749632611
 30
295.6179544224203
 70
   192
  0
VERTEX
  5
74F
  8
0
 10
-33.94816043775567
 20
-52.8606563526368
 30
295.6135561231079
 70
   192
  0
VERTEX
  5
750
  8
0
 10
33.81785306602747
 20
-52.86694157647362
 30
295.6135888195678
 70
   192
  0
VERTEX
  5
751
  8
0
 10
0.0
 20
0.0
 30
0.0
 70
   128
 71
    13
 72
     7
 73
     8
  0
VERTEX
  5
752
  8
0
 10
0.0
 20
0.0
 30
0.0
 70
   128
 71
    48
 72
    13
 73
     8
  0
VERTEX
  5
753
  8
0
 10
0.0
 20
0.0
 30
0.0
 70
   128
 71
     9
 72
    47
 73
    48
  0
VERTEX
  5
754
  8
0
 10
0.0
 20
0.0
 30
0.0
 70
   128
 71
     8
 72
     9
 73
    48
  0
VERTEX
  5
755
  8
0
 10
0.0
 20
0.0
 30
0.0
 70
   128
 71
    11
 72
    39
 73
    40
  0
VERTEX
  5
756
  8
0
 10
0.0
 20
0.0
 30
0.0
 70
   128
 71
    40
 72
    10
 73
    11
  0
VERTEX
  5
757
  8
0
 10
0.0
 20
0.0
 30
0.0
 70
   128
 71
    40
 72
    41
 73
    10
  0
VERTEX
  5
758
  8
0
 10
0.0
 20
0.0
 30
0.0
 70
   128
 71
    41
 72
    42
 73
    10
  0
VERTEX
  5
759
  8
0
 10
0.0
 20
0.0
 30
0.0
 70
   128
 71
    42
 72
    43
 73
    10
  0
VERTEX
  5
75A
  8
0
 10
0.0
 20
0.0
 30
0.0
 70
   128
 71
    43
 72
    44
 73
    10
  0
VERTEX
  5
75B
  8
0
 10
0.0
 20
0.0
 30
0.0
 70
   128
 71
    44
 72
    45
 73
    10
  0
VERTEX
  5
75C
  8
0
 10
0.0
 20
0.0
 30
0.0
 70
   128
 71
    45
 72
    46
 73
    10
  0
VERTEX
  5
75D
  8
0
 10
0.0
 20
0.0
 30
0.0
 70
   128
 71
    47
 72
     9
 73
    10
  0
VERTEX
  5
75E
  8
0
 10
0.0
 20
0.0
 30
0.0
 70
   128
 71
    46
 72
    47
 73
    10
  0
VERTEX
  5
75F
  8
0
 10
0.0
 20
0.0
 30
0.0
 70
   128
 71
    12
 72
    38
 73
    39
  0
VERTEX
  5
760
  8
0
 10
0.0
 20
0.0
 30
0.0
 70
   128
 71
    11
 72
    12
 73
    39
  0
VERTEX
  5
761
  8
0
 10
0.0
 20
0.0
 30
0.0
 70
   128
 71
     2
 72
    30
 73
    31
  0
VERTEX
  5
762
  8
0
 10
0.0
 20
0.0
 30
0.0
 70
   128
 71
     1
 72
     2
 73
    31
  0
VERTEX
  5
763
  8
0
 10
0.0
 20
0.0
 30
0.0
 70
   128
 71
    31
 72
    32
 73
     1
  0
VERTEX
  5
764
  8
0
 10
0.0
 20
0.0
 30
0.0
 70
   128
 71
    32
 72
    33
 73
     1
  0
VERTEX
  5
765
  8
0
 10
0.0
 20
0.0
 30
0.0
 70
   128
 71
    33
 72
    34
 73
     1
  0
VERTEX
  5
766
  8
0
 10
0.0
 20
0.0
 30
0.0
 70
   128
 71
    34
 72
    35
 73
     1
  0
VERTEX
  5
767
  8
0
 10
0.0
 20
0.0
 30
0.0
 70
   128
 71
    35
 72
    36
 73
     1
  0
VERTEX
  5
768
  8
0
 10
0.0
 20
0.0
 30
0.0
 70
   128
 71
    36
 72
    37
 73
     1
  0
VERTEX
  5
769
  8
0
 10
0.0
 20
0.0
 30
0.0
 70
   128
 71
    12
 72
     1
 73
    37
  0
VERTEX
  5
76A
  8
0
 10
0.0
 20
0.0
 30
0.0
 70
   128
 71
    37
 72
    38
 73
    12
  0
VERTEX
  5
76B
  8
0
 10
0.0
 20
0.0
 30
0.0
 70
   128
 71
     3
 72
    29
 73
    30
  0
VERTEX
  5
76C
  8
0
 10
0.0
 20
0.0
 30
0.0
 70
   128
 71
     2
 72
     3
 73
    30
  0
VERTEX
  5
76D
  8
0
 10
0.0
 20
0.0
 30
0.0
 70
   128
 71
     5
 72
    21
 73
    22
  0
VERTEX
  5
76E
  8
0
 10
0.0
 20
0.0
 30
0.0
 70
   128
 71
    22
 72
     4
 73
     5
  0
VERTEX
  5
76F
  8
0
 10
0.0
 20
0.0
 30
0.0
 70
   128
 71
    22
 72
    23
 73
     4
  0
VERTEX
  5
770
  8
0
 10
0.0
 20
0.0
 30
0.0
 70
   128
 71
    23
 72
    24
 73
     4
  0
VERTEX
  5
771
  8
0
 10
0.0
 20
0.0
 30
0.0
 70
   128
 71
    24
 72
    25
 73
     4
  0
VERTEX
  5
772
  8
0
 10
0.0
 20
0.0
 30
0.0
 70
   128
 71
    25
 72
    26
 73
     4
  0
VERTEX
  5
773
  8
0
 10
0.0
 20
0.0
 30
0.0
 70
   128
 71
    26
 72
    27
 73
     4
  0
VERTEX
  5
774
  8
0
 10
0.0
 20
0.0
 30
0.0
 70
   128
 71
    27
 72
    28
 73
     4
  0
VERTEX
  5
775
  8
0
 10
0.0
 20
0.0
 30
0.0
 70
   128
 71
    29
 72
     3
 73
     4
  0
VERTEX
  5
776
  8
0
 10
0.0
 20
0.0
 30
0.0
 70
   128
 71
    28
 72
    29
 73
     4
  0
VERTEX
  5
777
  8
0
 10
0.0
 20
0.0
 30
0.0
 70
   128
 71
     6
 72
    20
 73
    21
  0
VERTEX
  5
778
  8
0
 10
0.0
 20
0.0
 30
0.0
 70
   128
 71
     5
 72
     6
 73
    21
  0
VERTEX
  5
779
  8
0
 10
0.0
 20
0.0
 30
0.0
 70
   128
 71
    13
 72
    14
 73
    15
  0
VERTEX
  5
77A
  8
0
 10
0.0
 20
0.0
 30
0.0
 70
   128
 71
     7
 72
    13
 73
    15
  0
VERTEX
  5
77B
  8
0
 10
0.0
 20
0.0
 30
0.0
 70
   128
 71
    15
 72
    16
 73
     7
  0
VERTEX
  5
77C
  8
0
 10
0.0
 20
0.0
 30
0.0
 70
   128
 71
    16
 72
    17
 73
     7
  0
VERTEX
  5
77D
  8
0
 10
0.0
 20
0.0
 30
0.0
 70
   128
 71
    17
 72
    18
 73
     7
  0
VERTEX
  5
77E
  8
0
 10
0.0
 20
0.0
 30
0.0
 70
   128
 71
    18
 72
    19
 73
     7
  0
VERTEX
  5
77F
  8
0
 10
0.0
 20
0.0
 30
0.0
 70
   128
 71
     6
 72
     7
 73
    19
  0
VERTEX
  5
780
  8
0
 10
0.0
 20
0.0
 30
0.0
 70
   128
 71
    19
 72
    20
 73
     6
  0
SEQEND
  5
CCD
  8
0
  0
POLYLINE
  5
781
  8
0
 66
     1
 10
0.0
 20
0.0
 30
0.0
 70
    64
 71
    36
 72
    46
  0
VERTEX
  5
782
  8
0
 10
-137.4529741928343
 20
6.157342191359831
 30
375.0381859028852
 70
   192
  0
VERTEX
  5
783
  8
0
 10
-135.8498464578839
 20
-50.44428120028547
 30
219.1512437605929
 70
   192
  0
VERTEX
  5
784
  8
0
 10
-135.7340368728768
 20
-39.28236820096665
 30
298.7592558304491
 70
   192
  0
VERTEX
  5
785
  8
0
 10
-102.143472802997
 20
-45.34655632781115
 30
298.2970039802661
 70
   192
  0
VERTEX
  5
786
  8
0
 10
-102.2215432911569
 20
-55.19083959099726
 30
245.7717913256732
 70
   192
  0
VERTEX
  5
787
  8
0
 10
-34.1431333664087
 20
-52.07508353588049
 30
298.335433627601
 70
   192
  0
VERTEX
  5
788
  8
0
 10
-0.0000000315893016
 20
-52.75866188596328
 30
298.8370199738538
 70
   192
  0
VERTEX
  5
789
  8
0
 10
-203.1906026964354
 20
-32.35386601524952
 30
219.1512437616547
 70
   192
  0
VERTEX
  5
78A
  8
0
 10
-137.8908298009989
 20
6.219087312213882
 30
63.27488680694803
 70
   192
  0
VERTEX
  5
78B
  8
0
 10
-135.7340367944279
 20
-39.28236727161256
 30
139.543230570203
 70
   192
  0
VERTEX
  5
78C
  8
0
 10
-269.6820009056391
 20
26.82817972733672
 30
166.532238713893
 70
   192
  0
VERTEX
  5
78D
  8
0
 10
-268.67106312541
 20
46.83537595271056
 30
69.8024105421113
 70
   192
  0
VERTEX
  5
78E
  8
0
 10
-0.0000000315893188
 20
-52.75866093388118
 30
139.4654664109428
 70
   192
  0
VERTEX
  5
78F
  8
0
 10
-0.4122011724027579
 20
-3.0694679227438
 30
61.67250312151334
 70
   192
  0
VERTEX
  5
790
  8
0
 10
-34.14313336640898
 20
-52.07508353570036
 30
139.9670543651207
 70
   192
  0
VERTEX
  5
791
  8
0
 10
-102.143472767308
 20
-45.34655609027252
 30
140.0054840814892
 70
   192
  0
VERTEX
  5
792
  8
0
 10
-102.2215436612494
 20
-55.19085771683744
 30
192.5308250633701
 70
   192
  0
VERTEX
  5
793
  8
0
 10
34.14314124546939
 20
-52.07508377525138
 30
298.335433611819
 70
   192
  0
VERTEX
  5
794
  8
0
 10
102.143472803678
 20
-45.34655633234014
 30
298.2970039815836
 70
   192
  0
VERTEX
  5
795
  8
0
 10
135.7340355382959
 20
-39.28236818045221
 30
298.7592558926241
 70
   192
  0
VERTEX
  5
796
  8
0
 10
102.2215432911593
 20
-55.19083959099694
 30
245.7717913256731
 70
   192
  0
VERTEX
  5
797
  8
0
 10
135.8498450711826
 20
-50.4442812049799
 30
219.1512437605928
 70
   192
  0
VERTEX
  5
798
  8
0
 10
0.4127193675875516
 20
-3.069467612266329
 30
376.6299848429197
 70
   192
  0
VERTEX
  5
799
  8
0
 10
269.6820077014435
 20
26.82808111223452
 30
271.7691374949282
 70
   192
  0
VERTEX
  5
79A
  8
0
 10
268.671062849085
 20
46.8353758512747
 30
368.5000770585823
 70
   192
  0
VERTEX
  5
79B
  8
0
 10
203.190603819369
 20
-32.35386527211789
 30
219.1512437616548
 70
   192
  0
VERTEX
  5
79C
  8
0
 10
137.8876895570082
 20
6.218643693692051
 30
375.027677509035
 70
   192
  0
VERTEX
  5
79D
  8
0
 10
102.143472767988
 20
-45.34655609480151
 30
140.005484080172
 70
   192
  0
VERTEX
  5
79E
  8
0
 10
135.7340354598471
 20
-39.28236725109829
 30
139.5432305080278
 70
   192
  0
VERTEX
  5
79F
  8
0
 10
102.221543661257
 20
-55.19085771683638
 30
192.5308250633701
 70
   192
  0
VERTEX
  5
7A0
  8
0
 10
34.14314124546956
 20
-52.07508377507168
 30
139.967054380901
 70
   192
  0
VERTEX
  5
7A1
  8
0
 10
137.4535255991027
 20
6.157419309012684
 30
63.26431552470009
 70
   192
  0
VERTEX
  5
7A2
  8
0
 10
-269.683168517945
 20
26.80854503177306
 30
271.5517448350555
 70
   192
  0
VERTEX
  5
7A3
  8
0
 10
-268.671063074469
 20
46.83537615020675
 30
368.5000770806442
 70
   192
  0
VERTEX
  5
7A4
  8
0
 10
269.6831609569765
 20
26.80866447683631
 30
166.749405829061
 70
   192
  0
VERTEX
  5
7A5
  8
0
 10
268.671062900024
 20
46.83537565377758
 30
69.8024105641703
 70
   192
  0
VERTEX
  5
7A6
  8
0
 10
0.0
 20
0.0
 30
0.0
 70
   128
 71
     1
 72
     2
 73
     3
  0
VERTEX
  5
7A7
  8
0
 10
0.0
 20
0.0
 30
0.0
 70
   128
 71
     4
 72
     3
 73
     2
  0
VERTEX
  5
7A8
  8
0
 10
0.0
 20
0.0
 30
0.0
 70
   128
 71
     5
 72
     4
 73
     2
  0
VERTEX
  5
7A9
  8
0
 10
0.0
 20
0.0
 30
0.0
 70
   128
 71
     3
 72
     4
 73
     6
  0
VERTEX
  5
7AA
  8
0
 10
0.0
 20
0.0
 30
0.0
 70
   128
 71
     6
 72
     7
 73
     3
  0
VERTEX
  5
7AB
  8
0
 10
0.0
 20
0.0
 30
0.0
 70
   128
 71
     2
 72
     8
 73
     9
  0
VERTEX
  5
7AC
  8
0
 10
0.0
 20
0.0
 30
0.0
 70
   128
 71
    10
 72
     2
 73
     9
  0
VERTEX
  5
7AD
  8
0
 10
0.0
 20
0.0
 30
0.0
 70
   128
 71
    11
 72
    12
 73
     8
  0
VERTEX
  5
7AE
  8
0
 10
0.0
 20
0.0
 30
0.0
 70
   128
 71
    13
 72
    10
 73
    14
  0
VERTEX
  5
7AF
  8
0
 10
0.0
 20
0.0
 30
0.0
 70
   128
 71
    15
 72
    16
 73
    13
  0
VERTEX
  5
7B0
  8
0
 10
0.0
 20
0.0
 30
0.0
 70
   128
 71
    16
 72
    10
 73
    13
  0
VERTEX
  5
7B1
  8
0
 10
0.0
 20
0.0
 30
0.0
 70
   128
 71
    10
 72
    16
 73
    17
  0
VERTEX
  5
7B2
  8
0
 10
0.0
 20
0.0
 30
0.0
 70
   128
 71
     2
 72
    10
 73
    17
  0
VERTEX
  5
7B3
  8
0
 10
0.0
 20
0.0
 30
0.0
 70
   128
 71
    18
 72
    19
 73
     7
  0
VERTEX
  5
7B4
  8
0
 10
0.0
 20
0.0
 30
0.0
 70
   128
 71
    19
 72
    20
 73
     7
  0
VERTEX
  5
7B5
  8
0
 10
0.0
 20
0.0
 30
0.0
 70
   128
 71
    21
 72
    22
 73
    20
  0
VERTEX
  5
7B6
  8
0
 10
0.0
 20
0.0
 30
0.0
 70
   128
 71
    19
 72
    21
 73
    20
  0
VERTEX
  5
7B7
  8
0
 10
0.0
 20
0.0
 30
0.0
 70
   128
 71
     7
 72
    20
 73
    23
  0
VERTEX
  5
7B8
  8
0
 10
0.0
 20
0.0
 30
0.0
 70
   128
 71
    24
 72
    25
 73
    26
  0
VERTEX
  5
7B9
  8
0
 10
0.0
 20
0.0
 30
0.0
 70
   128
 71
    22
 72
    26
 73
    27
  0
VERTEX
  5
7BA
  8
0
 10
0.0
 20
0.0
 30
0.0
 70
   128
 71
    20
 72
    22
 73
    27
  0
VERTEX
  5
7BB
  8
0
 10
0.0
 20
0.0
 30
0.0
 70
   128
 71
    28
 72
    29
 73
    22
  0
VERTEX
  5
7BC
  8
0
 10
0.0
 20
0.0
 30
0.0
 70
   128
 71
    30
 72
    28
 73
    22
  0
VERTEX
  5
7BD
  8
0
 10
0.0
 20
0.0
 30
0.0
 70
   128
 71
    29
 72
    28
 73
    31
  0
VERTEX
  5
7BE
  8
0
 10
0.0
 20
0.0
 30
0.0
 70
   128
 71
    31
 72
    13
 73
    29
  0
VERTEX
  5
7BF
  8
0
 10
0.0
 20
0.0
 30
0.0
 70
   128
 71
    32
 72
    22
 73
    29
  0
VERTEX
  5
7C0
  8
0
 10
0.0
 20
0.0
 30
0.0
 70
   128
 71
     8
 72
     2
 73
     1
  0
VERTEX
  5
7C1
  8
0
 10
0.0
 20
0.0
 30
0.0
 70
   128
 71
    33
 72
     8
 73
     1
  0
VERTEX
  5
7C2
  8
0
 10
0.0
 20
0.0
 30
0.0
 70
   128
 71
    34
 72
    33
 73
     1
  0
VERTEX
  5
7C3
  8
0
 10
0.0
 20
0.0
 30
0.0
 70
   128
 71
    11
 72
     8
 73
    33
  0
VERTEX
  5
7C4
  8
0
 10
0.0
 20
0.0
 30
0.0
 70
   128
 71
     7
 72
     6
 73
    18
  0
VERTEX
  5
7C5
  8
0
 10
0.0
 20
0.0
 30
0.0
 70
   128
 71
     5
 72
     2
 73
    17
  0
VERTEX
  5
7C6
  8
0
 10
0.0
 20
0.0
 30
0.0
 70
   128
 71
     3
 72
     7
 73
    23
  0
VERTEX
  5
7C7
  8
0
 10
0.0
 20
0.0
 30
0.0
 70
   128
 71
     1
 72
     3
 73
    23
  0
VERTEX
  5
7C8
  8
0
 10
0.0
 20
0.0
 30
0.0
 70
   128
 71
    10
 72
     9
 73
    14
  0
VERTEX
  5
7C9
  8
0
 10
0.0
 20
0.0
 30
0.0
 70
   128
 71
     8
 72
    12
 73
     9
  0
VERTEX
  5
7CA
  8
0
 10
0.0
 20
0.0
 30
0.0
 70
   128
 71
    13
 72
    14
 73
    29
  0
VERTEX
  5
7CB
  8
0
 10
0.0
 20
0.0
 30
0.0
 70
   128
 71
    15
 72
    13
 73
    31
  0
VERTEX
  5
7CC
  8
0
 10
0.0
 20
0.0
 30
0.0
 70
   128
 71
    30
 72
    22
 73
    21
  0
VERTEX
  5
7CD
  8
0
 10
0.0
 20
0.0
 30
0.0
 70
   128
 71
    23
 72
    20
 73
    27
  0
VERTEX
  5
7CE
  8
0
 10
0.0
 20
0.0
 30
0.0
 70
   128
 71
    27
 72
    26
 73
    25
  0
VERTEX
  5
7CF
  8
0
 10
0.0
 20
0.0
 30
0.0
 70
   128
 71
    26
 72
    35
 73
    24
  0
VERTEX
  5
7D0
  8
0
 10
0.0
 20
0.0
 30
0.0
 70
   128
 71
    29
 72
    14
 73
    32
  0
VERTEX
  5
7D1
  8
0
 10
0.0
 20
0.0
 30
0.0
 70
   128
 71
    32
 72
    36
 73
    35
  0
VERTEX
  5
7D2
  8
0
 10
0.0
 20
0.0
 30
0.0
 70
   128
 71
    22
 72
    32
 73
    35
  0
VERTEX
  5
7D3
  8
0
 10
0.0
 20
0.0
 30
0.0
 70
   128
 71
    26
 72
    22
 73
    35
  0
SEQEND
  5
CCE
  8
0
  0
POLYLINE
  5
7D4
  8
0
 66
     1
 10
0.0
 20
0.0
 30
0.0
 70
    64
 71
    24
 72
    24
  0
VERTEX
  5
7D5
  8
0
 10
-100.0
 20
-31.09124516697528
 30
144.1512439963834
 70
   192
  0
VERTEX
  5
7D6
  8
0
 10
-100.0
 20
-40.41637370015754
 30
193.865123897115
 70
   192
  0
VERTEX
  5
7D7
  8
0
 10
-100.0
 20
-40.41635795233488
 30
244.4375784559537
 70
   192
  0
VERTEX
  5
7D8
  8
0
 10
-100.0
 20
-31.09124516714643
 30
294.1512439963834
 70
   192
  0
VERTEX
  5
7D9
  8
0
 10
-33.44008151974278
 20
-37.68760297522886
 30
294.1512439963758
 70
   192
  0
VERTEX
  5
7DA
  8
0
 10
33.44012708162032
 20
-37.6876010378239
 30
294.1512439963758
 70
   192
  0
VERTEX
  5
7DB
  8
0
 10
100.0
 20
-31.09124516714643
 30
294.1512439963834
 70
   192
  0
VERTEX
  5
7DC
  8
0
 10
100.0
 20
-40.41635795233489
 30
244.4375784559537
 70
   192
  0
VERTEX
  5
7DD
  8
0
 10
100.0
 20
-40.41637370015754
 30
193.865123897115
 70
   192
  0
VERTEX
  5
7DE
  8
0
 10
100.0
 20
-31.09124516697528
 30
144.1512439963834
 70
   192
  0
VERTEX
  5
7DF
  8
0
 10
33.44012708162042
 20
-37.68760103765277
 30
144.1512439963758
 70
   192
  0
VERTEX
  5
7E0
  8
0
 10
-33.44008151974276
 20
-37.68760297505771
 30
144.1512439963758
 70
   192
  0
VERTEX
  5
7E1
  8
0
 10
35.88925882447379
 20
-48.01754613828282
 30
219.151243576574
 70
   192
  0
VERTEX
  5
7E2
  8
0
 10
31.08990084743458
 20
-47.68983725088462
 30
237.0560801354771
 70
   192
  0
VERTEX
  5
7E3
  8
0
 10
17.96241384236872
 20
-47.01236752316051
 30
250.1792322609154
 70
   192
  0
VERTEX
  5
7E4
  8
0
 10
0.0000000043683597
 20
-46.66503232597774
 30
254.9888783528701
 70
   192
  0
VERTEX
  5
7E5
  8
0
 10
-17.96266971398684
 20
-47.01233614231243
 30
250.1791500979499
 70
   192
  0
VERTEX
  5
7E6
  8
0
 10
-31.0898081720302
 20
-47.68982995852297
 30
237.0562909558046
 70
   192
  0
VERTEX
  5
7E7
  8
0
 10
-35.88925883413719
 20
-48.01754580772083
 30
219.1512435765684
 70
   192
  0
VERTEX
  5
7E8
  8
0
 10
-31.08990110272741
 20
-47.68983812906936
 30
201.2464097033404
 70
   192
  0
VERTEX
  5
7E9
  8
0
 10
-17.96241580860632
 20
-47.01236471327764
 30
188.1232564627899
 70
   192
  0
VERTEX
  5
7EA
  8
0
 10
0.0000000043683558
 20
-46.66503141802195
 30
183.3136090220299
 70
   192
  0
VERTEX
  5
7EB
  8
0
 10
17.9626719868591
 20
-47.01233288595753
 30
188.1233385873623
 70
   192
  0
VERTEX
  5
7EC
  8
0
 10
31.08980921578912
 20
-47.68983126959251
 30
201.2462000940014
 70
   192
  0
VERTEX
  5
7ED
  8
0
 10
0.0
 20
0.0
 30
0.0
 70
   128
 71
     9
 72
    10
 73
    11
  0
VERTEX
  5
7EE
  8
0
 10
0.0
 20
0.0
 30
0.0
 70
   128
 71
    13
 72
     9
 73
    11
  0
VERTEX
  5
7EF
  8
0
 10
0.0
 20
0.0
 30
0.0
 70
   128
 71
    24
 72
    13
 73
    11
  0
VERTEX
  5
7F0
  8
0
 10
0.0
 20
0.0
 30
0.0
 70
   128
 71
    12
 72
    20
 73
    21
  0
VERTEX
  5
7F1
  8
0
 10
0.0
 20
0.0
 30
0.0
 70
   128
 71
    21
 72
    22
 73
    12
  0
VERTEX
  5
7F2
  8
0
 10
0.0
 20
0.0
 30
0.0
 70
   128
 71
    23
 72
    11
 73
    12
  0
VERTEX
  5
7F3
  8
0
 10
0.0
 20
0.0
 30
0.0
 70
   128
 71
    22
 72
    23
 73
    12
  0
VERTEX
  5
7F4
  8
0
 10
0.0
 20
0.0
 30
0.0
 70
   128
 71
    23
 72
    24
 73
    11
  0
VERTEX
  5
7F5
  8
0
 10
0.0
 20
0.0
 30
0.0
 70
   128
 71
     1
 72
     2
 73
    20
  0
VERTEX
  5
7F6
  8
0
 10
0.0
 20
0.0
 30
0.0
 70
   128
 71
    12
 72
     1
 73
    20
  0
VERTEX
  5
7F7
  8
0
 10
0.0
 20
0.0
 30
0.0
 70
   128
 71
     3
 72
    18
 73
    19
  0
VERTEX
  5
7F8
  8
0
 10
0.0
 20
0.0
 30
0.0
 70
   128
 71
     2
 72
     3
 73
    19
  0
VERTEX
  5
7F9
  8
0
 10
0.0
 20
0.0
 30
0.0
 70
   128
 71
    19
 72
    20
 73
     2
  0
VERTEX
  5
7FA
  8
0
 10
0.0
 20
0.0
 30
0.0
 70
   128
 71
     4
 72
     5
 73
    18
  0
VERTEX
  5
7FB
  8
0
 10
0.0
 20
0.0
 30
0.0
 70
   128
 71
     3
 72
     4
 73
    18
  0
VERTEX
  5
7FC
  8
0
 10
0.0
 20
0.0
 30
0.0
 70
   128
 71
     6
 72
    14
 73
    15
  0
VERTEX
  5
7FD
  8
0
 10
0.0
 20
0.0
 30
0.0
 70
   128
 71
    16
 72
     5
 73
     6
  0
VERTEX
  5
7FE
  8
0
 10
0.0
 20
0.0
 30
0.0
 70
   128
 71
    15
 72
    16
 73
     6
  0
VERTEX
  5
7FF
  8
0
 10
0.0
 20
0.0
 30
0.0
 70
   128
 71
    16
 72
    17
 73
     5
  0
VERTEX
  5
800
  8
0
 10
0.0
 20
0.0
 30
0.0
 70
   128
 71
    17
 72
    18
 73
     5
  0
VERTEX
  5
801
  8
0
 10
0.0
 20
0.0
 30
0.0
 70
   128
 71
     7
 72
     8
 73
    14
  0
VERTEX
  5
802
  8
0
 10
0.0
 20
0.0
 30
0.0
 70
   128
 71
     6
 72
     7
 73
    14
  0
VERTEX
  5
803
  8
0
 10
0.0
 20
0.0
 30
0.0
 70
   128
 71
     9
 72
    13
 73
    14
  0
VERTEX
  5
804
  8
0
 10
0.0
 20
0.0
 30
0.0
 70
   128
 71
     8
 72
     9
 73
    14
  0
SEQEND
  5
CCF
  8
0
  0
POLYLINE
  5
805
  8
0
 66
     1
 10
0.0
 20
0.0
 30
0.0
 70
    64
 71
    10
 72
    10
  0
VERTEX
  5
806
  8
0
 10
-100.000000000006
 20
-73.51537272442127
 30
144.1512439963464
 70
   192
  0
VERTEX
  5
807
  8
0
 10
99.9999999999945
 20
-73.51537272442127
 30
144.1512439963464
 70
   192
  0
VERTEX
  5
808
  8
0
 10
99.9999999999945
 20
-73.51537272459241
 30
294.1512439963465
 70
   192
  0
VERTEX
  5
809
  8
0
 10
-100.000000000006
 20
-73.51537272459241
 30
294.1512439963465
 70
   192
  0
VERTEX
  5
80A
  8
0
 10
22.4999999999943
 20
-73.51537272450683
 30
219.1512439963465
 70
   192
  0
VERTEX
  5
80B
  8
0
 10
11.00343771923882
 20
-73.5153727244845
 30
199.5253845665354
 70
   192
  0
VERTEX
  5
80C
  8
0
 10
-11.00343771925025
 20
-73.51537272448448
 30
199.5253845665353
 70
   192
  0
VERTEX
  5
80D
  8
0
 10
-22.5000000000057
 20
-73.51537272450683
 30
219.1512439963465
 70
   192
  0
VERTEX
  5
80E
  8
0
 10
-11.00343771925025
 20
-73.51537272452929
 30
238.7771034261576
 70
   192
  0
VERTEX
  5
80F
  8
0
 10
11.00343771923881
 20
-73.51537272452927
 30
238.7771034261576
 70
   192
  0
VERTEX
  5
810
  8
0
 10
0.0
 20
0.0
 30
0.0
 70
   128
 71
    -3
 72
     5
 73
    -6
  0
VERTEX
  5
811
  8
0
 10
0.0
 20
0.0
 30
0.0
 70
   128
 71
     2
 72
    -3
 73
    -6
  0
VERTEX
  5
812
  8
0
 10
0.0
 20
0.0
 30
0.0
 70
   128
 71
    -7
 72
     1
 73
    -2
  0
VERTEX
  5
813
  8
0
 10
0.0
 20
0.0
 30
0.0
 70
   128
 71
     6
 72
    -7
 73
    -2
  0
VERTEX
  5
814
  8
0
 10
0.0
 20
0.0
 30
0.0
 70
   128
 71
    -8
 72
     4
 73
    -1
  0
VERTEX
  5
815
  8
0
 10
0.0
 20
0.0
 30
0.0
 70
   128
 71
     7
 72
    -8
 73
    -1
  0
VERTEX
  5
816
  8
0
 10
0.0
 20
0.0
 30
0.0
 70
   128
 71
     8
 72
    -9
 73
    -4
  0
VERTEX
  5
817
  8
0
 10
0.0
 20
0.0
 30
0.0
 70
   128
 71
   -10
 72
     3
 73
    -4
  0
VERTEX
  5
818
  8
0
 10
0.0
 20
0.0
 30
0.0
 70
   128
 71
     9
 72
   -10
 73
    -4
  0
VERTEX
  5
819
  8
0
 10
0.0
 20
0.0
 30
0.0
 70
   128
 71
    10
 72
    -5
 73
    -3
  0
SEQEND
  5
CD0
  8
0
  0
POLYLINE
  5
81A
  8
0
 66
     1
 10
0.0
 20
0.0
 30
0.0
 70
    64
 71
     8
 72
     6
  0
VERTEX
  5
81B
  8
0
 10
-289.0
 20
71.48463102097621
 30
399.6512439965005
 70
   192
  0
VERTEX
  5
81C
  8
0
 10
-289.0000000000003
 20
71.23777596599436
 30
400.6293273493206
 70
   192
  0
VERTEX
  5
81D
  8
0
 10
-289.0000000000004
 20
70.49721080105107
 30
401.3957648347017
 70
   192
  0
VERTEX
  5
81E
  8
0
 10
-289.0
 20
69.55214421268094
 30
401.6512439964942
 70
   192
  0
VERTEX
  5
81F
  8
0
 10
289.0
 20
69.55214421268094
 30
401.6512439964982
 70
   192
  0
VERTEX
  5
820
  8
0
 10
288.9999999999991
 20
70.49721080105083
 30
401.3957648347047
 70
   192
  0
VERTEX
  5
821
  8
0
 10
288.9999999999992
 20
71.23777596599433
 30
400.6293273493219
 70
   192
  0
VERTEX
  5
822
  8
0
 10
289.0
 20
71.48463102097621
 30
399.6512439965005
 70
   192
  0
VERTEX
  5
823
  8
0
 10
0.0
 20
0.0
 30
0.0
 70
   128
 71
     4
 72
     5
 73
    -6
  0
VERTEX
  5
824
  8
0
 10
0.0
 20
0.0
 30
0.0
 70
   128
 71
     3
 72
    -4
 73
     6
  0
VERTEX
  5
825
  8
0
 10
0.0
 20
0.0
 30
0.0
 70
   128
 71
     7
 72
     2
 73
    -3
  0
VERTEX
  5
826
  8
0
 10
0.0
 20
0.0
 30
0.0
 70
   128
 71
     6
 72
    -7
 73
     3
  0
VERTEX
  5
827
  8
0
 10
0.0
 20
0.0
 30
0.0
 70
   128
 71
     8
 72
     1
 73
    -2
  0
VERTEX
  5
828
  8
0
 10
0.0
 20
0.0
 30
0.0
 70
   128
 71
     7
 72
    -8
 73
     2
  0
SEQEND
  5
CD1
  8
0
  0
POLYLINE
  5
829
  8
0
 66
     1
 10
0.0
 20
0.0
 30
0.0
 70
    64
 71
    54
 72
    74
  0
VERTEX
  5
82A
  8
0
 10
-210.9746623699626
 20
2.269835603946088
 30
308.5266944464988
 70
   192
  0
VERTEX
  5
82B
  8
0
 10
-215.9916537192879
 20
70.34873879976854
 30
386.70415590533
 70
   192
  0
VERTEX
  5
82C
  8
0
 10
-173.2535312856601
 20
70.1598931327995
 30
387.0249188890868
 70
   192
  0
VERTEX
  5
82D
  8
0
 10
-142.0016933210482
 20
1.9813385570579
 30
349.8695615272159
 70
   192
  0
VERTEX
  5
82E
  8
0
 10
-142.0016933210482
 20
-18.71790993984271
 30
308.5266944464748
 70
   192
  0
VERTEX
  5
82F
  8
0
 10
-277.101443768685
 20
70.59181256414462
 30
330.0049573830524
 70
   192
  0
VERTEX
  5
830
  8
0
 10
-270.0517868729936
 20
71.31051884852732
 30
382.6961531932811
 70
   192
  0
VERTEX
  5
831
  8
0
 10
-142.0016933210482
 20
-33.82192531783055
 30
219.1512456068904
 70
   192
  0
VERTEX
  5
832
  8
0
 10
-210.9746623699626
 20
-12.19603955543314
 30
219.1512456069152
 70
   192
  0
VERTEX
  5
833
  8
0
 10
-277.5203338149801
 20
70.36476989909328
 30
264.8445078724697
 70
   192
  0
VERTEX
  5
834
  8
0
 10
-100.0
 20
-31.09124516714643
 30
294.1512439963834
 70
   192
  0
VERTEX
  5
835
  8
0
 10
-0.0000025055778555
 20
-33.85074451235449
 30
308.5266944464574
 70
   192
  0
VERTEX
  5
836
  8
0
 10
-33.44008151974278
 20
-37.68760297522886
 30
294.1512439963758
 70
   192
  0
VERTEX
  5
837
  8
0
 10
-100.0
 20
-40.41635795233488
 30
244.4375784559537
 70
   192
  0
VERTEX
  5
838
  8
0
 10
-0.0000025055778545
 20
-12.63981056175237
 30
349.8695615271989
 70
   192
  0
VERTEX
  5
839
  8
0
 10
-142.0016933210482
 20
1.981336266416892
 30
88.43292926266618
 70
   192
  0
VERTEX
  5
83A
  8
0
 10
-272.8459728911274
 20
71.32451902038856
 30
58.15819299856099
 70
   192
  0
VERTEX
  5
83B
  8
0
 10
-277.1468127812402
 20
70.56777589289578
 30
112.1090982029999
 70
   192
  0
VERTEX
  5
83C
  8
0
 10
-210.9746623699626
 20
2.269834565928283
 30
129.7757965844518
 70
   192
  0
VERTEX
  5
83D
  8
0
 10
-142.0016933210483
 20
-18.71791102366014
 30
129.7757965844279
 70
   192
  0
VERTEX
  5
83E
  8
0
 10
-277.5426443726964
 20
70.34688744985385
 30
183.806915616599
 70
   192
  0
VERTEX
  5
83F
  8
0
 10
-100.0
 20
-31.09124516697528
 30
144.1512439963834
 70
   192
  0
VERTEX
  5
840
  8
0
 10
-100.0
 20
-40.41637370015754
 30
193.865123897115
 70
   192
  0
VERTEX
  5
841
  8
0
 10
-33.44008151974276
 20
-37.68760297505771
 30
144.1512439963758
 70
   192
  0
VERTEX
  5
842
  8
0
 10
-0.0000025055778504
 20
-33.85074559617181
 30
129.7757965844108
 70
   192
  0
VERTEX
  5
843
  8
0
 10
-0.0000025055778472
 20
-12.6398130738305
 30
88.43292926264968
 70
   192
  0
VERTEX
  5
844
  8
0
 10
-110.8557297711227
 20
70.04291649139572
 30
51.07785767565597
 70
   192
  0
VERTEX
  5
845
  8
0
 10
100.0
 20
-31.09124516714643
 30
294.1512439963834
 70
   192
  0
VERTEX
  5
846
  8
0
 10
142.001688422063
 20
-18.71791100721436
 30
308.5266944464746
 70
   192
  0
VERTEX
  5
847
  8
0
 10
142.0016884220628
 20
-33.82192638520232
 30
219.1512456068904
 70
   192
  0
VERTEX
  5
848
  8
0
 10
100.0
 20
-40.41635795233489
 30
244.4375784559537
 70
   192
  0
VERTEX
  5
849
  8
0
 10
33.44012708162032
 20
-37.6876010378239
 30
294.1512439963758
 70
   192
  0
VERTEX
  5
84A
  8
0
 10
142.0016884220632
 20
1.981337525777261
 30
349.8695615272156
 70
   192
  0
VERTEX
  5
84B
  8
0
 10
110.8556714195135
 20
70.04289559908932
 30
387.2246247772727
 70
   192
  0
VERTEX
  5
84C
  8
0
 10
272.8459305081796
 20
71.32450116000899
 30
380.1442811022411
 70
   192
  0
VERTEX
  5
84D
  8
0
 10
277.1468087786465
 20
70.56776905264473
 30
326.1933653784656
 70
   192
  0
VERTEX
  5
84E
  8
0
 10
210.9746576136244
 20
2.26983325775288
 30
308.5266944464986
 70
   192
  0
VERTEX
  5
84F
  8
0
 10
210.9746576136244
 20
-12.19604214709546
 30
219.1512456069151
 70
   192
  0
VERTEX
  5
850
  8
0
 10
277.5426398101085
 20
70.34687745223998
 30
254.4955315580416
 70
   192
  0
VERTEX
  5
851
  8
0
 10
100.0
 20
-31.09124516697528
 30
144.1512439963834
 70
   192
  0
VERTEX
  5
852
  8
0
 10
142.001688422063
 20
-18.7179120910319
 30
129.775796584428
 70
   192
  0
VERTEX
  5
853
  8
0
 10
33.44012708162042
 20
-37.68760103765277
 30
144.1512439963758
 70
   192
  0
VERTEX
  5
854
  8
0
 10
100.0
 20
-40.41637370015754
 30
193.865123897115
 70
   192
  0
VERTEX
  5
855
  8
0
 10
142.0016884220632
 20
1.981335235136068
 30
88.43292926266633
 70
   192
  0
VERTEX
  5
856
  8
0
 10
277.101476294636
 20
70.59181057904365
 30
108.2975101958834
 70
   192
  0
VERTEX
  5
857
  8
0
 10
270.0517338608496
 20
71.31051524471701
 30
55.60631154782881
 70
   192
  0
VERTEX
  5
858
  8
0
 10
215.9915906187448
 20
70.3487219705035
 30
51.59833899870973
 70
   192
  0
VERTEX
  5
859
  8
0
 10
210.9746576136244
 20
2.269832219734915
 30
129.7757965844519
 70
   192
  0
VERTEX
  5
85A
  8
0
 10
173.2527901335549
 20
70.15988764299784
 30
51.27756670608415
 70
   192
  0
VERTEX
  5
85B
  8
0
 10
-107.0438758886912
 20
70.03854441699986
 30
387.2321509734064
 70
   192
  0
VERTEX
  5
85C
  8
0
 10
-219.8029611876782
 20
70.37709156687077
 30
51.64698377294985
 70
   192
  0
VERTEX
  5
85D
  8
0
 10
107.0438146501502
 20
70.03853470714915
 30
51.07033949711387
 70
   192
  0
VERTEX
  5
85E
  8
0
 10
219.802904877477
 20
70.37708737285244
 30
386.6555031477788
 70
   192
  0
VERTEX
  5
85F
  8
0
 10
277.5343503675979
 20
70.35162270941764
 30
179.9000165973836
 70
   192
  0
VERTEX
  5
860
  8
0
 10
0.0
 20
0.0
 30
0.0
 70
   128
 71
     1
 72
     2
 73
     3
  0
VERTEX
  5
861
  8
0
 10
0.0
 20
0.0
 30
0.0
 70
   128
 71
     4
 72
     1
 73
     3
  0
VERTEX
  5
862
  8
0
 10
0.0
 20
0.0
 30
0.0
 70
   128
 71
     4
 72
     5
 73
     1
  0
VERTEX
  5
863
  8
0
 10
0.0
 20
0.0
 30
0.0
 70
   128
 71
     6
 72
     7
 73
     2
  0
VERTEX
  5
864
  8
0
 10
0.0
 20
0.0
 30
0.0
 70
   128
 71
     1
 72
     5
 73
     8
  0
VERTEX
  5
865
  8
0
 10
0.0
 20
0.0
 30
0.0
 70
   128
 71
     9
 72
     1
 73
     8
  0
VERTEX
  5
866
  8
0
 10
0.0
 20
0.0
 30
0.0
 70
   128
 71
     1
 72
     9
 73
    10
  0
VERTEX
  5
867
  8
0
 10
0.0
 20
0.0
 30
0.0
 70
   128
 71
    11
 72
     5
 73
    12
  0
VERTEX
  5
868
  8
0
 10
0.0
 20
0.0
 30
0.0
 70
   128
 71
    13
 72
    11
 73
    12
  0
VERTEX
  5
869
  8
0
 10
0.0
 20
0.0
 30
0.0
 70
   128
 71
     5
 72
    11
 73
    14
  0
VERTEX
  5
86A
  8
0
 10
0.0
 20
0.0
 30
0.0
 70
   128
 71
     8
 72
     5
 73
    14
  0
VERTEX
  5
86B
  8
0
 10
0.0
 20
0.0
 30
0.0
 70
   128
 71
     4
 72
    15
 73
    12
  0
VERTEX
  5
86C
  8
0
 10
0.0
 20
0.0
 30
0.0
 70
   128
 71
     5
 72
     4
 73
    12
  0
VERTEX
  5
86D
  8
0
 10
0.0
 20
0.0
 30
0.0
 70
   128
 71
    16
 72
    17
 73
    18
  0
VERTEX
  5
86E
  8
0
 10
0.0
 20
0.0
 30
0.0
 70
   128
 71
    19
 72
    16
 73
    18
  0
VERTEX
  5
86F
  8
0
 10
0.0
 20
0.0
 30
0.0
 70
   128
 71
    19
 72
    20
 73
    16
  0
VERTEX
  5
870
  8
0
 10
0.0
 20
0.0
 30
0.0
 70
   128
 71
     9
 72
     8
 73
    20
  0
VERTEX
  5
871
  8
0
 10
0.0
 20
0.0
 30
0.0
 70
   128
 71
    19
 72
     9
 73
    20
  0
VERTEX
  5
872
  8
0
 10
0.0
 20
0.0
 30
0.0
 70
   128
 71
     9
 72
    19
 73
    21
  0
VERTEX
  5
873
  8
0
 10
0.0
 20
0.0
 30
0.0
 70
   128
 71
    22
 72
    20
 73
     8
  0
VERTEX
  5
874
  8
0
 10
0.0
 20
0.0
 30
0.0
 70
   128
 71
    23
 72
    22
 73
     8
  0
VERTEX
  5
875
  8
0
 10
0.0
 20
0.0
 30
0.0
 70
   128
 71
    20
 72
    22
 73
    24
  0
VERTEX
  5
876
  8
0
 10
0.0
 20
0.0
 30
0.0
 70
   128
 71
    25
 72
    20
 73
    24
  0
VERTEX
  5
877
  8
0
 10
0.0
 20
0.0
 30
0.0
 70
   128
 71
    16
 72
    26
 73
    27
  0
VERTEX
  5
878
  8
0
 10
0.0
 20
0.0
 30
0.0
 70
   128
 71
    20
 72
    25
 73
    26
  0
VERTEX
  5
879
  8
0
 10
0.0
 20
0.0
 30
0.0
 70
   128
 71
    16
 72
    20
 73
    26
  0
VERTEX
  5
87A
  8
0
 10
0.0
 20
0.0
 30
0.0
 70
   128
 71
    28
 72
    29
 73
    30
  0
VERTEX
  5
87B
  8
0
 10
0.0
 20
0.0
 30
0.0
 70
   128
 71
    31
 72
    28
 73
    30
  0
VERTEX
  5
87C
  8
0
 10
0.0
 20
0.0
 30
0.0
 70
   128
 71
    32
 72
    12
 73
    29
  0
VERTEX
  5
87D
  8
0
 10
0.0
 20
0.0
 30
0.0
 70
   128
 71
    28
 72
    32
 73
    29
  0
VERTEX
  5
87E
  8
0
 10
0.0
 20
0.0
 30
0.0
 70
   128
 71
    15
 72
    33
 73
    29
  0
VERTEX
  5
87F
  8
0
 10
0.0
 20
0.0
 30
0.0
 70
   128
 71
    12
 72
    15
 73
    29
  0
VERTEX
  5
880
  8
0
 10
0.0
 20
0.0
 30
0.0
 70
   128
 71
    33
 72
    15
 73
    34
  0
VERTEX
  5
881
  8
0
 10
0.0
 20
0.0
 30
0.0
 70
   128
 71
    33
 72
    35
 73
    36
  0
VERTEX
  5
882
  8
0
 10
0.0
 20
0.0
 30
0.0
 70
   128
 71
    37
 72
    33
 73
    36
  0
VERTEX
  5
883
  8
0
 10
0.0
 20
0.0
 30
0.0
 70
   128
 71
    37
 72
    29
 73
    33
  0
VERTEX
  5
884
  8
0
 10
0.0
 20
0.0
 30
0.0
 70
   128
 71
    38
 72
    37
 73
    39
  0
VERTEX
  5
885
  8
0
 10
0.0
 20
0.0
 30
0.0
 70
   128
 71
    29
 72
    37
 73
    38
  0
VERTEX
  5
886
  8
0
 10
0.0
 20
0.0
 30
0.0
 70
   128
 71
    30
 72
    29
 73
    38
  0
VERTEX
  5
887
  8
0
 10
0.0
 20
0.0
 30
0.0
 70
   128
 71
    40
 72
    41
 73
    25
  0
VERTEX
  5
888
  8
0
 10
0.0
 20
0.0
 30
0.0
 70
   128
 71
    42
 72
    40
 73
    25
  0
VERTEX
  5
889
  8
0
 10
0.0
 20
0.0
 30
0.0
 70
   128
 71
    41
 72
    40
 73
    43
  0
VERTEX
  5
88A
  8
0
 10
0.0
 20
0.0
 30
0.0
 70
   128
 71
    30
 72
    41
 73
    43
  0
VERTEX
  5
88B
  8
0
 10
0.0
 20
0.0
 30
0.0
 70
   128
 71
    25
 72
    41
 73
    44
  0
VERTEX
  5
88C
  8
0
 10
0.0
 20
0.0
 30
0.0
 70
   128
 71
    26
 72
    25
 73
    44
  0
VERTEX
  5
88D
  8
0
 10
0.0
 20
0.0
 30
0.0
 70
   128
 71
    45
 72
    46
 73
    47
  0
VERTEX
  5
88E
  8
0
 10
0.0
 20
0.0
 30
0.0
 70
   128
 71
    48
 72
    47
 73
    49
  0
VERTEX
  5
88F
  8
0
 10
0.0
 20
0.0
 30
0.0
 70
   128
 71
    44
 72
    48
 73
    49
  0
VERTEX
  5
890
  8
0
 10
0.0
 20
0.0
 30
0.0
 70
   128
 71
    44
 72
    41
 73
    48
  0
VERTEX
  5
891
  8
0
 10
0.0
 20
0.0
 30
0.0
 70
   128
 71
    30
 72
    38
 73
    48
  0
VERTEX
  5
892
  8
0
 10
0.0
 20
0.0
 30
0.0
 70
   128
 71
    41
 72
    30
 73
    48
  0
VERTEX
  5
893
  8
0
 10
0.0
 20
0.0
 30
0.0
 70
   128
 71
    50
 72
     4
 73
     3
  0
VERTEX
  5
894
  8
0
 10
0.0
 20
0.0
 30
0.0
 70
   128
 71
     2
 72
     1
 73
    10
  0
VERTEX
  5
895
  8
0
 10
0.0
 20
0.0
 30
0.0
 70
   128
 71
     6
 72
     2
 73
    10
  0
VERTEX
  5
896
  8
0
 10
0.0
 20
0.0
 30
0.0
 70
   128
 71
    10
 72
     9
 73
    21
  0
VERTEX
  5
897
  8
0
 10
0.0
 20
0.0
 30
0.0
 70
   128
 71
     8
 72
    14
 73
    23
  0
VERTEX
  5
898
  8
0
 10
0.0
 20
0.0
 30
0.0
 70
   128
 71
    13
 72
    12
 73
    32
  0
VERTEX
  5
899
  8
0
 10
0.0
 20
0.0
 30
0.0
 70
   128
 71
    34
 72
    15
 73
     4
  0
VERTEX
  5
89A
  8
0
 10
0.0
 20
0.0
 30
0.0
 70
   128
 71
    50
 72
    34
 73
     4
  0
VERTEX
  5
89B
  8
0
 10
0.0
 20
0.0
 30
0.0
 70
   128
 71
    21
 72
    19
 73
    18
  0
VERTEX
  5
89C
  8
0
 10
0.0
 20
0.0
 30
0.0
 70
   128
 71
    17
 72
    16
 73
    27
  0
VERTEX
  5
89D
  8
0
 10
0.0
 20
0.0
 30
0.0
 70
   128
 71
    51
 72
    17
 73
    27
  0
VERTEX
  5
89E
  8
0
 10
0.0
 20
0.0
 30
0.0
 70
   128
 71
    42
 72
    25
 73
    24
  0
VERTEX
  5
89F
  8
0
 10
0.0
 20
0.0
 30
0.0
 70
   128
 71
    26
 72
    44
 73
    52
  0
VERTEX
  5
8A0
  8
0
 10
0.0
 20
0.0
 30
0.0
 70
   128
 71
    27
 72
    26
 73
    52
  0
VERTEX
  5
8A1
  8
0
 10
0.0
 20
0.0
 30
0.0
 70
   128
 71
    31
 72
    30
 73
    43
  0
VERTEX
  5
8A2
  8
0
 10
0.0
 20
0.0
 30
0.0
 70
   128
 71
    53
 72
    35
 73
    33
  0
VERTEX
  5
8A3
  8
0
 10
0.0
 20
0.0
 30
0.0
 70
   128
 71
    34
 72
    53
 73
    33
  0
VERTEX
  5
8A4
  8
0
 10
0.0
 20
0.0
 30
0.0
 70
   128
 71
    37
 72
    36
 73
    39
  0
VERTEX
  5
8A5
  8
0
 10
0.0
 20
0.0
 30
0.0
 70
   128
 71
    38
 72
    39
 73
    54
  0
VERTEX
  5
8A6
  8
0
 10
0.0
 20
0.0
 30
0.0
 70
   128
 71
    44
 72
    49
 73
    52
  0
VERTEX
  5
8A7
  8
0
 10
0.0
 20
0.0
 30
0.0
 70
   128
 71
    45
 72
    47
 73
    48
  0
VERTEX
  5
8A8
  8
0
 10
0.0
 20
0.0
 30
0.0
 70
   128
 71
    38
 72
    54
 73
    45
  0
VERTEX
  5
8A9
  8
0
 10
0.0
 20
0.0
 30
0.0
 70
   128
 71
    48
 72
    38
 73
    45
  0
SEQEND
  5
CD2
  8
0
  0
POLYLINE
  5
8AA
  8
0
 66
     1
 10
0.0
 20
0.0
 30
0.0
 70
    64
 71
    25
 72
    23
  0
VERTEX
  5
8AB
  8
0
 10
278.8371440061412
 20
71.4846310210592
 30
326.9334693225651
 70
   192
  0
VERTEX
  5
8AC
  8
0
 10
278.787135218352
 20
71.48463102130867
 30
108.2691608150254
 70
   192
  0
VERTEX
  5
8AD
  8
0
 10
278.1371196428165
 20
71.37968837550389
 30
108.2800927650579
 70
   192
  0
VERTEX
  5
8AE
  8
0
 10
277.5427195854054
 20
71.06486043808803
 30
108.2900893743199
 70
   192
  0
VERTEX
  5
8AF
  8
0
 10
277.101476294636
 20
70.59181057904365
 30
108.2975101958834
 70
   192
  0
VERTEX
  5
8B0
  8
0
 10
277.5343503675979
 20
70.35162270941764
 30
179.9000165973836
 70
   192
  0
VERTEX
  5
8B1
  8
0
 10
277.5426398101085
 20
70.34687745223998
 30
254.4955315580416
 70
   192
  0
VERTEX
  5
8B2
  8
0
 10
277.1468087786465
 20
70.56776905264473
 30
326.1933653784656
 70
   192
  0
VERTEX
  5
8B3
  8
0
 10
-173.2535312856601
 20
70.1598931327995
 30
387.0249188890868
 70
   192
  0
VERTEX
  5
8B4
  8
0
 10
-215.9916537192879
 20
70.34873879976854
 30
386.70415590533
 70
   192
  0
VERTEX
  5
8B5
  8
0
 10
-217.1162981428572
 20
71.48463102098891
 30
388.5087933374961
 70
   192
  0
VERTEX
  5
8B6
  8
0
 10
272.8459305081796
 20
71.32450116000899
 30
380.1442811022411
 70
   192
  0
VERTEX
  5
8B7
  8
0
 10
273.3131516989977
 20
71.48463102099763
 30
380.8532984571186
 70
   192
  0
VERTEX
  5
8B8
  8
0
 10
220.2169015183381
 20
71.48463102098897
 30
388.4572539679115
 70
   192
  0
VERTEX
  5
8B9
  8
0
 10
219.802904877477
 20
70.37708737285244
 30
386.6555031477788
 70
   192
  0
VERTEX
  5
8BA
  8
0
 10
110.8556714195135
 20
70.04289559908932
 30
387.2246247772727
 70
   192
  0
VERTEX
  5
8BB
  8
0
 10
110.8851782226878
 20
71.48463102098818
 30
389.1590248625047
 70
   192
  0
VERTEX
  5
8BC
  8
0
 10
-107.0438758886912
 20
70.03854441699986
 30
387.2321509734064
 70
   192
  0
VERTEX
  5
8BD
  8
0
 10
-107.7841393366616
 20
71.48463102098816
 30
389.1659274738743
 70
   192
  0
VERTEX
  5
8BE
  8
0
 10
-270.0517868729936
 20
71.31051884852732
 30
382.6961531932811
 70
   192
  0
VERTEX
  5
8BF
  8
0
 10
-271.0850695957092
 20
71.48463102099518
 30
383.0054951500774
 70
   192
  0
VERTEX
  5
8C0
  8
0
 10
-277.101443768685
 20
70.59181256414462
 30
330.0049573830524
 70
   192
  0
VERTEX
  5
8C1
  8
0
 10
-277.5426620213512
 20
71.0648618088491
 30
330.0125161620868
 70
   192
  0
VERTEX
  5
8C2
  8
0
 10
-278.1370431538833
 20
71.37968871800366
 30
330.0225191063487
 70
   192
  0
VERTEX
  5
8C3
  8
0
 10
-278.787050780461
 20
71.48463102105566
 30
330.0333247589054
 70
   192
  0
VERTEX
  5
8C4
  8
0
 10
0.0
 20
0.0
 30
0.0
 70
   128
 71
     1
 72
     2
 73
     3
  0
VERTEX
  5
8C5
  8
0
 10
0.0
 20
0.0
 30
0.0
 70
   128
 71
     4
 72
     5
 73
     6
  0
VERTEX
  5
8C6
  8
0
 10
0.0
 20
0.0
 30
0.0
 70
   128
 71
     6
 72
     7
 73
     4
  0
VERTEX
  5
8C7
  8
0
 10
0.0
 20
0.0
 30
0.0
 70
   128
 71
     7
 72
     8
 73
     4
  0
VERTEX
  5
8C8
  8
0
 10
0.0
 20
0.0
 30
0.0
 70
   128
 71
     9
 72
    10
 73
    11
  0
VERTEX
  5
8C9
  8
0
 10
0.0
 20
0.0
 30
0.0
 70
   128
 71
     3
 72
     4
 73
     8
  0
VERTEX
  5
8CA
  8
0
 10
0.0
 20
0.0
 30
0.0
 70
   128
 71
     1
 72
     3
 73
     8
  0
VERTEX
  5
8CB
  8
0
 10
0.0
 20
0.0
 30
0.0
 70
   128
 71
    12
 72
    13
 73
     1
  0
VERTEX
  5
8CC
  8
0
 10
0.0
 20
0.0
 30
0.0
 70
   128
 71
     8
 72
    12
 73
     1
  0
VERTEX
  5
8CD
  8
0
 10
0.0
 20
0.0
 30
0.0
 70
   128
 71
    14
 72
    15
 73
    16
  0
VERTEX
  5
8CE
  8
0
 10
0.0
 20
0.0
 30
0.0
 70
   128
 71
    17
 72
    14
 73
    16
  0
VERTEX
  5
8CF
  8
0
 10
0.0
 20
0.0
 30
0.0
 70
   128
 71
    16
 72
    18
 73
    19
  0
VERTEX
  5
8D0
  8
0
 10
0.0
 20
0.0
 30
0.0
 70
   128
 71
    17
 72
    16
 73
    19
  0
VERTEX
  5
8D1
  8
0
 10
0.0
 20
0.0
 30
0.0
 70
   128
 71
    12
 72
    15
 73
    14
  0
VERTEX
  5
8D2
  8
0
 10
0.0
 20
0.0
 30
0.0
 70
   128
 71
    13
 72
    12
 73
    14
  0
VERTEX
  5
8D3
  8
0
 10
0.0
 20
0.0
 30
0.0
 70
   128
 71
    19
 72
    18
 73
     9
  0
VERTEX
  5
8D4
  8
0
 10
0.0
 20
0.0
 30
0.0
 70
   128
 71
     9
 72
    11
 73
    19
  0
VERTEX
  5
8D5
  8
0
 10
0.0
 20
0.0
 30
0.0
 70
   128
 71
    10
 72
    20
 73
    21
  0
VERTEX
  5
8D6
  8
0
 10
0.0
 20
0.0
 30
0.0
 70
   128
 71
    11
 72
    10
 73
    21
  0
VERTEX
  5
8D7
  8
0
 10
0.0
 20
0.0
 30
0.0
 70
   128
 71
    20
 72
    22
 73
    23
  0
VERTEX
  5
8D8
  8
0
 10
0.0
 20
0.0
 30
0.0
 70
   128
 71
    21
 72
    20
 73
    23
  0
VERTEX
  5
8D9
  8
0
 10
0.0
 20
0.0
 30
0.0
 70
   128
 71
    23
 72
    24
 73
    21
  0
VERTEX
  5
8DA
  8
0
 10
0.0
 20
0.0
 30
0.0
 70
   128
 71
    24
 72
    25
 73
    21
  0
SEQEND
  5
CD3
  8
0
  0
POLYLINE
  5
8DB
  8
0
 66
     1
 10
0.0
 20
0.0
 30
0.0
 70
    64
 71
    20
 72
    20
  0
VERTEX
  5
8DC
  8
0
 10
-289.0
 20
71.48463102138811
 30
38.65124399650041
 70
   192
  0
VERTEX
  5
8DD
  8
0
 10
-289.0
 20
71.48463102097621
 30
399.6512439965005
 70
   192
  0
VERTEX
  5
8DE
  8
0
 10
289.0
 20
71.48463102097621
 30
399.6512439965005
 70
   192
  0
VERTEX
  5
8DF
  8
0
 10
289.0
 20
71.48463102138811
 30
38.65124399650041
 70
   192
  0
VERTEX
  5
8E0
  8
0
 10
-278.787050780461
 20
71.48463102105565
 30
330.0333247589054
 70
   192
  0
VERTEX
  5
8E1
  8
0
 10
-278.8371439582676
 20
71.48463102130512
 30
111.3690155823002
 70
   192
  0
VERTEX
  5
8E2
  8
0
 10
-273.3131498848186
 20
71.4846310213667
 30
57.44918714750749
 70
   192
  0
VERTEX
  5
8E3
  8
0
 10
-220.2168987172846
 20
71.48463102137536
 30
49.84523098737284
 70
   192
  0
VERTEX
  5
8E4
  8
0
 10
-110.8851749351592
 20
71.48463102137616
 30
49.14355292326428
 70
   192
  0
VERTEX
  5
8E5
  8
0
 10
107.7841417935742
 20
71.48463102137616
 30
49.13656133310709
 70
   192
  0
VERTEX
  5
8E6
  8
0
 10
217.116300417754
 20
71.4846310213754
 30
49.79369469164664
 70
   192
  0
VERTEX
  5
8E7
  8
0
 10
271.0850713942186
 20
71.48463102136915
 30
55.29699408288822
 70
   192
  0
VERTEX
  5
8E8
  8
0
 10
278.787135218352
 20
71.48463102130867
 30
108.2691608150254
 70
   192
  0
VERTEX
  5
8E9
  8
0
 10
278.8371440061412
 20
71.4846310210592
 30
326.9334693225651
 70
   192
  0
VERTEX
  5
8EA
  8
0
 10
273.3131516989977
 20
71.48463102099763
 30
380.8532984571186
 70
   192
  0
VERTEX
  5
8EB
  8
0
 10
220.2169015183381
 20
71.48463102098897
 30
388.4572539679115
 70
   192
  0
VERTEX
  5
8EC
  8
0
 10
110.8851782226878
 20
71.48463102098818
 30
389.1590248625047
 70
   192
  0
VERTEX
  5
8ED
  8
0
 10
-107.7841393366616
 20
71.48463102098816
 30
389.1659274738743
 70
   192
  0
VERTEX
  5
8EE
  8
0
 10
-217.1162981428572
 20
71.48463102098891
 30
388.5087933374961
 70
   192
  0
VERTEX
  5
8EF
  8
0
 10
-271.0850695957092
 20
71.48463102099518
 30
383.0054951500774
 70
   192
  0
VERTEX
  5
8F0
  8
0
 10
0.0
 20
0.0
 30
0.0
 70
   128
 71
    -2
 72
     5
 73
    -6
  0
VERTEX
  5
8F1
  8
0
 10
0.0
 20
0.0
 30
0.0
 70
   128
 71
     1
 72
    -2
 73
    -6
  0
VERTEX
  5
8F2
  8
0
 10
0.0
 20
0.0
 30
0.0
 70
   128
 71
     6
 72
    -7
 73
    -1
  0
VERTEX
  5
8F3
  8
0
 10
0.0
 20
0.0
 30
0.0
 70
   128
 71
     7
 72
    -8
 73
    -1
  0
VERTEX
  5
8F4
  8
0
 10
0.0
 20
0.0
 30
0.0
 70
   128
 71
     8
 72
    -9
 73
    -1
  0
VERTEX
  5
8F5
  8
0
 10
0.0
 20
0.0
 30
0.0
 70
   128
 71
     9
 72
   -10
 73
    -1
  0
VERTEX
  5
8F6
  8
0
 10
0.0
 20
0.0
 30
0.0
 70
   128
 71
   -10
 72
     4
 73
    -1
  0
VERTEX
  5
8F7
  8
0
 10
0.0
 20
0.0
 30
0.0
 70
   128
 71
    10
 72
   -11
 73
    -4
  0
VERTEX
  5
8F8
  8
0
 10
0.0
 20
0.0
 30
0.0
 70
   128
 71
    11
 72
   -12
 73
    -4
  0
VERTEX
  5
8F9
  8
0
 10
0.0
 20
0.0
 30
0.0
 70
   128
 71
    12
 72
   -13
 73
    -4
  0
VERTEX
  5
8FA
  8
0
 10
0.0
 20
0.0
 30
0.0
 70
   128
 71
   -14
 72
     3
 73
    -4
  0
VERTEX
  5
8FB
  8
0
 10
0.0
 20
0.0
 30
0.0
 70
   128
 71
    13
 72
   -14
 73
    -4
  0
VERTEX
  5
8FC
  8
0
 10
0.0
 20
0.0
 30
0.0
 70
   128
 71
    14
 72
   -15
 73
    -3
  0
VERTEX
  5
8FD
  8
0
 10
0.0
 20
0.0
 30
0.0
 70
   128
 71
    15
 72
   -16
 73
    -3
  0
VERTEX
  5
8FE
  8
0
 10
0.0
 20
0.0
 30
0.0
 70
   128
 71
    16
 72
   -17
 73
    -3
  0
VERTEX
  5
8FF
  8
0
 10
0.0
 20
0.0
 30
0.0
 70
   128
 71
    17
 72
   -18
 73
    -3
  0
VERTEX
  5
900
  8
0
 10
0.0
 20
0.0
 30
0.0
 70
   128
 71
   -18
 72
     2
 73
    -3
  0
VERTEX
  5
901
  8
0
 10
0.0
 20
0.0
 30
0.0
 70
   128
 71
    18
 72
   -19
 73
    -2
  0
VERTEX
  5
902
  8
0
 10
0.0
 20
0.0
 30
0.0
 70
   128
 71
    19
 72
   -20
 73
    -2
  0
VERTEX
  5
903
  8
0
 10
0.0
 20
0.0
 30
0.0
 70
   128
 71
    20
 72
    -5
 73
    -2
  0
SEQEND
  5
CD4
  8
0
  0
POLYLINE
  5
904
  8
0
 66
     1
 10
0.0
 20
0.0
 30
0.0
 70
    64
 71
     8
 72
     6
  0
VERTEX
  5
905
  8
0
 10
-289.0
 20
69.55214421309738
 30
36.65124399649022
 70
   192
  0
VERTEX
  5
906
  8
0
 10
-288.999999999976
 20
-46.51537272429857
 30
36.65124399637879
 70
   192
  0
VERTEX
  5
907
  8
0
 10
-289.9999468387938
 20
-46.51537272429812
 30
36.91927505151647
 70
   192
  0
VERTEX
  5
908
  8
0
 10
-290.7319689448493
 20
-46.51537272429871
 30
37.65129715757203
 70
   192
  0
VERTEX
  5
909
  8
0
 10
-290.999999999988
 20
-46.51537272430084
 30
38.65124399638875
 70
   192
  0
VERTEX
  5
90A
  8
0
 10
-291.000000000008
 20
69.5521442130951
 30
38.65124399649822
 70
   192
  0
VERTEX
  5
90B
  8
0
 10
-290.7319689449288
 20
69.55214421309626
 30
37.65129715762509
 70
   192
  0
VERTEX
  5
90C
  8
0
 10
-289.9999468388731
 20
69.55214421309685
 30
36.91927505156892
 70
   192
  0
VERTEX
  5
90D
  8
0
 10
0.0
 20
0.0
 30
0.0
 70
   128
 71
     5
 72
     6
 73
    -7
  0
VERTEX
  5
90E
  8
0
 10
0.0
 20
0.0
 30
0.0
 70
   128
 71
     4
 72
    -5
 73
     7
  0
VERTEX
  5
90F
  8
0
 10
0.0
 20
0.0
 30
0.0
 70
   128
 71
     8
 72
     3
 73
    -4
  0
VERTEX
  5
910
  8
0
 10
0.0
 20
0.0
 30
0.0
 70
   128
 71
     7
 72
    -8
 73
     4
  0
VERTEX
  5
911
  8
0
 10
0.0
 20
0.0
 30
0.0
 70
   128
 71
     1
 72
     2
 73
    -3
  0
VERTEX
  5
912
  8
0
 10
0.0
 20
0.0
 30
0.0
 70
   128
 71
     8
 72
    -1
 73
     3
  0
SEQEND
  5
CD5
  8
0
  0
POLYLINE
  5
913
  8
0
 66
     1
 10
0.0
 20
0.0
 30
0.0
 70
    64
 71
     4
 72
     2
  0
VERTEX
  5
914
  8
0
 10
-291.000000000007
 20
-46.51537272471279
 30
399.6512439963757
 70
   192
  0
VERTEX
  5
915
  8
0
 10
-290.999999999995
 20
69.55214421268322
 30
399.6512439964952
 70
   192
  0
VERTEX
  5
916
  8
0
 10
-291.000000000008
 20
69.5521442130951
 30
38.65124399649822
 70
   192
  0
VERTEX
  5
917
  8
0
 10
-290.999999999988
 20
-46.51537272430084
 30
38.65124399638875
 70
   192
  0
VERTEX
  5
918
  8
0
 10
0.0
 20
0.0
 30
0.0
 70
   128
 71
     3
 72
     4
 73
    -1
  0
VERTEX
  5
919
  8
0
 10
0.0
 20
0.0
 30
0.0
 70
   128
 71
     2
 72
    -3
 73
     1
  0
SEQEND
  5
CD6
  8
0
  0
POLYLINE
  5
91A
  8
0
 66
     1
 10
0.0
 20
0.0
 30
0.0
 70
    64
 71
     8
 72
     6
  0
VERTEX
  5
91B
  8
0
 10
289.0
 20
71.48463102097621
 30
399.6512439965005
 70
   192
  0
VERTEX
  5
91C
  8
0
 10
289.9780833528216
 20
71.23777596599558
 30
399.6512439965001
 70
   192
  0
VERTEX
  5
91D
  8
0
 10
290.7445208382053
 20
70.49721080105294
 30
399.6512439964993
 70
   192
  0
VERTEX
  5
91E
  8
0
 10
291.0
 20
69.55214421268322
 30
399.6512439964982
 70
   192
  0
VERTEX
  5
91F
  8
0
 10
291.000000000006
 20
69.5521442130951
 30
38.65124399649822
 70
   192
  0
VERTEX
  5
920
  8
0
 10
290.7445208382089
 20
70.4972108014654
 30
38.6512439964997
 70
   192
  0
VERTEX
  5
921
  8
0
 10
289.9780833528229
 20
71.23777596640807
 30
38.65124399650055
 70
   192
  0
VERTEX
  5
922
  8
0
 10
289.0
 20
71.48463102138811
 30
38.65124399650041
 70
   192
  0
VERTEX
  5
923
  8
0
 10
0.0
 20
0.0
 30
0.0
 70
   128
 71
     4
 72
     5
 73
    -6
  0
VERTEX
  5
924
  8
0
 10
0.0
 20
0.0
 30
0.0
 70
   128
 71
     3
 72
    -4
 73
     6
  0
VERTEX
  5
925
  8
0
 10
0.0
 20
0.0
 30
0.0
 70
   128
 71
     7
 72
     2
 73
    -3
  0
VERTEX
  5
926
  8
0
 10
0.0
 20
0.0
 30
0.0
 70
   128
 71
     6
 72
    -7
 73
     3
  0
VERTEX
  5
927
  8
0
 10
0.0
 20
0.0
 30
0.0
 70
   128
 71
     8
 72
     1
 73
    -2
  0
VERTEX
  5
928
  8
0
 10
0.0
 20
0.0
 30
0.0
 70
   128
 71
     7
 72
    -8
 73
     2
  0
SEQEND
  5
CD7
  8
0
  0
POLYLINE
  5
929
  8
0
 66
     1
 10
0.0
 20
0.0
 30
0.0
 70
    64
 71
     8
 72
     6
  0
VERTEX
  5
92A
  8
0
 10
289.0
 20
71.48463102138811
 30
38.65124399650041
 70
   192
  0
VERTEX
  5
92B
  8
0
 10
289.0000000000001
 20
71.2377759664091
 30
37.67316064367734
 70
   192
  0
VERTEX
  5
92C
  8
0
 10
289.0000000000001
 20
70.49721080146733
 30
36.90672315829051
 70
   192
  0
VERTEX
  5
92D
  8
0
 10
289.0
 20
69.55214421309738
 30
36.65124399649222
 70
   192
  0
VERTEX
  5
92E
  8
0
 10
-289.0
 20
69.55214421309738
 30
36.65124399649022
 70
   192
  0
VERTEX
  5
92F
  8
0
 10
-288.9999999999999
 20
70.4972108014677
 30
36.90672315828947
 70
   192
  0
VERTEX
  5
930
  8
0
 10
-289.0
 20
71.23777596640946
 30
37.67316064367707
 70
   192
  0
VERTEX
  5
931
  8
0
 10
-289.0000000000001
 20
71.48463102138811
 30
38.6512439965004
 70
   192
  0
VERTEX
  5
932
  8
0
 10
0.0
 20
0.0
 30
0.0
 70
   128
 71
     4
 72
     5
 73
    -6
  0
VERTEX
  5
933
  8
0
 10
0.0
 20
0.0
 30
0.0
 70
   128
 71
     3
 72
    -4
 73
     6
  0
VERTEX
  5
934
  8
0
 10
0.0
 20
0.0
 30
0.0
 70
   128
 71
     7
 72
     2
 73
    -3
  0
VERTEX
  5
935
  8
0
 10
0.0
 20
0.0
 30
0.0
 70
   128
 71
     6
 72
    -7
 73
     3
  0
VERTEX
  5
936
  8
0
 10
0.0
 20
0.0
 30
0.0
 70
   128
 71
     8
 72
     1
 73
    -2
  0
VERTEX
  5
937
  8
0
 10
0.0
 20
0.0
 30
0.0
 70
   128
 71
     7
 72
    -8
 73
     2
  0
SEQEND
  5
CD8
  8
0
  0
POLYLINE
  5
938
  8
0
 66
     1
 10
0.0
 20
0.0
 30
0.0
 70
    64
 71
     6
 72
     4
  0
VERTEX
  5
939
  8
0
 10
279.047286138187
 20
-46.51537272470679
 30
388.2621931094947
 70
   192
  0
VERTEX
  5
93A
  8
0
 10
271.700090953343
 20
46.22937180397982
 30
371.0232131250316
 70
   192
  0
VERTEX
  5
93B
  8
0
 10
273.3240631460238
 20
25.7297277436717
 30
270.5472645420655
 70
   192
  0
VERTEX
  5
93C
  8
0
 10
273.3244066132258
 20
25.7253921058858
 30
167.8059834953872
 70
   192
  0
VERTEX
  5
93D
  8
0
 10
271.700090955774
 20
46.22937177364347
 30
67.27927486198759
 70
   192
  0
VERTEX
  5
93E
  8
0
 10
279.04728613848
 20
-46.51537272434386
 30
50.04029488323478
 70
   192
  0
VERTEX
  5
93F
  8
0
 10
0.0
 20
0.0
 30
0.0
 70
   128
 71
     1
 72
     2
 73
    -3
  0
VERTEX
  5
940
  8
0
 10
0.0
 20
0.0
 30
0.0
 70
   128
 71
    -4
 72
     6
 73
    -1
  0
VERTEX
  5
941
  8
0
 10
0.0
 20
0.0
 30
0.0
 70
   128
 71
     3
 72
    -4
 73
    -1
  0
VERTEX
  5
942
  8
0
 10
0.0
 20
0.0
 30
0.0
 70
   128
 71
     4
 72
     5
 73
    -6
  0
SEQEND
  5
CD9
  8
0
  0
POLYLINE
  5
943
  8
0
 66
     1
 10
0.0
 20
0.0
 30
0.0
 70
    64
 71
     6
 72
     4
  0
VERTEX
  5
944
  8
0
 10
-279.047286138481
 20
-46.51537272434386
 30
50.04029488323478
 70
   192
  0
VERTEX
  5
945
  8
0
 10
-271.700090956893
 20
46.22937175952443
 30
67.27927485936358
 70
   192
  0
VERTEX
  5
946
  8
0
 10
-273.3240552632681
 20
25.72982724827933
 30
167.7540539614978
 70
   192
  0
VERTEX
  5
947
  8
0
 10
-273.3244162991591
 20
25.72526983732276
 30
270.4950736403703
 70
   192
  0
VERTEX
  5
948
  8
0
 10
-271.700090954285
 20
46.22937178990785
 30
371.0232131277486
 70
   192
  0
VERTEX
  5
949
  8
0
 10
-279.047286138187
 20
-46.51537272470679
 30
388.2621931094947
 70
   192
  0
VERTEX
  5
94A
  8
0
 10
0.0
 20
0.0
 30
0.0
 70
   128
 71
     1
 72
     2
 73
    -3
  0
VERTEX
  5
94B
  8
0
 10
0.0
 20
0.0
 30
0.0
 70
   128
 71
    -4
 72
     6
 73
    -1
  0
VERTEX
  5
94C
  8
0
 10
0.0
 20
0.0
 30
0.0
 70
   128
 71
     3
 72
    -4
 73
    -1
  0
VERTEX
  5
94D
  8
0
 10
0.0
 20
0.0
 30
0.0
 70
   128
 71
     4
 72
     5
 73
    -6
  0
SEQEND
  5
CDA
  8
0
  0
POLYLINE
  5
94E
  8
0
 66
     1
 10
0.0
 20
0.0
 30
0.0
 70
    64
 71
    18
 72
    16
  0
VERTEX
  5
94F
  8
0
 10
-269.683168517945
 20
26.80854503177306
 30
271.5517448350555
 70
   192
  0
VERTEX
  5
950
  8
0
 10
-268.671063074469
 20
46.83537615020675
 30
368.5000770806442
 70
   192
  0
VERTEX
  5
951
  8
0
 10
-269.6059089444752
 20
47.5557290388515
 30
369.4018591733156
 70
   192
  0
VERTEX
  5
952
  8
0
 10
-271.6210673140071
 20
46.65202251866398
 30
370.9446526929677
 70
   192
  0
VERTEX
  5
953
  8
0
 10
-270.663910016908
 20
47.67412441492428
 30
370.3043293383743
 70
   192
  0
VERTEX
  5
954
  8
0
 10
-271.5480336975451
 20
46.85534115152504
 30
370.9068607311683
 70
   192
  0
VERTEX
  5
955
  8
0
 10
-271.6717530662538
 20
46.44336606479154
 30
370.9834368251609
 70
   192
  0
VERTEX
  5
956
  8
0
 10
-271.700090954285
 20
46.22937178990785
 30
371.0232131277486
 70
   192
  0
VERTEX
  5
957
  8
0
 10
-273.3244162991591
 20
25.72526983732276
 30
270.4950736403703
 70
   192
  0
VERTEX
  5
958
  8
0
 10
-273.3240552632681
 20
25.72982724827933
 30
167.7540539614978
 70
   192
  0
VERTEX
  5
959
  8
0
 10
-271.700090956893
 20
46.22937175952443
 30
67.27927485936358
 70
   192
  0
VERTEX
  5
95A
  8
0
 10
-271.6717530916287
 20
46.44336592062626
 30
67.3190511408874
 70
   192
  0
VERTEX
  5
95B
  8
0
 10
-271.548033849297
 20
46.85534080582929
 30
67.39562719745732
 70
   192
  0
VERTEX
  5
95C
  8
0
 10
-270.6638917443711
 20
47.6741209411847
 30
67.99813811373318
 70
   192
  0
VERTEX
  5
95D
  8
0
 10
-269.5973828160442
 20
47.55211024310191
 30
68.90968591210924
 70
   192
  0
VERTEX
  5
95E
  8
0
 10
-271.6210673890967
 20
46.65202226939621
 30
67.35783525357635
 70
   192
  0
VERTEX
  5
95F
  8
0
 10
-268.67106312541
 20
46.83537595271056
 30
69.8024105421113
 70
   192
  0
VERTEX
  5
960
  8
0
 10
-269.6820009056391
 20
26.82817972733672
 30
166.532238713893
 70
   192
  0
VERTEX
  5
961
  8
0
 10
0.0
 20
0.0
 30
0.0
 70
   128
 71
     1
 72
     2
 73
     3
  0
VERTEX
  5
962
  8
0
 10
0.0
 20
0.0
 30
0.0
 70
   128
 71
     4
 72
     1
 73
     3
  0
VERTEX
  5
963
  8
0
 10
0.0
 20
0.0
 30
0.0
 70
   128
 71
     5
 72
     6
 73
     4
  0
VERTEX
  5
964
  8
0
 10
0.0
 20
0.0
 30
0.0
 70
   128
 71
     3
 72
     5
 73
     4
  0
VERTEX
  5
965
  8
0
 10
0.0
 20
0.0
 30
0.0
 70
   128
 71
     4
 72
     7
 73
     1
  0
VERTEX
  5
966
  8
0
 10
0.0
 20
0.0
 30
0.0
 70
   128
 71
     8
 72
     9
 73
     1
  0
VERTEX
  5
967
  8
0
 10
0.0
 20
0.0
 30
0.0
 70
   128
 71
     7
 72
     8
 73
     1
  0
VERTEX
  5
968
  8
0
 10
0.0
 20
0.0
 30
0.0
 70
   128
 71
    10
 72
    11
 73
    12
  0
VERTEX
  5
969
  8
0
 10
0.0
 20
0.0
 30
0.0
 70
   128
 71
    13
 72
    14
 73
    15
  0
VERTEX
  5
96A
  8
0
 10
0.0
 20
0.0
 30
0.0
 70
   128
 71
    16
 72
    13
 73
    15
  0
VERTEX
  5
96B
  8
0
 10
0.0
 20
0.0
 30
0.0
 70
   128
 71
    17
 72
    18
 73
    16
  0
VERTEX
  5
96C
  8
0
 10
0.0
 20
0.0
 30
0.0
 70
   128
 71
    15
 72
    17
 73
    16
  0
VERTEX
  5
96D
  8
0
 10
0.0
 20
0.0
 30
0.0
 70
   128
 71
     1
 72
     9
 73
    10
  0
VERTEX
  5
96E
  8
0
 10
0.0
 20
0.0
 30
0.0
 70
   128
 71
    16
 72
    18
 73
     1
  0
VERTEX
  5
96F
  8
0
 10
0.0
 20
0.0
 30
0.0
 70
   128
 71
    12
 72
    16
 73
     1
  0
VERTEX
  5
970
  8
0
 10
0.0
 20
0.0
 30
0.0
 70
   128
 71
    10
 72
    12
 73
     1
  0
SEQEND
  5
CDB
  8
0
  0
POLYLINE
  5
971
  8
0
 66
     1
 10
0.0
 20
0.0
 30
0.0
 70
    64
 71
    18
 72
    16
  0
VERTEX
  5
972
  8
0
 10
269.6831609569765
 20
26.80866447683631
 30
166.749405829061
 70
   192
  0
VERTEX
  5
973
  8
0
 10
268.671062900024
 20
46.83537565377758
 30
69.8024105641703
 70
   192
  0
VERTEX
  5
974
  8
0
 10
269.6059091870454
 20
47.55572882709123
 30
68.900628418657
 70
   192
  0
VERTEX
  5
975
  8
0
 10
271.6210673482105
 20
46.65202242124857
 30
67.35783528180208
 70
   192
  0
VERTEX
  5
976
  8
0
 10
270.6639101992341
 20
47.67412425820824
 30
67.99815863618957
 70
   192
  0
VERTEX
  5
977
  8
0
 10
271.548033767434
 20
46.85534101962632
 30
67.3956272371973
 70
   192
  0
VERTEX
  5
978
  8
0
 10
271.6717530776573
 20
46.44336600591928
 30
67.3190511567412
 70
   192
  0
VERTEX
  5
979
  8
0
 10
271.700090955774
 20
46.22937177364347
 30
67.27927486198759
 70
   192
  0
VERTEX
  5
97A
  8
0
 10
273.3244066132258
 20
25.7253921058858
 30
167.8059834953872
 70
   192
  0
VERTEX
  5
97B
  8
0
 10
269.5973835135578
 20
47.55211097600278
 30
369.3928030912339
 70
   192
  0
VERTEX
  5
97C
  8
0
 10
271.700090953343
 20
46.22937180397982
 30
371.0232131250316
 70
   192
  0
VERTEX
  5
97D
  8
0
 10
271.6717530524037
 20
46.44336615005963
 30
370.9834368092813
 70
   192
  0
VERTEX
  5
97E
  8
0
 10
271.6210672731841
 20
46.65202267050509
 30
370.94465266474
 70
   192
  0
VERTEX
  5
97F
  8
0
 10
271.548033615684
 20
46.85534136532002
 30
370.9068606914283
 70
   192
  0
VERTEX
  5
980
  8
0
 10
270.6638915928561
 20
47.6741211478743
 30
370.3043500615528
 70
   192
  0
VERTEX
  5
981
  8
0
 10
269.6820077014435
 20
26.82808111223452
 30
271.7691374949282
 70
   192
  0
VERTEX
  5
982
  8
0
 10
273.3240631460238
 20
25.7297277436717
 30
270.5472645420655
 70
   192
  0
VERTEX
  5
983
  8
0
 10
268.671062849085
 20
46.8353758512747
 30
368.5000770585823
 70
   192
  0
VERTEX
  5
984
  8
0
 10
0.0
 20
0.0
 30
0.0
 70
   128
 71
     1
 72
     2
 73
     3
  0
VERTEX
  5
985
  8
0
 10
0.0
 20
0.0
 30
0.0
 70
   128
 71
     4
 72
     1
 73
     3
  0
VERTEX
  5
986
  8
0
 10
0.0
 20
0.0
 30
0.0
 70
   128
 71
     5
 72
     6
 73
     4
  0
VERTEX
  5
987
  8
0
 10
0.0
 20
0.0
 30
0.0
 70
   128
 71
     3
 72
     5
 73
     4
  0
VERTEX
  5
988
  8
0
 10
0.0
 20
0.0
 30
0.0
 70
   128
 71
     4
 72
     7
 73
     1
  0
VERTEX
  5
989
  8
0
 10
0.0
 20
0.0
 30
0.0
 70
   128
 71
     8
 72
     9
 73
     1
  0
VERTEX
  5
98A
  8
0
 10
0.0
 20
0.0
 30
0.0
 70
   128
 71
     7
 72
     8
 73
     1
  0
VERTEX
  5
98B
  8
0
 10
0.0
 20
0.0
 30
0.0
 70
   128
 71
    10
 72
    11
 73
    12
  0
VERTEX
  5
98C
  8
0
 10
0.0
 20
0.0
 30
0.0
 70
   128
 71
    12
 72
    13
 73
    10
  0
VERTEX
  5
98D
  8
0
 10
0.0
 20
0.0
 30
0.0
 70
   128
 71
    14
 72
    15
 73
    10
  0
VERTEX
  5
98E
  8
0
 10
0.0
 20
0.0
 30
0.0
 70
   128
 71
    13
 72
    14
 73
    10
  0
VERTEX
  5
98F
  8
0
 10
0.0
 20
0.0
 30
0.0
 70
   128
 71
    16
 72
    17
 73
    11
  0
VERTEX
  5
990
  8
0
 10
0.0
 20
0.0
 30
0.0
 70
   128
 71
    18
 72
    16
 73
    11
  0
VERTEX
  5
991
  8
0
 10
0.0
 20
0.0
 30
0.0
 70
   128
 71
    10
 72
    18
 73
    11
  0
VERTEX
  5
992
  8
0
 10
0.0
 20
0.0
 30
0.0
 70
   128
 71
    16
 72
     1
 73
     9
  0
VERTEX
  5
993
  8
0
 10
0.0
 20
0.0
 30
0.0
 70
   128
 71
    17
 72
    16
 73
     9
  0
SEQEND
  5
CDC
  8
0
  0
POLYLINE
  5
994
  8
0
 66
     1
 10
0.0
 20
0.0
 30
0.0
 70
    64
 71
    14
 72
    12
  0
VERTEX
  5
995
  8
0
 10
137.8876895570082
 20
6.218643693692051
 30
375.027677509035
 70
   192
  0
VERTEX
  5
996
  8
0
 10
139.5658834045717
 20
5.627598172928299
 30
378.5700899483102
 70
   192
  0
VERTEX
  5
997
  8
0
 10
0.4977403889246297
 20
-3.734587445015231
 30
380.3102913074046
 70
   192
  0
VERTEX
  5
998
  8
0
 10
0.4127193675875516
 20
-3.069467612266329
 30
376.6299848429197
 70
   192
  0
VERTEX
  5
999
  8
0
 10
268.671062849085
 20
46.8353758512747
 30
368.5000770585823
 70
   192
  0
VERTEX
  5
99A
  8
0
 10
269.5973835135578
 20
47.55211097600278
 30
369.3928030912339
 70
   192
  0
VERTEX
  5
99B
  8
0
 10
271.548033615684
 20
46.85534136532002
 30
370.9068606914283
 70
   192
  0
VERTEX
  5
99C
  8
0
 10
270.6638915928561
 20
47.6741211478743
 30
370.3043500615528
 70
   192
  0
VERTEX
  5
99D
  8
0
 10
-271.5480336975451
 20
46.85534115152504
 30
370.9068607311683
 70
   192
  0
VERTEX
  5
99E
  8
0
 10
-270.663910016908
 20
47.67412441492428
 30
370.3043293383743
 70
   192
  0
VERTEX
  5
99F
  8
0
 10
-269.6059089444752
 20
47.5557290388515
 30
369.4018591733156
 70
   192
  0
VERTEX
  5
9A0
  8
0
 10
-137.4529741928343
 20
6.157342191359831
 30
375.0381859028852
 70
   192
  0
VERTEX
  5
9A1
  8
0
 10
-138.9539600293432
 20
5.541684508384122
 30
378.5860591975757
 70
   192
  0
VERTEX
  5
9A2
  8
0
 10
-268.671063074469
 20
46.83537615020675
 30
368.5000770806442
 70
   192
  0
VERTEX
  5
9A3
  8
0
 10
0.0
 20
0.0
 30
0.0
 70
   128
 71
     1
 72
     2
 73
     3
  0
VERTEX
  5
9A4
  8
0
 10
0.0
 20
0.0
 30
0.0
 70
   128
 71
     4
 72
     1
 73
     3
  0
VERTEX
  5
9A5
  8
0
 10
0.0
 20
0.0
 30
0.0
 70
   128
 71
     1
 72
     5
 73
     6
  0
VERTEX
  5
9A6
  8
0
 10
0.0
 20
0.0
 30
0.0
 70
   128
 71
     2
 72
     1
 73
     6
  0
VERTEX
  5
9A7
  8
0
 10
0.0
 20
0.0
 30
0.0
 70
   128
 71
     7
 72
     2
 73
     6
  0
VERTEX
  5
9A8
  8
0
 10
0.0
 20
0.0
 30
0.0
 70
   128
 71
     6
 72
     8
 73
     7
  0
VERTEX
  5
9A9
  8
0
 10
0.0
 20
0.0
 30
0.0
 70
   128
 71
     9
 72
    10
 73
    11
  0
VERTEX
  5
9AA
  8
0
 10
0.0
 20
0.0
 30
0.0
 70
   128
 71
    12
 72
    13
 73
     9
  0
VERTEX
  5
9AB
  8
0
 10
0.0
 20
0.0
 30
0.0
 70
   128
 71
    14
 72
    12
 73
     9
  0
VERTEX
  5
9AC
  8
0
 10
0.0
 20
0.0
 30
0.0
 70
   128
 71
    11
 72
    14
 73
     9
  0
VERTEX
  5
9AD
  8
0
 10
0.0
 20
0.0
 30
0.0
 70
   128
 71
    13
 72
    12
 73
     4
  0
VERTEX
  5
9AE
  8
0
 10
0.0
 20
0.0
 30
0.0
 70
   128
 71
     3
 72
    13
 73
     4
  0
SEQEND
  5
CDD
  8
0
  0
POLYLINE
  5
9AF
  8
0
 66
     1
 10
0.0
 20
0.0
 30
0.0
 70
    64
 71
    14
 72
    12
  0
VERTEX
  5
9B0
  8
0
 10
-137.8908298009989
 20
6.219087312213882
 30
63.27488680694803
 70
   192
  0
VERTEX
  5
9B1
  8
0
 10
-139.5806951818754
 20
5.629683418431473
 30
59.73278564061874
 70
   192
  0
VERTEX
  5
9B2
  8
0
 10
-0.5051675042775976
 20
-3.73458417867846
 30
57.99219729248959
 70
   192
  0
VERTEX
  5
9B3
  8
0
 10
-0.4122011724027579
 20
-3.0694679227438
 30
61.67250312151334
 70
   192
  0
VERTEX
  5
9B4
  8
0
 10
-268.67106312541
 20
46.83537595271056
 30
69.8024105421113
 70
   192
  0
VERTEX
  5
9B5
  8
0
 10
-269.5973828160442
 20
47.55211024310191
 30
68.90968591210924
 70
   192
  0
VERTEX
  5
9B6
  8
0
 10
-271.548033849297
 20
46.85534080582929
 30
67.39562719745732
 70
   192
  0
VERTEX
  5
9B7
  8
0
 10
-270.6638917443711
 20
47.6741209411847
 30
67.99813811373318
 70
   192
  0
VERTEX
  5
9B8
  8
0
 10
271.548033767434
 20
46.85534101962632
 30
67.3956272371973
 70
   192
  0
VERTEX
  5
9B9
  8
0
 10
270.6639101992341
 20
47.67412425820824
 30
67.99815863618957
 70
   192
  0
VERTEX
  5
9BA
  8
0
 10
269.6059091870454
 20
47.55572882709123
 30
68.900628418657
 70
   192
  0
VERTEX
  5
9BB
  8
0
 10
137.4535255991027
 20
6.157419309012684
 30
63.26431552470009
 70
   192
  0
VERTEX
  5
9BC
  8
0
 10
138.9505108032719
 20
5.541201300441224
 30
59.71633897866819
 70
   192
  0
VERTEX
  5
9BD
  8
0
 10
268.671062900024
 20
46.83537565377758
 30
69.8024105641703
 70
   192
  0
VERTEX
  5
9BE
  8
0
 10
0.0
 20
0.0
 30
0.0
 70
   128
 71
     1
 72
     2
 73
     3
  0
VERTEX
  5
9BF
  8
0
 10
0.0
 20
0.0
 30
0.0
 70
   128
 71
     4
 72
     1
 73
     3
  0
VERTEX
  5
9C0
  8
0
 10
0.0
 20
0.0
 30
0.0
 70
   128
 71
     1
 72
     5
 73
     6
  0
VERTEX
  5
9C1
  8
0
 10
0.0
 20
0.0
 30
0.0
 70
   128
 71
     2
 72
     1
 73
     6
  0
VERTEX
  5
9C2
  8
0
 10
0.0
 20
0.0
 30
0.0
 70
   128
 71
     7
 72
     2
 73
     6
  0
VERTEX
  5
9C3
  8
0
 10
0.0
 20
0.0
 30
0.0
 70
   128
 71
     6
 72
     8
 73
     7
  0
VERTEX
  5
9C4
  8
0
 10
0.0
 20
0.0
 30
0.0
 70
   128
 71
     9
 72
    10
 73
    11
  0
VERTEX
  5
9C5
  8
0
 10
0.0
 20
0.0
 30
0.0
 70
   128
 71
    12
 72
    13
 73
     9
  0
VERTEX
  5
9C6
  8
0
 10
0.0
 20
0.0
 30
0.0
 70
   128
 71
    14
 72
    12
 73
     9
  0
VERTEX
  5
9C7
  8
0
 10
0.0
 20
0.0
 30
0.0
 70
   128
 71
    11
 72
    14
 73
     9
  0
VERTEX
  5
9C8
  8
0
 10
0.0
 20
0.0
 30
0.0
 70
   128
 71
    13
 72
    12
 73
     4
  0
VERTEX
  5
9C9
  8
0
 10
0.0
 20
0.0
 30
0.0
 70
   128
 71
     3
 72
    13
 73
     4
  0
SEQEND
  5
CDE
  8
0
  0
POLYLINE
  5
9CA
  8
0
 66
     1
 10
0.0
 20
0.0
 30
0.0
 70
    64
 71
    13
 72
    11
  0
VERTEX
  5
9CB
  8
0
 10
-271.5480336975451
 20
46.85534115152504
 30
370.9068607311683
 70
   192
  0
VERTEX
  5
9CC
  8
0
 10
-138.9539600293432
 20
5.541684508384122
 30
378.5860591975757
 70
   192
  0
VERTEX
  5
9CD
  8
0
 10
0.4977403889246297
 20
-3.734587445015231
 30
380.3102913074046
 70
   192
  0
VERTEX
  5
9CE
  8
0
 10
139.5658834045717
 20
5.627598172928299
 30
378.5700899483102
 70
   192
  0
VERTEX
  5
9CF
  8
0
 10
271.548033615684
 20
46.85534136532002
 30
370.9068606914283
 70
   192
  0
VERTEX
  5
9D0
  8
0
 10
271.6210672731841
 20
46.65202267050509
 30
370.94465266474
 70
   192
  0
VERTEX
  5
9D1
  8
0
 10
271.6717530524037
 20
46.44336615005963
 30
370.9834368092813
 70
   192
  0
VERTEX
  5
9D2
  8
0
 10
271.700090953343
 20
46.22937180397982
 30
371.0232131250316
 70
   192
  0
VERTEX
  5
9D3
  8
0
 10
279.047286138187
 20
-46.51537272470679
 30
388.2621931094947
 70
   192
  0
VERTEX
  5
9D4
  8
0
 10
-279.047286138187
 20
-46.51537272470679
 30
388.2621931094947
 70
   192
  0
VERTEX
  5
9D5
  8
0
 10
-271.700090954285
 20
46.22937178990785
 30
371.0232131277486
 70
   192
  0
VERTEX
  5
9D6
  8
0
 10
-271.6717530662538
 20
46.44336606479154
 30
370.9834368251609
 70
   192
  0
VERTEX
  5
9D7
  8
0
 10
-271.6210673140071
 20
46.65202251866398
 30
370.9446526929677
 70
   192
  0
VERTEX
  5
9D8
  8
0
 10
0.0
 20
0.0
 30
0.0
 70
   128
 71
     6
 72
     7
 73
    -8
  0
VERTEX
  5
9D9
  8
0
 10
0.0
 20
0.0
 30
0.0
 70
   128
 71
     5
 72
    -6
 73
    -8
  0
VERTEX
  5
9DA
  8
0
 10
0.0
 20
0.0
 30
0.0
 70
   128
 71
   -11
 72
     1
 73
    -2
  0
VERTEX
  5
9DB
  8
0
 10
0.0
 20
0.0
 30
0.0
 70
   128
 71
    10
 72
   -11
 73
    -2
  0
VERTEX
  5
9DC
  8
0
 10
0.0
 20
0.0
 30
0.0
 70
   128
 71
     2
 72
    -3
 73
   -10
  0
VERTEX
  5
9DD
  8
0
 10
0.0
 20
0.0
 30
0.0
 70
   128
 71
    -3
 72
     9
 73
   -10
  0
VERTEX
  5
9DE
  8
0
 10
0.0
 20
0.0
 30
0.0
 70
   128
 71
     3
 72
    -4
 73
    -9
  0
VERTEX
  5
9DF
  8
0
 10
0.0
 20
0.0
 30
0.0
 70
   128
 71
    -5
 72
     8
 73
    -9
  0
VERTEX
  5
9E0
  8
0
 10
0.0
 20
0.0
 30
0.0
 70
   128
 71
     4
 72
    -5
 73
    -9
  0
VERTEX
  5
9E1
  8
0
 10
0.0
 20
0.0
 30
0.0
 70
   128
 71
    12
 72
    13
 73
    -1
  0
VERTEX
  5
9E2
  8
0
 10
0.0
 20
0.0
 30
0.0
 70
   128
 71
    11
 72
   -12
 73
    -1
  0
SEQEND
  5
CDF
  8
0
  0
POLYLINE
  5
9E3
  8
0
 66
     1
 10
0.0
 20
0.0
 30
0.0
 70
    64
 71
    13
 72
    11
  0
VERTEX
  5
9E4
  8
0
 10
279.04728613848
 20
-46.51537272434386
 30
50.04029488323478
 70
   192
  0
VERTEX
  5
9E5
  8
0
 10
271.700090955774
 20
46.22937177364347
 30
67.27927486198759
 70
   192
  0
VERTEX
  5
9E6
  8
0
 10
271.6717530776573
 20
46.44336600591928
 30
67.3190511567412
 70
   192
  0
VERTEX
  5
9E7
  8
0
 10
271.6210673482105
 20
46.65202242124857
 30
67.35783528180208
 70
   192
  0
VERTEX
  5
9E8
  8
0
 10
271.548033767434
 20
46.85534101962632
 30
67.3956272371973
 70
   192
  0
VERTEX
  5
9E9
  8
0
 10
138.9505108032719
 20
5.541201300441224
 30
59.71633897866819
 70
   192
  0
VERTEX
  5
9EA
  8
0
 10
-0.5051675042775976
 20
-3.73458417867846
 30
57.99219729248959
 70
   192
  0
VERTEX
  5
9EB
  8
0
 10
-139.5806951818754
 20
5.629683418431473
 30
59.73278564061874
 70
   192
  0
VERTEX
  5
9EC
  8
0
 10
-271.548033849297
 20
46.85534080582929
 30
67.39562719745732
 70
   192
  0
VERTEX
  5
9ED
  8
0
 10
-271.6210673890967
 20
46.65202226939621
 30
67.35783525357635
 70
   192
  0
VERTEX
  5
9EE
  8
0
 10
-271.6717530916287
 20
46.44336592062626
 30
67.3190511408874
 70
   192
  0
VERTEX
  5
9EF
  8
0
 10
-271.700090956893
 20
46.22937175952443
 30
67.27927485936358
 70
   192
  0
VERTEX
  5
9F0
  8
0
 10
-279.047286138481
 20
-46.51537272434386
 30
50.04029488323478
 70
   192
  0
VERTEX
  5
9F1
  8
0
 10
0.0
 20
0.0
 30
0.0
 70
   128
 71
    10
 72
    11
 73
   -12
  0
VERTEX
  5
9F2
  8
0
 10
0.0
 20
0.0
 30
0.0
 70
   128
 71
     9
 72
   -10
 73
   -12
  0
VERTEX
  5
9F3
  8
0
 10
0.0
 20
0.0
 30
0.0
 70
   128
 71
    -6
 72
     1
 73
    -2
  0
VERTEX
  5
9F4
  8
0
 10
0.0
 20
0.0
 30
0.0
 70
   128
 71
     5
 72
    -6
 73
    -2
  0
VERTEX
  5
9F5
  8
0
 10
0.0
 20
0.0
 30
0.0
 70
   128
 71
     3
 72
     4
 73
    -5
  0
VERTEX
  5
9F6
  8
0
 10
0.0
 20
0.0
 30
0.0
 70
   128
 71
     2
 72
    -3
 73
    -5
  0
VERTEX
  5
9F7
  8
0
 10
0.0
 20
0.0
 30
0.0
 70
   128
 71
     6
 72
    -7
 73
    -1
  0
VERTEX
  5
9F8
  8
0
 10
0.0
 20
0.0
 30
0.0
 70
   128
 71
    -7
 72
    13
 73
    -1
  0
VERTEX
  5
9F9
  8
0
 10
0.0
 20
0.0
 30
0.0
 70
   128
 71
     7
 72
    -8
 73
   -13
  0
VERTEX
  5
9FA
  8
0
 10
0.0
 20
0.0
 30
0.0
 70
   128
 71
    -9
 72
    12
 73
   -13
  0
VERTEX
  5
9FB
  8
0
 10
0.0
 20
0.0
 30
0.0
 70
   128
 71
     8
 72
    -9
 73
   -13
  0
SEQEND
  5
CE0
  8
0
  0
POLYLINE
  5
9FC
  8
0
 66
     1
 10
0.0
 20
0.0
 30
0.0
 70
    64
 71
     4
 72
     2
  0
VERTEX
  5
9FD
  8
0
 10
-289.0
 20
69.55214421309738
 30
36.65124399649022
 70
   192
  0
VERTEX
  5
9FE
  8
0
 10
289.0
 20
69.55214421309738
 30
36.65124399649222
 70
   192
  0
VERTEX
  5
9FF
  8
0
 10
288.999999999982
 20
-46.51537272429857
 30
36.65124399637579
 70
   192
  0
VERTEX
  5
A00
  8
0
 10
-288.999999999976
 20
-46.51537272429857
 30
36.65124399637879
 70
   192
  0
VERTEX
  5
A01
  8
0
 10
0.0
 20
0.0
 30
0.0
 70
   128
 71
     3
 72
     4
 73
    -1
  0
VERTEX
  5
A02
  8
0
 10
0.0
 20
0.0
 30
0.0
 70
   128
 71
     2
 72
    -3
 73
     1
  0
SEQEND
  5
CE1
  8
0
  0
POLYLINE
  5
A03
  8
0
 66
     1
 10
0.0
 20
0.0
 30
0.0
 70
    64
 71
     9
 72
     7
  0
VERTEX
  5
A04
  8
0
 10
289.0
 20
71.48463102138811
 30
38.65124399650041
 70
   192
  0
VERTEX
  5
A05
  8
0
 10
289.9780833528229
 20
71.23777596640807
 30
38.65124399650055
 70
   192
  0
VERTEX
  5
A06
  8
0
 10
290.7445208382089
 20
70.4972108014654
 30
38.6512439964997
 70
   192
  0
VERTEX
  5
A07
  8
0
 10
291.000000000006
 20
69.5521442130951
 30
38.65124399649822
 70
   192
  0
VERTEX
  5
A08
  8
0
 10
290.7445208382085
 20
69.55214421309618
 30
37.6731606436757
 70
   192
  0
VERTEX
  5
A09
  8
0
 10
289.9780833528225
 20
69.55214421309707
 30
36.9067231582897
 70
   192
  0
VERTEX
  5
A0A
  8
0
 10
289.0
 20
69.55214421309738
 30
36.65124399649222
 70
   192
  0
VERTEX
  5
A0B
  8
0
 10
289.0000000000001
 20
70.49721080146733
 30
36.90672315829051
 70
   192
  0
VERTEX
  5
A0C
  8
0
 10
289.0000000000001
 20
71.2377759664091
 30
37.67316064367734
 70
   192
  0
VERTEX
  5
A0D
  8
0
 10
0.0
 20
0.0
 30
0.0
 70
   128
 71
     3
 72
     4
 73
     5
  0
VERTEX
  5
A0E
  8
0
 10
0.0
 20
0.0
 30
0.0
 70
   128
 71
     2
 72
     3
 73
    -5
  0
VERTEX
  5
A0F
  8
0
 10
0.0
 20
0.0
 30
0.0
 70
   128
 71
     9
 72
     1
 73
     2
  0
VERTEX
  5
A10
  8
0
 10
0.0
 20
0.0
 30
0.0
 70
   128
 71
     6
 72
     9
 73
    -2
  0
VERTEX
  5
A11
  8
0
 10
0.0
 20
0.0
 30
0.0
 70
   128
 71
     5
 72
    -6
 73
    -2
  0
VERTEX
  5
A12
  8
0
 10
0.0
 20
0.0
 30
0.0
 70
   128
 71
     7
 72
     8
 73
     9
  0
VERTEX
  5
A13
  8
0
 10
0.0
 20
0.0
 30
0.0
 70
   128
 71
     6
 72
     7
 73
     9
  0
SEQEND
  5
CE2
  8
0
  0
POLYLINE
  5
A14
  8
0
 66
     1
 10
0.0
 20
0.0
 30
0.0
 70
    64
 71
     8
 72
     6
  0
VERTEX
  5
A15
  8
0
 10
289.0
 20
69.55214421268094
 30
401.6512439964982
 70
   192
  0
VERTEX
  5
A16
  8
0
 10
289.0
 20
-46.51537272471506
 30
401.6512439963657
 70
   192
  0
VERTEX
  5
A17
  8
0
 10
289.9999468388452
 20
-46.51537272471474
 30
401.3832129412483
 70
   192
  0
VERTEX
  5
A18
  8
0
 10
290.7319689448821
 20
-46.51537272471392
 30
400.6511908352109
 70
   192
  0
VERTEX
  5
A19
  8
0
 10
291.0
 20
-46.51537272471279
 30
399.6512439963657
 70
   192
  0
VERTEX
  5
A1A
  8
0
 10
291.0
 20
69.55214421268322
 30
399.6512439964982
 70
   192
  0
VERTEX
  5
A1B
  8
0
 10
290.7319689448836
 20
69.55214421268202
 30
400.6511908353419
 70
   192
  0
VERTEX
  5
A1C
  8
0
 10
289.9999468388455
 20
69.55214421268118
 30
401.3832129413803
 70
   192
  0
VERTEX
  5
A1D
  8
0
 10
0.0
 20
0.0
 30
0.0
 70
   128
 71
     5
 72
     6
 73
    -7
  0
VERTEX
  5
A1E
  8
0
 10
0.0
 20
0.0
 30
0.0
 70
   128
 71
     4
 72
    -5
 73
     7
  0
VERTEX
  5
A1F
  8
0
 10
0.0
 20
0.0
 30
0.0
 70
   128
 71
     8
 72
     3
 73
    -4
  0
VERTEX
  5
A20
  8
0
 10
0.0
 20
0.0
 30
0.0
 70
   128
 71
     7
 72
    -8
 73
     4
  0
VERTEX
  5
A21
  8
0
 10
0.0
 20
0.0
 30
0.0
 70
   128
 71
     1
 72
     2
 73
    -3
  0
VERTEX
  5
A22
  8
0
 10
0.0
 20
0.0
 30
0.0
 70
   128
 71
     8
 72
    -1
 73
     3
  0
SEQEND
  5
CE3
  8
0
  0
POLYLINE
  5
A23
  8
0
 66
     1
 10
0.0
 20
0.0
 30
0.0
 70
    64
 71
    20
 72
    20
  0
VERTEX
  5
A24
  8
0
 10
-291.000000000007
 20
-46.51537272471279
 30
399.6512439963757
 70
   192
  0
VERTEX
  5
A25
  8
0
 10
-290.999999999988
 20
-46.51537272430084
 30
38.65124399638875
 70
   192
  0
VERTEX
  5
A26
  8
0
 10
-290.7319689448493
 20
-46.51537272429871
 30
37.65129715757203
 70
   192
  0
VERTEX
  5
A27
  8
0
 10
-289.9999468387938
 20
-46.51537272429812
 30
36.91927505151647
 70
   192
  0
VERTEX
  5
A28
  8
0
 10
-288.999999999976
 20
-46.51537272429857
 30
36.65124399637879
 70
   192
  0
VERTEX
  5
A29
  8
0
 10
288.999999999982
 20
-46.51537272429857
 30
36.65124399637579
 70
   192
  0
VERTEX
  5
A2A
  8
0
 10
290.0030995560434
 20
-46.51537272429886
 30
36.91814955239471
 70
   192
  0
VERTEX
  5
A2B
  8
0
 10
290.7326529352213
 20
-46.51537272429971
 30
37.65187563261783
 70
   192
  0
VERTEX
  5
A2C
  8
0
 10
290.99999999999
 20
-46.51537272430084
 30
38.65124399638575
 70
   192
  0
VERTEX
  5
A2D
  8
0
 10
291.0
 20
-46.51537272471279
 30
399.6512439963657
 70
   192
  0
VERTEX
  5
A2E
  8
0
 10
290.7319689448821
 20
-46.51537272471392
 30
400.6511908352109
 70
   192
  0
VERTEX
  5
A2F
  8
0
 10
289.9999468388452
 20
-46.51537272471474
 30
401.3832129412483
 70
   192
  0
VERTEX
  5
A30
  8
0
 10
289.0
 20
-46.51537272471506
 30
401.6512439963657
 70
   192
  0
VERTEX
  5
A31
  8
0
 10
-289.000000000011
 20
-46.51537272471506
 30
401.6512439963727
 70
   192
  0
VERTEX
  5
A32
  8
0
 10
-290.0030995561368
 20
-46.51537272471475
 30
401.3843384404219
 70
   192
  0
VERTEX
  5
A33
  8
0
 10
-290.7326529352362
 20
-46.51537272471391
 30
400.650612360108
 70
   192
  0
VERTEX
  5
A34
  8
0
 10
-279.047286138187
 20
-46.51537272470679
 30
388.2621931094947
 70
   192
  0
VERTEX
  5
A35
  8
0
 10
279.047286138187
 20
-46.51537272470679
 30
388.2621931094947
 70
   192
  0
VERTEX
  5
A36
  8
0
 10
279.04728613848
 20
-46.51537272434386
 30
50.04029488323478
 70
   192
  0
VERTEX
  5
A37
  8
0
 10
-279.047286138481
 20
-46.51537272434386
 30
50.04029488323478
 70
   192
  0
VERTEX
  5
A38
  8
0
 10
0.0
 20
0.0
 30
0.0
 70
   128
 71
    -1
 72
    17
 73
   -18
  0
VERTEX
  5
A39
  8
0
 10
0.0
 20
0.0
 30
0.0
 70
   128
 71
    16
 72
    -1
 73
   -18
  0
VERTEX
  5
A3A
  8
0
 10
0.0
 20
0.0
 30
0.0
 70
   128
 71
    15
 72
   -16
 73
   -18
  0
VERTEX
  5
A3B
  8
0
 10
0.0
 20
0.0
 30
0.0
 70
   128
 71
    14
 72
   -15
 73
   -18
  0
VERTEX
  5
A3C
  8
0
 10
0.0
 20
0.0
 30
0.0
 70
   128
 71
    13
 72
   -14
 73
   -18
  0
VERTEX
  5
A3D
  8
0
 10
0.0
 20
0.0
 30
0.0
 70
   128
 71
    12
 72
   -13
 73
   -18
  0
VERTEX
  5
A3E
  8
0
 10
0.0
 20
0.0
 30
0.0
 70
   128
 71
    11
 72
   -12
 73
   -18
  0
VERTEX
  5
A3F
  8
0
 10
0.0
 20
0.0
 30
0.0
 70
   128
 71
    10
 72
   -11
 73
   -18
  0
VERTEX
  5
A40
  8
0
 10
0.0
 20
0.0
 30
0.0
 70
   128
 71
   -19
 72
     9
 73
   -10
  0
VERTEX
  5
A41
  8
0
 10
0.0
 20
0.0
 30
0.0
 70
   128
 71
    18
 72
   -19
 73
   -10
  0
VERTEX
  5
A42
  8
0
 10
0.0
 20
0.0
 30
0.0
 70
   128
 71
     7
 72
     8
 73
    -9
  0
VERTEX
  5
A43
  8
0
 10
0.0
 20
0.0
 30
0.0
 70
   128
 71
     6
 72
    -7
 73
    -9
  0
VERTEX
  5
A44
  8
0
 10
0.0
 20
0.0
 30
0.0
 70
   128
 71
     5
 72
    -6
 73
    -9
  0
VERTEX
  5
A45
  8
0
 10
0.0
 20
0.0
 30
0.0
 70
   128
 71
     4
 72
    -5
 73
    -9
  0
VERTEX
  5
A46
  8
0
 10
0.0
 20
0.0
 30
0.0
 70
   128
 71
     3
 72
    -4
 73
    -9
  0
VERTEX
  5
A47
  8
0
 10
0.0
 20
0.0
 30
0.0
 70
   128
 71
     2
 72
    -3
 73
    -9
  0
VERTEX
  5
A48
  8
0
 10
0.0
 20
0.0
 30
0.0
 70
   128
 71
   -20
 72
    -2
 73
    -9
  0
VERTEX
  5
A49
  8
0
 10
0.0
 20
0.0
 30
0.0
 70
   128
 71
    19
 72
   -20
 73
    -9
  0
VERTEX
  5
A4A
  8
0
 10
0.0
 20
0.0
 30
0.0
 70
   128
 71
   -17
 72
     1
 73
    -2
  0
VERTEX
  5
A4B
  8
0
 10
0.0
 20
0.0
 30
0.0
 70
   128
 71
    20
 72
   -17
 73
    -2
  0
SEQEND
  5
CE4
  8
0
  0
POLYLINE
  5
A4C
  8
0
 66
     1
 10
0.0
 20
0.0
 30
0.0
 70
    64
 71
     4
 72
     2
  0
VERTEX
  5
A4D
  8
0
 10
-289.0
 20
69.55214421268094
 30
401.6512439964942
 70
   192
  0
VERTEX
  5
A4E
  8
0
 10
-289.000000000011
 20
-46.51537272471506
 30
401.6512439963727
 70
   192
  0
VERTEX
  5
A4F
  8
0
 10
289.0
 20
-46.51537272471506
 30
401.6512439963657
 70
   192
  0
VERTEX
  5
A50
  8
0
 10
289.0
 20
69.55214421268094
 30
401.6512439964982
 70
   192
  0
VERTEX
  5
A51
  8
0
 10
0.0
 20
0.0
 30
0.0
 70
   128
 71
     3
 72
     4
 73
    -1
  0
VERTEX
  5
A52
  8
0
 10
0.0
 20
0.0
 30
0.0
 70
   128
 71
     2
 72
    -3
 73
     1
  0
SEQEND
  5
CE5
  8
0
  0
POLYLINE
  5
A53
  8
0
 66
     1
 10
0.0
 20
0.0
 30
0.0
 70
    64
 71
     9
 72
     7
  0
VERTEX
  5
A54
  8
0
 10
-289.0
 20
69.55214421268094
 30
401.6512439964942
 70
   192
  0
VERTEX
  5
A55
  8
0
 10
-289.0000000000004
 20
70.49721080105107
 30
401.3957648347017
 70
   192
  0
VERTEX
  5
A56
  8
0
 10
-289.0000000000003
 20
71.23777596599436
 30
400.6293273493206
 70
   192
  0
VERTEX
  5
A57
  8
0
 10
-289.0
 20
71.48463102097621
 30
399.6512439965005
 70
   192
  0
VERTEX
  5
A58
  8
0
 10
-289.97808335282
 20
71.23777596599511
 30
399.6512439964994
 70
   192
  0
VERTEX
  5
A59
  8
0
 10
-290.7445208382017
 20
70.49721080105274
 30
399.6512439964974
 70
   192
  0
VERTEX
  5
A5A
  8
0
 10
-290.999999999995
 20
69.55214421268322
 30
399.6512439964952
 70
   192
  0
VERTEX
  5
A5B
  8
0
 10
-290.7369933281568
 20
69.55149743307413
 30
400.6426382185231
 70
   192
  0
VERTEX
  5
A5C
  8
0
 10
-290.0265902563347
 20
69.55258078565996
 30
401.3676688978491
 70
   192
  0
VERTEX
  5
A5D
  8
0
 10
0.0
 20
0.0
 30
0.0
 70
   128
 71
     3
 72
     4
 73
     5
  0
VERTEX
  5
A5E
  8
0
 10
0.0
 20
0.0
 30
0.0
 70
   128
 71
     2
 72
     3
 73
    -5
  0
VERTEX
  5
A5F
  8
0
 10
0.0
 20
0.0
 30
0.0
 70
   128
 71
     9
 72
     1
 73
     2
  0
VERTEX
  5
A60
  8
0
 10
0.0
 20
0.0
 30
0.0
 70
   128
 71
     6
 72
     9
 73
     2
  0
VERTEX
  5
A61
  8
0
 10
0.0
 20
0.0
 30
0.0
 70
   128
 71
     5
 72
     6
 73
    -2
  0
VERTEX
  5
A62
  8
0
 10
0.0
 20
0.0
 30
0.0
 70
   128
 71
     7
 72
     8
 73
     9
  0
VERTEX
  5
A63
  8
0
 10
0.0
 20
0.0
 30
0.0
 70
   128
 71
     6
 72
     7
 73
     9
  0
SEQEND
  5
CE6
  8
0
  0
POLYLINE
  5
A64
  8
0
 66
     1
 10
0.0
 20
0.0
 30
0.0
 70
    64
 71
     9
 72
     7
  0
VERTEX
  5
A65
  8
0
 10
289.0
 20
71.48463102097621
 30
399.6512439965005
 70
   192
  0
VERTEX
  5
A66
  8
0
 10
288.9999999999992
 20
71.23777596599433
 30
400.6293273493219
 70
   192
  0
VERTEX
  5
A67
  8
0
 10
288.9999999999991
 20
70.49721080105083
 30
401.3957648347047
 70
   192
  0
VERTEX
  5
A68
  8
0
 10
289.0
 20
69.55214421268094
 30
401.6512439964982
 70
   192
  0
VERTEX
  5
A69
  8
0
 10
289.9999468388455
 20
69.55214421268118
 30
401.3832129413803
 70
   192
  0
VERTEX
  5
A6A
  8
0
 10
290.7319689448836
 20
69.55214421268202
 30
400.6511908353419
 70
   192
  0
VERTEX
  5
A6B
  8
0
 10
291.0
 20
69.55214421268322
 30
399.6512439964982
 70
   192
  0
VERTEX
  5
A6C
  8
0
 10
290.7445208382053
 20
70.49721080105294
 30
399.6512439964993
 70
   192
  0
VERTEX
  5
A6D
  8
0
 10
289.9780833528216
 20
71.23777596599558
 30
399.6512439965001
 70
   192
  0
VERTEX
  5
A6E
  8
0
 10
0.0
 20
0.0
 30
0.0
 70
   128
 71
     3
 72
     4
 73
     5
  0
VERTEX
  5
A6F
  8
0
 10
0.0
 20
0.0
 30
0.0
 70
   128
 71
     2
 72
     3
 73
     5
  0
VERTEX
  5
A70
  8
0
 10
0.0
 20
0.0
 30
0.0
 70
   128
 71
     9
 72
     1
 73
     2
  0
VERTEX
  5
A71
  8
0
 10
0.0
 20
0.0
 30
0.0
 70
   128
 71
     6
 72
     9
 73
    -2
  0
VERTEX
  5
A72
  8
0
 10
0.0
 20
0.0
 30
0.0
 70
   128
 71
     5
 72
    -6
 73
     2
  0
VERTEX
  5
A73
  8
0
 10
0.0
 20
0.0
 30
0.0
 70
   128
 71
     7
 72
     8
 73
     9
  0
VERTEX
  5
A74
  8
0
 10
0.0
 20
0.0
 30
0.0
 70
   128
 71
     6
 72
     7
 73
     9
  0
SEQEND
  5
CE7
  8
0
  0
POLYLINE
  5
A75
  8
0
 66
     1
 10
0.0
 20
0.0
 30
0.0
 70
    64
 71
     8
 72
     6
  0
VERTEX
  5
A76
  8
0
 10
-289.000000000011
 20
-46.51537272471506
 30
401.6512439963727
 70
   192
  0
VERTEX
  5
A77
  8
0
 10
-289.0
 20
69.55214421268094
 30
401.6512439964942
 70
   192
  0
VERTEX
  5
A78
  8
0
 10
-290.0265902563347
 20
69.55258078565996
 30
401.3676688978491
 70
   192
  0
VERTEX
  5
A79
  8
0
 10
-290.7369933281568
 20
69.55149743307413
 30
400.6426382185231
 70
   192
  0
VERTEX
  5
A7A
  8
0
 10
-290.999999999995
 20
69.55214421268322
 30
399.6512439964952
 70
   192
  0
VERTEX
  5
A7B
  8
0
 10
-291.000000000007
 20
-46.51537272471279
 30
399.6512439963757
 70
   192
  0
VERTEX
  5
A7C
  8
0
 10
-290.7326529352362
 20
-46.51537272471391
 30
400.650612360108
 70
   192
  0
VERTEX
  5
A7D
  8
0
 10
-290.0030995561368
 20
-46.51537272471475
 30
401.3843384404219
 70
   192
  0
VERTEX
  5
A7E
  8
0
 10
0.0
 20
0.0
 30
0.0
 70
   128
 71
     5
 72
     6
 73
     7
  0
VERTEX
  5
A7F
  8
0
 10
0.0
 20
0.0
 30
0.0
 70
   128
 71
     4
 72
     5
 73
     7
  0
VERTEX
  5
A80
  8
0
 10
0.0
 20
0.0
 30
0.0
 70
   128
 71
     8
 72
     3
 73
     4
  0
VERTEX
  5
A81
  8
0
 10
0.0
 20
0.0
 30
0.0
 70
   128
 71
     7
 72
     8
 73
     4
  0
VERTEX
  5
A82
  8
0
 10
0.0
 20
0.0
 30
0.0
 70
   128
 71
     1
 72
     2
 73
     3
  0
VERTEX
  5
A83
  8
0
 10
0.0
 20
0.0
 30
0.0
 70
   128
 71
     8
 72
     1
 73
     3
  0
SEQEND
  5
CE8
  8
0
  0
POLYLINE
  5
A84
  8
0
 66
     1
 10
0.0
 20
0.0
 30
0.0
 70
    64
 71
     8
 72
     6
  0
VERTEX
  5
A85
  8
0
 10
-289.0
 20
71.48463102138811
 30
38.65124399650041
 70
   192
  0
VERTEX
  5
A86
  8
0
 10
-289.9780833528233
 20
71.23777596640868
 30
38.65124399650014
 70
   192
  0
VERTEX
  5
A87
  8
0
 10
-290.74452083821
 20
70.49721080146604
 30
38.65124399649929
 70
   192
  0
VERTEX
  5
A88
  8
0
 10
-291.000000000008
 20
69.55214421309512
 30
38.65124399649822
 70
   192
  0
VERTEX
  5
A89
  8
0
 10
-290.999999999995
 20
69.55214421268322
 30
399.6512439964952
 70
   192
  0
VERTEX
  5
A8A
  8
0
 10
-290.7445208382017
 20
70.49721080105274
 30
399.6512439964974
 70
   192
  0
VERTEX
  5
A8B
  8
0
 10
-289.97808335282
 20
71.23777596599511
 30
399.6512439964994
 70
   192
  0
VERTEX
  5
A8C
  8
0
 10
-289.0
 20
71.48463102097621
 30
399.6512439965005
 70
   192
  0
VERTEX
  5
A8D
  8
0
 10
0.0
 20
0.0
 30
0.0
 70
   128
 71
     4
 72
     5
 73
    -6
  0
VERTEX
  5
A8E
  8
0
 10
0.0
 20
0.0
 30
0.0
 70
   128
 71
     3
 72
    -4
 73
     6
  0
VERTEX
  5
A8F
  8
0
 10
0.0
 20
0.0
 30
0.0
 70
   128
 71
     7
 72
     2
 73
    -3
  0
VERTEX
  5
A90
  8
0
 10
0.0
 20
0.0
 30
0.0
 70
   128
 71
     6
 72
    -7
 73
     3
  0
VERTEX
  5
A91
  8
0
 10
0.0
 20
0.0
 30
0.0
 70
   128
 71
     8
 72
     1
 73
    -2
  0
VERTEX
  5
A92
  8
0
 10
0.0
 20
0.0
 30
0.0
 70
   128
 71
     7
 72
    -8
 73
     2
  0
SEQEND
  5
CE9
  8
0
  0
POLYLINE
  5
A93
  8
0
 66
     1
 10
0.0
 20
0.0
 30
0.0
 70
    64
 71
     4
 72
     2
  0
VERTEX
  5
A94
  8
0
 10
291.0
 20
-46.51537272471279
 30
399.6512439963657
 70
   192
  0
VERTEX
  5
A95
  8
0
 10
290.99999999999
 20
-46.51537272430084
 30
38.65124399638575
 70
   192
  0
VERTEX
  5
A96
  8
0
 10
291.000000000006
 20
69.5521442130951
 30
38.65124399649822
 70
   192
  0
VERTEX
  5
A97
  8
0
 10
291.0
 20
69.55214421268322
 30
399.6512439964982
 70
   192
  0
VERTEX
  5
A98
  8
0
 10
0.0
 20
0.0
 30
0.0
 70
   128
 71
     3
 72
     4
 73
    -1
  0
VERTEX
  5
A99
  8
0
 10
0.0
 20
0.0
 30
0.0
 70
   128
 71
     2
 72
    -3
 73
     1
  0
SEQEND
  5
CEA
  8
0
  0
POLYLINE
  5
A9A
  8
0
 66
     1
 10
0.0
 20
0.0
 30
0.0
 70
    64
 71
    25
 72
    23
  0
VERTEX
  5
A9B
  8
0
 10
-278.787050780461
 20
71.48463102105565
 30
330.0333247589054
 70
   192
  0
VERTEX
  5
A9C
  8
0
 10
-278.1370431538833
 20
71.37968871800366
 30
330.0225191063487
 70
   192
  0
VERTEX
  5
A9D
  8
0
 10
-277.5426620213512
 20
71.0648618088491
 30
330.0125161620868
 70
   192
  0
VERTEX
  5
A9E
  8
0
 10
-277.5203338149801
 20
70.36476989909328
 30
264.8445078724697
 70
   192
  0
VERTEX
  5
A9F
  8
0
 10
-277.101443768685
 20
70.59181256414462
 30
330.0049573830524
 70
   192
  0
VERTEX
  5
AA0
  8
0
 10
-277.5426443726964
 20
70.34688744985385
 30
183.806915616599
 70
   192
  0
VERTEX
  5
AA1
  8
0
 10
-278.8371439582676
 20
71.48463102130512
 30
111.3690155823002
 70
   192
  0
VERTEX
  5
AA2
  8
0
 10
-277.1468127812402
 20
70.56777589289578
 30
112.1090982029999
 70
   192
  0
VERTEX
  5
AA3
  8
0
 10
173.2527901335549
 20
70.15988764299784
 30
51.27756670608415
 70
   192
  0
VERTEX
  5
AA4
  8
0
 10
215.9915906187448
 20
70.3487219705035
 30
51.59833899870973
 70
   192
  0
VERTEX
  5
AA5
  8
0
 10
217.116300417754
 20
71.4846310213754
 30
49.79369469164664
 70
   192
  0
VERTEX
  5
AA6
  8
0
 10
-272.8459728911274
 20
71.32451902038856
 30
58.15819299856099
 70
   192
  0
VERTEX
  5
AA7
  8
0
 10
-273.3131498848186
 20
71.4846310213667
 30
57.44918714750749
 70
   192
  0
VERTEX
  5
AA8
  8
0
 10
-220.2168987172846
 20
71.48463102137536
 30
49.84523098737284
 70
   192
  0
VERTEX
  5
AA9
  8
0
 10
-219.8029611876782
 20
70.37709156687077
 30
51.64698377294985
 70
   192
  0
VERTEX
  5
AAA
  8
0
 10
-110.8557297711227
 20
70.04291649139572
 30
51.07785767565597
 70
   192
  0
VERTEX
  5
AAB
  8
0
 10
-110.8851749351592
 20
71.48463102137616
 30
49.14355292326428
 70
   192
  0
VERTEX
  5
AAC
  8
0
 10
107.0438146501502
 20
70.03853470714915
 30
51.07033949711387
 70
   192
  0
VERTEX
  5
AAD
  8
0
 10
107.7841417935742
 20
71.48463102137616
 30
49.13656133310709
 70
   192
  0
VERTEX
  5
AAE
  8
0
 10
270.0517338608496
 20
71.31051524471701
 30
55.60631154782881
 70
   192
  0
VERTEX
  5
AAF
  8
0
 10
271.0850713942186
 20
71.48463102136915
 30
55.29699408288822
 70
   192
  0
VERTEX
  5
AB0
  8
0
 10
277.101476294636
 20
70.59181057904365
 30
108.2975101958834
 70
   192
  0
VERTEX
  5
AB1
  8
0
 10
277.5427195854054
 20
71.06486043808803
 30
108.2900893743199
 70
   192
  0
VERTEX
  5
AB2
  8
0
 10
278.1371196428165
 20
71.37968837550389
 30
108.2800927650579
 70
   192
  0
VERTEX
  5
AB3
  8
0
 10
278.787135218352
 20
71.48463102130867
 30
108.2691608150254
 70
   192
  0
VERTEX
  5
AB4
  8
0
 10
0.0
 20
0.0
 30
0.0
 70
   128
 71
     1
 72
     2
 73
     3
  0
VERTEX
  5
AB5
  8
0
 10
0.0
 20
0.0
 30
0.0
 70
   128
 71
     4
 72
     1
 73
     3
  0
VERTEX
  5
AB6
  8
0
 10
0.0
 20
0.0
 30
0.0
 70
   128
 71
     3
 72
     5
 73
     4
  0
VERTEX
  5
AB7
  8
0
 10
0.0
 20
0.0
 30
0.0
 70
   128
 71
     4
 72
     6
 73
     1
  0
VERTEX
  5
AB8
  8
0
 10
0.0
 20
0.0
 30
0.0
 70
   128
 71
     6
 72
     7
 73
     1
  0
VERTEX
  5
AB9
  8
0
 10
0.0
 20
0.0
 30
0.0
 70
   128
 71
     6
 72
     8
 73
     7
  0
VERTEX
  5
ABA
  8
0
 10
0.0
 20
0.0
 30
0.0
 70
   128
 71
     9
 72
    10
 73
    11
  0
VERTEX
  5
ABB
  8
0
 10
0.0
 20
0.0
 30
0.0
 70
   128
 71
     8
 72
    12
 73
    13
  0
VERTEX
  5
ABC
  8
0
 10
0.0
 20
0.0
 30
0.0
 70
   128
 71
     7
 72
     8
 73
    13
  0
VERTEX
  5
ABD
  8
0
 10
0.0
 20
0.0
 30
0.0
 70
   128
 71
    14
 72
    15
 73
    16
  0
VERTEX
  5
ABE
  8
0
 10
0.0
 20
0.0
 30
0.0
 70
   128
 71
    17
 72
    14
 73
    16
  0
VERTEX
  5
ABF
  8
0
 10
0.0
 20
0.0
 30
0.0
 70
   128
 71
    16
 72
    18
 73
    19
  0
VERTEX
  5
AC0
  8
0
 10
0.0
 20
0.0
 30
0.0
 70
   128
 71
    17
 72
    16
 73
    19
  0
VERTEX
  5
AC1
  8
0
 10
0.0
 20
0.0
 30
0.0
 70
   128
 71
    12
 72
    15
 73
    14
  0
VERTEX
  5
AC2
  8
0
 10
0.0
 20
0.0
 30
0.0
 70
   128
 71
    13
 72
    12
 73
    14
  0
VERTEX
  5
AC3
  8
0
 10
0.0
 20
0.0
 30
0.0
 70
   128
 71
    19
 72
    18
 73
     9
  0
VERTEX
  5
AC4
  8
0
 10
0.0
 20
0.0
 30
0.0
 70
   128
 71
     9
 72
    11
 73
    19
  0
VERTEX
  5
AC5
  8
0
 10
0.0
 20
0.0
 30
0.0
 70
   128
 71
    10
 72
    20
 73
    21
  0
VERTEX
  5
AC6
  8
0
 10
0.0
 20
0.0
 30
0.0
 70
   128
 71
    11
 72
    10
 73
    21
  0
VERTEX
  5
AC7
  8
0
 10
0.0
 20
0.0
 30
0.0
 70
   128
 71
    20
 72
    22
 73
    23
  0
VERTEX
  5
AC8
  8
0
 10
0.0
 20
0.0
 30
0.0
 70
   128
 71
    21
 72
    20
 73
    23
  0
VERTEX
  5
AC9
  8
0
 10
0.0
 20
0.0
 30
0.0
 70
   128
 71
    21
 72
    23
 73
    24
  0
VERTEX
  5
ACA
  8
0
 10
0.0
 20
0.0
 30
0.0
 70
   128
 71
    24
 72
    25
 73
    21
  0
SEQEND
  5
CEB
  8
0
  0
POLYLINE
  5
ACB
  8
0
 66
     1
 10
0.0
 20
0.0
 30
0.0
 70
    64
 71
     9
 72
     7
  0
VERTEX
  5
ACC
  8
0
 10
-289.0000000000001
 20
71.48463102138811
 30
38.6512439965004
 70
   192
  0
VERTEX
  5
ACD
  8
0
 10
-289.0
 20
71.23777596640946
 30
37.67316064367707
 70
   192
  0
VERTEX
  5
ACE
  8
0
 10
-288.9999999999999
 20
70.4972108014677
 30
36.90672315828947
 70
   192
  0
VERTEX
  5
ACF
  8
0
 10
-289.0
 20
69.55214421309738
 30
36.65124399649022
 70
   192
  0
VERTEX
  5
AD0
  8
0
 10
-289.9999468388731
 20
69.55214421309685
 30
36.91927505156892
 70
   192
  0
VERTEX
  5
AD1
  8
0
 10
-290.7319689449288
 20
69.55214421309626
 30
37.65129715762509
 70
   192
  0
VERTEX
  5
AD2
  8
0
 10
-291.000000000008
 20
69.5521442130951
 30
38.65124399649822
 70
   192
  0
VERTEX
  5
AD3
  8
0
 10
-290.74452083821
 20
70.49721080146604
 30
38.65124399649929
 70
   192
  0
VERTEX
  5
AD4
  8
0
 10
-289.9780833528233
 20
71.23777596640868
 30
38.65124399650014
 70
   192
  0
VERTEX
  5
AD5
  8
0
 10
0.0
 20
0.0
 30
0.0
 70
   128
 71
     9
 72
     1
 73
     2
  0
VERTEX
  5
AD6
  8
0
 10
0.0
 20
0.0
 30
0.0
 70
   128
 71
     8
 72
     9
 73
    -2
  0
VERTEX
  5
AD7
  8
0
 10
0.0
 20
0.0
 30
0.0
 70
   128
 71
     6
 72
     7
 73
     8
  0
VERTEX
  5
AD8
  8
0
 10
0.0
 20
0.0
 30
0.0
 70
   128
 71
     3
 72
     6
 73
     8
  0
VERTEX
  5
AD9
  8
0
 10
0.0
 20
0.0
 30
0.0
 70
   128
 71
     2
 72
     3
 73
    -8
  0
VERTEX
  5
ADA
  8
0
 10
0.0
 20
0.0
 30
0.0
 70
   128
 71
     4
 72
     5
 73
     6
  0
VERTEX
  5
ADB
  8
0
 10
0.0
 20
0.0
 30
0.0
 70
   128
 71
     3
 72
     4
 73
     6
  0
SEQEND
  5
CEC
  8
0
  0
POLYLINE
  5
ADC
  8
0
 66
     1
 10
0.0
 20
0.0
 30
0.0
 70
    64
 71
     8
 72
     6
  0
VERTEX
  5
ADD
  8
0
 10
291.000000000006
 20
69.5521442130951
 30
38.65124399649822
 70
   192
  0
VERTEX
  5
ADE
  8
0
 10
290.99999999999
 20
-46.51537272430084
 30
38.65124399638575
 70
   192
  0
VERTEX
  5
ADF
  8
0
 10
290.7326529352213
 20
-46.51537272429971
 30
37.65187563261783
 70
   192
  0
VERTEX
  5
AE0
  8
0
 10
290.0030995560434
 20
-46.51537272429886
 30
36.91814955239471
 70
   192
  0
VERTEX
  5
AE1
  8
0
 10
288.999999999982
 20
-46.51537272429857
 30
36.65124399637579
 70
   192
  0
VERTEX
  5
AE2
  8
0
 10
289.0
 20
69.55214421309738
 30
36.65124399649222
 70
   192
  0
VERTEX
  5
AE3
  8
0
 10
289.9780833528225
 20
69.55214421309707
 30
36.9067231582897
 70
   192
  0
VERTEX
  5
AE4
  8
0
 10
290.7445208382085
 20
69.55214421309618
 30
37.6731606436757
 70
   192
  0
VERTEX
  5
AE5
  8
0
 10
0.0
 20
0.0
 30
0.0
 70
   128
 71
     5
 72
     6
 73
     7
  0
VERTEX
  5
AE6
  8
0
 10
0.0
 20
0.0
 30
0.0
 70
   128
 71
     4
 72
     5
 73
     7
  0
VERTEX
  5
AE7
  8
0
 10
0.0
 20
0.0
 30
0.0
 70
   128
 71
     8
 72
     3
 73
     4
  0
VERTEX
  5
AE8
  8
0
 10
0.0
 20
0.0
 30
0.0
 70
   128
 71
     7
 72
     8
 73
     4
  0
VERTEX
  5
AE9
  8
0
 10
0.0
 20
0.0
 30
0.0
 70
   128
 71
     1
 72
     2
 73
     3
  0
VERTEX
  5
AEA
  8
0
 10
0.0
 20
0.0
 30
0.0
 70
   128
 71
     8
 72
     1
 73
     3
  0
SEQEND
  5
CED
  8
0
  0
POLYLINE
  5
AEB
  8
0
 66
     1
 10
0.0
 20
0.0
 30
0.0
 70
    64
 71
     6
 72
     4
  0
VERTEX
  5
AEC
  8
0
 10
99.9999999999945
 20
-48.63252903246326
 30
144.1512439963749
 70
   192
  0
VERTEX
  5
AED
  8
0
 10
99.99999999999459
 20
-57.37348449344889
 30
193.8940323815497
 70
   192
  0
VERTEX
  5
AEE
  8
0
 10
99.99999999999464
 20
-57.37350046279521
 30
244.4082537095878
 70
   192
  0
VERTEX
  5
AEF
  8
0
 10
99.9999999999945
 20
-48.63252865151841
 30
294.1512439963748
 70
   192
  0
VERTEX
  5
AF0
  8
0
 10
99.9999999999945
 20
-73.51537272459241
 30
294.1512439963465
 70
   192
  0
VERTEX
  5
AF1
  8
0
 10
99.9999999999945
 20
-73.51537272442127
 30
144.1512439963464
 70
   192
  0
VERTEX
  5
AF2
  8
0
 10
0.0
 20
0.0
 30
0.0
 70
   128
 71
     6
 72
     1
 73
    -2
  0
VERTEX
  5
AF3
  8
0
 10
0.0
 20
0.0
 30
0.0
 70
   128
 71
    -3
 72
     5
 73
    -6
  0
VERTEX
  5
AF4
  8
0
 10
0.0
 20
0.0
 30
0.0
 70
   128
 71
     2
 72
    -3
 73
    -6
  0
VERTEX
  5
AF5
  8
0
 10
0.0
 20
0.0
 30
0.0
 70
   128
 71
     3
 72
     4
 73
    -5
  0
SEQEND
  5
CEE
  8
0
  0
POLYLINE
  5
AF6
  8
0
 66
     1
 10
0.0
 20
0.0
 30
0.0
 70
    64
 71
    18
 72
    16
  0
VERTEX
  5
AF7
  8
0
 10
-100.015435204384
 20
-48.37555072523228
 30
144.1512439963751
 70
   192
  0
VERTEX
  5
AF8
  8
0
 10
-100.3563962265448
 20
-47.38943798692654
 30
143.9237442426311
 70
   192
  0
VERTEX
  5
AF9
  8
0
 10
-100.963423545074
 20
-46.65180437873278
 30
143.3942994712137
 70
   192
  0
VERTEX
  5
AFA
  8
0
 10
-101.71462337574
 20
-46.17508757471758
 30
142.6843273179317
 70
   192
  0
VERTEX
  5
AFB
  8
0
 10
-101.0499611090374
 20
-46.27426283938997
 30
142.6843966141783
 70
   192
  0
VERTEX
  5
AFC
  8
0
 10
-100.3852026607929
 20
-46.37277295117134
 30
142.6844654239406
 70
   192
  0
VERTEX
  5
AFD
  8
0
 10
-99.72035065169209
 20
-46.4706177026146
 30
142.6845337474542
 70
   192
  0
VERTEX
  5
AFE
  8
0
 10
-33.34559272641265
 20
-52.88971534036605
 30
142.6889622623867
 70
   192
  0
VERTEX
  5
AFF
  8
0
 10
33.34560555400479
 20
-52.88971765167489
 30
142.6889622548293
 70
   192
  0
VERTEX
  5
B00
  8
0
 10
99.72035069866189
 20
-46.47061766402658
 30
142.6845337491251
 70
   192
  0
VERTEX
  5
B01
  8
0
 10
100.3852077233727
 20
-46.37277217973043
 30
142.6844654246766
 70
   192
  0
VERTEX
  5
B02
  8
0
 10
101.0499653841446
 20
-46.27426219389621
 30
142.6843966145615
 70
   192
  0
VERTEX
  5
B03
  8
0
 10
101.714623385202
 20
-46.17508757227959
 30
142.684327318276
 70
   192
  0
VERTEX
  5
B04
  8
0
 10
100.9740124431403
 20
-46.6424255992962
 30
143.3843329463069
 70
   192
  0
VERTEX
  5
B05
  8
0
 10
100.3563869434479
 20
-47.38946395197241
 30
143.9237645962908
 70
   192
  0
VERTEX
  5
B06
  8
0
 10
100.015435208134
 20
-48.37555069290828
 30
144.1512439963751
 70
   192
  0
VERTEX
  5
B07
  8
0
 10
33.44253698887745
 20
-54.81364270445375
 30
144.1512439963677
 70
   192
  0
VERTEX
  5
B08
  8
0
 10
-33.44256750134766
 20
-54.81364005075729
 30
144.1512439963678
 70
   192
  0
VERTEX
  5
B09
  8
0
 10
0.0
 20
0.0
 30
0.0
 70
   128
 71
    14
 72
    11
 73
    12
  0
VERTEX
  5
B0A
  8
0
 10
0.0
 20
0.0
 30
0.0
 70
   128
 71
    12
 72
    13
 73
    14
  0
VERTEX
  5
B0B
  8
0
 10
0.0
 20
0.0
 30
0.0
 70
   128
 71
    15
 72
    10
 73
    11
  0
VERTEX
  5
B0C
  8
0
 10
0.0
 20
0.0
 30
0.0
 70
   128
 71
    14
 72
    15
 73
    11
  0
VERTEX
  5
B0D
  8
0
 10
0.0
 20
0.0
 30
0.0
 70
   128
 71
    17
 72
     9
 73
    10
  0
VERTEX
  5
B0E
  8
0
 10
0.0
 20
0.0
 30
0.0
 70
   128
 71
    16
 72
    17
 73
    10
  0
VERTEX
  5
B0F
  8
0
 10
0.0
 20
0.0
 30
0.0
 70
   128
 71
    15
 72
    16
 73
    10
  0
VERTEX
  5
B10
  8
0
 10
0.0
 20
0.0
 30
0.0
 70
   128
 71
    18
 72
     8
 73
     9
  0
VERTEX
  5
B11
  8
0
 10
0.0
 20
0.0
 30
0.0
 70
   128
 71
    17
 72
    18
 73
     9
  0
VERTEX
  5
B12
  8
0
 10
0.0
 20
0.0
 30
0.0
 70
   128
 71
     3
 72
     4
 73
     5
  0
VERTEX
  5
B13
  8
0
 10
0.0
 20
0.0
 30
0.0
 70
   128
 71
     5
 72
     6
 73
     3
  0
VERTEX
  5
B14
  8
0
 10
0.0
 20
0.0
 30
0.0
 70
   128
 71
     7
 72
     1
 73
     2
  0
VERTEX
  5
B15
  8
0
 10
0.0
 20
0.0
 30
0.0
 70
   128
 71
     3
 72
     6
 73
     7
  0
VERTEX
  5
B16
  8
0
 10
0.0
 20
0.0
 30
0.0
 70
   128
 71
     2
 72
     3
 73
     7
  0
VERTEX
  5
B17
  8
0
 10
0.0
 20
0.0
 30
0.0
 70
   128
 71
     8
 72
    18
 73
     1
  0
VERTEX
  5
B18
  8
0
 10
0.0
 20
0.0
 30
0.0
 70
   128
 71
     7
 72
     8
 73
     1
  0
SEQEND
  5
CEF
  8
0
  0
POLYLINE
  5
B19
  8
0
 66
     1
 10
0.0
 20
0.0
 30
0.0
 70
    64
 71
    18
 72
    16
  0
VERTEX
  5
B1A
  8
0
 10
-100.015435177917
 20
-48.37555057125839
 30
294.1512439963752
 70
   192
  0
VERTEX
  5
B1B
  8
0
 10
-33.44256749231469
 20
-54.81363988941273
 30
294.1512439963678
 70
   192
  0
VERTEX
  5
B1C
  8
0
 10
33.44253697984534
 20
-54.8136425431076
 30
294.1512439963679
 70
   192
  0
VERTEX
  5
B1D
  8
0
 10
100.015435181666
 20
-48.37555053893438
 30
294.1512439963752
 70
   192
  0
VERTEX
  5
B1E
  8
0
 10
100.3567738185705
 20
-47.38919584514756
 30
294.3786444249887
 70
   192
  0
VERTEX
  5
B1F
  8
0
 10
100.9584009352659
 20
-46.65646436333703
 30
294.9034705700266
 70
   192
  0
VERTEX
  5
B20
  8
0
 10
101.714623378066
 20
-46.17508736617812
 30
295.6181608515174
 70
   192
  0
VERTEX
  5
B21
  8
0
 10
101.0499599182437
 20
-46.27426158656141
 30
295.6180958910893
 70
   192
  0
VERTEX
  5
B22
  8
0
 10
100.3852021204079
 20
-46.37277158766737
 30
295.6180270801823
 70
   192
  0
VERTEX
  5
B23
  8
0
 10
99.7203506916705
 20
-46.47061745773811
 30
295.6179544207495
 70
   192
  0
VERTEX
  5
B24
  8
0
 10
33.81785306602747
 20
-52.86694157647362
 30
295.6135888195678
 70
   192
  0
VERTEX
  5
B25
  8
0
 10
-33.94816043775567
 20
-52.8606563526368
 30
295.6135561231079
 70
   192
  0
VERTEX
  5
B26
  8
0
 10
-99.72035064470029
 20
-46.47061749632611
 30
295.6179544224203
 70
   192
  0
VERTEX
  5
B27
  8
0
 10
-100.3852020253781
 20
-46.37277161875182
 30
295.6180270815105
 70
   192
  0
VERTEX
  5
B28
  8
0
 10
-101.049959834896
 20
-46.27426160565398
 30
295.6180958919763
 70
   192
  0
VERTEX
  5
B29
  8
0
 10
-101.714623368604
 20
-46.17508736861611
 30
295.6181608518618
 70
   192
  0
VERTEX
  5
B2A
  8
0
 10
-100.9646773663317
 20
-46.65042724037976
 30
294.9098351996438
 70
   192
  0
VERTEX
  5
B2B
  8
0
 10
-100.3567966345571
 20
-47.38917193062024
 30
294.3786513499007
 70
   192
  0
VERTEX
  5
B2C
  8
0
 10
0.0
 20
0.0
 30
0.0
 70
   128
 71
    17
 72
    14
 73
    15
  0
VERTEX
  5
B2D
  8
0
 10
0.0
 20
0.0
 30
0.0
 70
   128
 71
    15
 72
    16
 73
    17
  0
VERTEX
  5
B2E
  8
0
 10
0.0
 20
0.0
 30
0.0
 70
   128
 71
    18
 72
    13
 73
    14
  0
VERTEX
  5
B2F
  8
0
 10
0.0
 20
0.0
 30
0.0
 70
   128
 71
    17
 72
    18
 73
    14
  0
VERTEX
  5
B30
  8
0
 10
0.0
 20
0.0
 30
0.0
 70
   128
 71
     6
 72
     7
 73
     8
  0
VERTEX
  5
B31
  8
0
 10
0.0
 20
0.0
 30
0.0
 70
   128
 71
     8
 72
     9
 73
     6
  0
VERTEX
  5
B32
  8
0
 10
0.0
 20
0.0
 30
0.0
 70
   128
 71
    10
 72
     4
 73
     5
  0
VERTEX
  5
B33
  8
0
 10
0.0
 20
0.0
 30
0.0
 70
   128
 71
     6
 72
     9
 73
    10
  0
VERTEX
  5
B34
  8
0
 10
0.0
 20
0.0
 30
0.0
 70
   128
 71
     5
 72
     6
 73
    10
  0
VERTEX
  5
B35
  8
0
 10
0.0
 20
0.0
 30
0.0
 70
   128
 71
    11
 72
     3
 73
     4
  0
VERTEX
  5
B36
  8
0
 10
0.0
 20
0.0
 30
0.0
 70
   128
 71
    10
 72
    11
 73
     4
  0
VERTEX
  5
B37
  8
0
 10
0.0
 20
0.0
 30
0.0
 70
   128
 71
    12
 72
     2
 73
     3
  0
VERTEX
  5
B38
  8
0
 10
0.0
 20
0.0
 30
0.0
 70
   128
 71
    11
 72
    12
 73
     3
  0
VERTEX
  5
B39
  8
0
 10
0.0
 20
0.0
 30
0.0
 70
   128
 71
    18
 72
     1
 73
     2
  0
VERTEX
  5
B3A
  8
0
 10
0.0
 20
0.0
 30
0.0
 70
   128
 71
    13
 72
    18
 73
     2
  0
VERTEX
  5
B3B
  8
0
 10
0.0
 20
0.0
 30
0.0
 70
   128
 71
    12
 72
    13
 73
     2
  0
SEQEND
  5
CF0
  8
0
  0
POLYLINE
  5
B3C
  8
0
 66
     1
 10
0.0
 20
0.0
 30
0.0
 70
    64
 71
    24
 72
    22
  0
VERTEX
  5
B3D
  8
0
 10
-100.000000000006
 20
-48.6325286526654
 30
294.1512439963748
 70
   192
  0
VERTEX
  5
B3E
  8
0
 10
-100.0017165223124
 20
-48.54668629879901
 30
294.1512439963561
 70
   192
  0
VERTEX
  5
B3F
  8
0
 10
-100.0068637982085
 20
-48.46098119804711
 30
294.151243996317
 70
   192
  0
VERTEX
  5
B40
  8
0
 10
-100.015435177917
 20
-48.37555057125839
 30
294.1512439963752
 70
   192
  0
VERTEX
  5
B41
  8
0
 10
-100.3567966345571
 20
-47.38917193062024
 30
294.3786513499007
 70
   192
  0
VERTEX
  5
B42
  8
0
 10
-100.9646773663317
 20
-46.65042724037976
 30
294.9098351996438
 70
   192
  0
VERTEX
  5
B43
  8
0
 10
-101.714623368604
 20
-46.17508736861611
 30
295.6181608518618
 70
   192
  0
VERTEX
  5
B44
  8
0
 10
-101.7144301634005
 20
-46.35913785181175
 30
294.956821148277
 70
   192
  0
VERTEX
  5
B45
  8
0
 10
-101.714238911302
 20
-46.54150606601466
 30
294.295012295637
 70
   192
  0
VERTEX
  5
B46
  8
0
 10
-101.714049606982
 20
-46.72219220381582
 30
293.6327393903545
 70
   192
  0
VERTEX
  5
B47
  8
0
 10
-101.7051946151703
 20
-55.40244675694337
 30
244.2408984740306
 70
   192
  0
VERTEX
  5
B48
  8
0
 10
-101.7051944110547
 20
-55.40243190499678
 30
194.061588549719
 70
   192
  0
VERTEX
  5
B49
  8
0
 10
-101.714049615127
 20
-46.72219263992785
 30
144.6697488096859
 70
   192
  0
VERTEX
  5
B4A
  8
0
 10
-101.7142389201749
 20
-46.54150571324769
 30
144.0074733770146
 70
   192
  0
VERTEX
  5
B4B
  8
0
 10
-101.7144301718619
 20
-46.35913750900899
 30
143.3456648388067
 70
   192
  0
VERTEX
  5
B4C
  8
0
 10
-101.71462337574
 20
-46.17508757471758
 30
142.6843273179317
 70
   192
  0
VERTEX
  5
B4D
  8
0
 10
-100.963423545074
 20
-46.65180437873278
 30
143.3942994712137
 70
   192
  0
VERTEX
  5
B4E
  8
0
 10
-100.3563962265448
 20
-47.38943798692654
 30
143.9237442426311
 70
   192
  0
VERTEX
  5
B4F
  8
0
 10
-100.015435204384
 20
-48.37555072523228
 30
144.1512439963751
 70
   192
  0
VERTEX
  5
B50
  8
0
 10
-100.0068638099839
 20
-48.46098142709286
 30
144.151243996433
 70
   192
  0
VERTEX
  5
B51
  8
0
 10
-100.0017165252583
 20
-48.54668660361555
 30
144.1512439963938
 70
   192
  0
VERTEX
  5
B52
  8
0
 10
-100.000000000006
 20
-48.63252903360227
 30
144.1512439963749
 70
   192
  0
VERTEX
  5
B53
  8
0
 10
-100.000000000006
 20
-57.37348616859354
 30
193.8940865886176
 70
   192
  0
VERTEX
  5
B54
  8
0
 10
-100.000000000006
 20
-57.37349912155663
 30
244.4083339643837
 70
   192
  0
VERTEX
  5
B55
  8
0
 10
0.0
 20
0.0
 30
0.0
 70
   128
 71
    17
 72
    14
 73
    15
  0
VERTEX
  5
B56
  8
0
 10
0.0
 20
0.0
 30
0.0
 70
   128
 71
    15
 72
    16
 73
    17
  0
VERTEX
  5
B57
  8
0
 10
0.0
 20
0.0
 30
0.0
 70
   128
 71
    18
 72
    13
 73
    14
  0
VERTEX
  5
B58
  8
0
 10
0.0
 20
0.0
 30
0.0
 70
   128
 71
    17
 72
    18
 73
    14
  0
VERTEX
  5
B59
  8
0
 10
0.0
 20
0.0
 30
0.0
 70
   128
 71
    18
 72
    19
 73
    13
  0
VERTEX
  5
B5A
  8
0
 10
0.0
 20
0.0
 30
0.0
 70
   128
 71
    19
 72
    20
 73
    13
  0
VERTEX
  5
B5B
  8
0
 10
0.0
 20
0.0
 30
0.0
 70
   128
 71
    20
 72
    21
 73
    13
  0
VERTEX
  5
B5C
  8
0
 10
0.0
 20
0.0
 30
0.0
 70
   128
 71
    23
 72
    12
 73
    13
  0
VERTEX
  5
B5D
  8
0
 10
0.0
 20
0.0
 30
0.0
 70
   128
 71
    22
 72
    23
 73
    13
  0
VERTEX
  5
B5E
  8
0
 10
0.0
 20
0.0
 30
0.0
 70
   128
 71
    21
 72
    22
 73
    13
  0
VERTEX
  5
B5F
  8
0
 10
0.0
 20
0.0
 30
0.0
 70
   128
 71
    24
 72
    11
 73
    12
  0
VERTEX
  5
B60
  8
0
 10
0.0
 20
0.0
 30
0.0
 70
   128
 71
    23
 72
    24
 73
    12
  0
VERTEX
  5
B61
  8
0
 10
0.0
 20
0.0
 30
0.0
 70
   128
 71
     6
 72
     7
 73
     8
  0
VERTEX
  5
B62
  8
0
 10
0.0
 20
0.0
 30
0.0
 70
   128
 71
     8
 72
     9
 73
     6
  0
VERTEX
  5
B63
  8
0
 10
0.0
 20
0.0
 30
0.0
 70
   128
 71
    10
 72
     2
 73
     3
  0
VERTEX
  5
B64
  8
0
 10
0.0
 20
0.0
 30
0.0
 70
   128
 71
     3
 72
     4
 73
    10
  0
VERTEX
  5
B65
  8
0
 10
0.0
 20
0.0
 30
0.0
 70
   128
 71
     4
 72
     5
 73
    10
  0
VERTEX
  5
B66
  8
0
 10
0.0
 20
0.0
 30
0.0
 70
   128
 71
     6
 72
     9
 73
    10
  0
VERTEX
  5
B67
  8
0
 10
0.0
 20
0.0
 30
0.0
 70
   128
 71
     5
 72
     6
 73
    10
  0
VERTEX
  5
B68
  8
0
 10
0.0
 20
0.0
 30
0.0
 70
   128
 71
    24
 72
     1
 73
     2
  0
VERTEX
  5
B69
  8
0
 10
0.0
 20
0.0
 30
0.0
 70
   128
 71
    11
 72
    24
 73
     2
  0
VERTEX
  5
B6A
  8
0
 10
0.0
 20
0.0
 30
0.0
 70
   128
 71
    10
 72
    11
 73
     2
  0
SEQEND
  5
CF1
  8
0
  0
POLYLINE
  5
B6B
  8
0
 66
     1
 10
0.0
 20
0.0
 30
0.0
 70
    64
 71
    24
 72
    22
  0
VERTEX
  5
B6C
  8
0
 10
101.714049616575
 20
-46.72219220132784
 30
293.6327393900154
 70
   192
  0
VERTEX
  5
B6D
  8
0
 10
101.7142389215963
 20
-46.54150535181564
 30
294.2950148211082
 70
   192
  0
VERTEX
  5
B6E
  8
0
 10
101.7144301735624
 20
-46.35913722528933
 30
294.9568233498087
 70
   192
  0
VERTEX
  5
B6F
  8
0
 10
101.714623378066
 20
-46.17508736617812
 30
295.6181608515174
 70
   192
  0
VERTEX
  5
B70
  8
0
 10
100.9584009352659
 20
-46.65646436333703
 30
294.9034705700266
 70
   192
  0
VERTEX
  5
B71
  8
0
 10
100.3567738185705
 20
-47.38919584514756
 30
294.3786444249887
 70
   192
  0
VERTEX
  5
B72
  8
0
 10
100.015435181666
 20
-48.37555053893438
 30
294.1512439963752
 70
   192
  0
VERTEX
  5
B73
  8
0
 10
100.0068637998701
 20
-48.46098117603197
 30
294.151243996317
 70
   192
  0
VERTEX
  5
B74
  8
0
 10
100.0017165227197
 20
-48.546686287193
 30
294.1512439963561
 70
   192
  0
VERTEX
  5
B75
  8
0
 10
99.9999999999945
 20
-48.63252865151841
 30
294.1512439963748
 70
   192
  0
VERTEX
  5
B76
  8
0
 10
99.99999999999464
 20
-57.37350046279521
 30
244.4082537095878
 70
   192
  0
VERTEX
  5
B77
  8
0
 10
99.99999999999459
 20
-57.37348449344889
 30
193.8940323815497
 70
   192
  0
VERTEX
  5
B78
  8
0
 10
99.9999999999945
 20
-48.63252903246326
 30
144.1512439963749
 70
   192
  0
VERTEX
  5
B79
  8
0
 10
100.0017165256652
 20
-48.54668659201486
 30
144.1512439963938
 70
   192
  0
VERTEX
  5
B7A
  8
0
 10
100.0068638116459
 20
-48.46098140508077
 30
144.151243996433
 70
   192
  0
VERTEX
  5
B7B
  8
0
 10
100.015435208134
 20
-48.37555069290828
 30
144.1512439963751
 70
   192
  0
VERTEX
  5
B7C
  8
0
 10
100.3563869434479
 20
-47.38946395197241
 30
143.9237645962908
 70
   192
  0
VERTEX
  5
B7D
  8
0
 10
100.9740124431403
 20
-46.6424255992962
 30
143.3843329463069
 70
   192
  0
VERTEX
  5
B7E
  8
0
 10
101.714623385202
 20
-46.17508757227959
 30
142.684327318276
 70
   192
  0
VERTEX
  5
B7F
  8
0
 10
101.7144301807116
 20
-46.35913813061704
 30
143.3456670410226
 70
   192
  0
VERTEX
  5
B80
  8
0
 10
101.7142389289786
 20
-46.54150642246792
 30
144.0074759031728
 70
   192
  0
VERTEX
  5
B81
  8
0
 10
101.714049624717
 20
-46.72219263744085
 30
144.6697488100271
 70
   192
  0
VERTEX
  5
B82
  8
0
 10
101.7051943959636
 20
-55.40243057399901
 30
194.0615932249074
 70
   192
  0
VERTEX
  5
B83
  8
0
 10
101.7051946635723
 20
-55.40244782846083
 30
244.2409024279804
 70
   192
  0
VERTEX
  5
B84
  8
0
 10
0.0
 20
0.0
 30
0.0
 70
   128
 71
    18
 72
    19
 73
    20
  0
VERTEX
  5
B85
  8
0
 10
0.0
 20
0.0
 30
0.0
 70
   128
 71
    20
 72
    21
 73
    18
  0
VERTEX
  5
B86
  8
0
 10
0.0
 20
0.0
 30
0.0
 70
   128
 71
    22
 72
    14
 73
    15
  0
VERTEX
  5
B87
  8
0
 10
0.0
 20
0.0
 30
0.0
 70
   128
 71
    15
 72
    16
 73
    22
  0
VERTEX
  5
B88
  8
0
 10
0.0
 20
0.0
 30
0.0
 70
   128
 71
    16
 72
    17
 73
    22
  0
VERTEX
  5
B89
  8
0
 10
0.0
 20
0.0
 30
0.0
 70
   128
 71
    18
 72
    21
 73
    22
  0
VERTEX
  5
B8A
  8
0
 10
0.0
 20
0.0
 30
0.0
 70
   128
 71
    17
 72
    18
 73
    22
  0
VERTEX
  5
B8B
  8
0
 10
0.0
 20
0.0
 30
0.0
 70
   128
 71
    12
 72
    13
 73
    14
  0
VERTEX
  5
B8C
  8
0
 10
0.0
 20
0.0
 30
0.0
 70
   128
 71
    23
 72
    12
 73
    14
  0
VERTEX
  5
B8D
  8
0
 10
0.0
 20
0.0
 30
0.0
 70
   128
 71
    22
 72
    23
 73
    14
  0
VERTEX
  5
B8E
  8
0
 10
0.0
 20
0.0
 30
0.0
 70
   128
 71
    24
 72
    11
 73
    12
  0
VERTEX
  5
B8F
  8
0
 10
0.0
 20
0.0
 30
0.0
 70
   128
 71
    23
 72
    24
 73
    12
  0
VERTEX
  5
B90
  8
0
 10
0.0
 20
0.0
 30
0.0
 70
   128
 71
     9
 72
    10
 73
    11
  0
VERTEX
  5
B91
  8
0
 10
0.0
 20
0.0
 30
0.0
 70
   128
 71
     1
 72
     9
 73
    11
  0
VERTEX
  5
B92
  8
0
 10
0.0
 20
0.0
 30
0.0
 70
   128
 71
    24
 72
     1
 73
    11
  0
VERTEX
  5
B93
  8
0
 10
0.0
 20
0.0
 30
0.0
 70
   128
 71
     5
 72
     2
 73
     3
  0
VERTEX
  5
B94
  8
0
 10
0.0
 20
0.0
 30
0.0
 70
   128
 71
     3
 72
     4
 73
     5
  0
VERTEX
  5
B95
  8
0
 10
0.0
 20
0.0
 30
0.0
 70
   128
 71
     6
 72
     1
 73
     2
  0
VERTEX
  5
B96
  8
0
 10
0.0
 20
0.0
 30
0.0
 70
   128
 71
     5
 72
     6
 73
     2
  0
VERTEX
  5
B97
  8
0
 10
0.0
 20
0.0
 30
0.0
 70
   128
 71
     6
 72
     7
 73
     1
  0
VERTEX
  5
B98
  8
0
 10
0.0
 20
0.0
 30
0.0
 70
   128
 71
     7
 72
     8
 73
     1
  0
VERTEX
  5
B99
  8
0
 10
0.0
 20
0.0
 30
0.0
 70
   128
 71
     8
 72
     9
 73
     1
  0
SEQEND
  5
CF2
  8
0
  0
POLYLINE
  5
B9A
  8
0
 66
     1
 10
0.0
 20
0.0
 30
0.0
 70
    64
 71
    12
 72
    10
  0
VERTEX
  5
B9B
  8
0
 10
-0.0000000000057391
 20
-47.45183759641547
 30
184.6583599283844
 70
   192
  0
VERTEX
  5
B9C
  8
0
 10
17.25509641367473
 20
-47.78814874936291
 30
189.3004072305664
 70
   192
  0
VERTEX
  5
B9D
  8
0
 10
29.84240628601488
 20
-48.44089721481306
 30
201.9357936665294
 70
   192
  0
VERTEX
  5
B9E
  8
0
 10
34.4391348213791
 20
-48.75692348991084
 30
219.1512439963747
 70
   192
  0
VERTEX
  5
B9F
  8
0
 10
34.84330495249658
 20
-48.37901341071378
 30
219.1512437855075
 70
   192
  0
VERTEX
  5
BA0
  8
0
 10
35.34601564191784
 20
-48.12269540109103
 30
219.1512436399763
 70
   192
  0
VERTEX
  5
BA1
  8
0
 10
35.88925882447379
 20
-48.01754613828282
 30
219.151243576574
 70
   192
  0
VERTEX
  5
BA2
  8
0
 10
31.08980921578912
 20
-47.68983126959251
 30
201.2462000940014
 70
   192
  0
VERTEX
  5
BA3
  8
0
 10
17.9626719868591
 20
-47.01233288595753
 30
188.1233385873623
 70
   192
  0
VERTEX
  5
BA4
  8
0
 10
0.0000000043683558
 20
-46.66503141802195
 30
183.3136090220299
 70
   192
  0
VERTEX
  5
BA5
  8
0
 10
0.0000000035795641
 20
-46.80189871268107
 30
183.8242869284495
 70
   192
  0
VERTEX
  5
BA6
  8
0
 10
0.0000000020684936
 20
-47.07370799279766
 30
184.2888432395586
 70
   192
  0
VERTEX
  5
BA7
  8
0
 10
0.0
 20
0.0
 30
0.0
 70
   128
 71
     6
 72
     7
 73
     8
  0
VERTEX
  5
BA8
  8
0
 10
0.0
 20
0.0
 30
0.0
 70
   128
 71
     8
 72
     9
 73
     6
  0
VERTEX
  5
BA9
  8
0
 10
0.0
 20
0.0
 30
0.0
 70
   128
 71
     9
 72
    11
 73
     6
  0
VERTEX
  5
BAA
  8
0
 10
0.0
 20
0.0
 30
0.0
 70
   128
 71
     9
 72
    10
 73
    11
  0
VERTEX
  5
BAB
  8
0
 10
0.0
 20
0.0
 30
0.0
 70
   128
 71
    12
 72
     5
 73
     6
  0
VERTEX
  5
BAC
  8
0
 10
0.0
 20
0.0
 30
0.0
 70
   128
 71
    11
 72
    12
 73
     6
  0
VERTEX
  5
BAD
  8
0
 10
0.0
 20
0.0
 30
0.0
 70
   128
 71
    12
 72
     1
 73
     2
  0
VERTEX
  5
BAE
  8
0
 10
0.0
 20
0.0
 30
0.0
 70
   128
 71
     2
 72
     3
 73
    12
  0
VERTEX
  5
BAF
  8
0
 10
0.0
 20
0.0
 30
0.0
 70
   128
 71
     3
 72
     5
 73
    12
  0
VERTEX
  5
BB0
  8
0
 10
0.0
 20
0.0
 30
0.0
 70
   128
 71
     3
 72
     4
 73
     5
  0
SEQEND
  5
CF3
  8
0
  0
POLYLINE
  5
BB1
  8
0
 66
     1
 10
0.0
 20
0.0
 30
0.0
 70
    64
 71
    12
 72
    10
  0
VERTEX
  5
BB2
  8
0
 10
-34.4391348278824
 20
-48.75692317467184
 30
219.1512439963692
 70
   192
  0
VERTEX
  5
BB3
  8
0
 10
-29.84238129045802
 20
-48.44088916056477
 30
201.9357850022319
 70
   192
  0
VERTEX
  5
BB4
  8
0
 10
-17.25507725521296
 20
-47.78814655594655
 30
189.3004202603388
 70
   192
  0
VERTEX
  5
BB5
  8
0
 10
-0.0000000000057391
 20
-47.45183759641547
 30
184.6583599283844
 70
   192
  0
VERTEX
  5
BB6
  8
0
 10
0.0000000020684936
 20
-47.07370799279766
 30
184.2888432395586
 70
   192
  0
VERTEX
  5
BB7
  8
0
 10
0.0000000035795641
 20
-46.80189871268107
 30
183.8242869284495
 70
   192
  0
VERTEX
  5
BB8
  8
0
 10
0.0000000043683558
 20
-46.66503141802195
 30
183.3136090220299
 70
   192
  0
VERTEX
  5
BB9
  8
0
 10
-17.96241580860632
 20
-47.01236471327764
 30
188.1232564627899
 70
   192
  0
VERTEX
  5
BBA
  8
0
 10
-31.08990110272741
 20
-47.68983812906936
 30
201.2464097033404
 70
   192
  0
VERTEX
  5
BBB
  8
0
 10
-35.88925883413719
 20
-48.01754580772083
 30
219.1512435765684
 70
   192
  0
VERTEX
  5
BBC
  8
0
 10
-35.34601564878147
 20
-48.12269507428492
 30
219.1512436399706
 70
   192
  0
VERTEX
  5
BBD
  8
0
 10
-34.84330495801127
 20
-48.37901308934885
 30
219.1512437855018
 70
   192
  0
VERTEX
  5
BBE
  8
0
 10
0.0
 20
0.0
 30
0.0
 70
   128
 71
     6
 72
     7
 73
     8
  0
VERTEX
  5
BBF
  8
0
 10
0.0
 20
0.0
 30
0.0
 70
   128
 71
     8
 72
     9
 73
     6
  0
VERTEX
  5
BC0
  8
0
 10
0.0
 20
0.0
 30
0.0
 70
   128
 71
     9
 72
    11
 73
     6
  0
VERTEX
  5
BC1
  8
0
 10
0.0
 20
0.0
 30
0.0
 70
   128
 71
     9
 72
    10
 73
    11
  0
VERTEX
  5
BC2
  8
0
 10
0.0
 20
0.0
 30
0.0
 70
   128
 71
    12
 72
     5
 73
     6
  0
VERTEX
  5
BC3
  8
0
 10
0.0
 20
0.0
 30
0.0
 70
   128
 71
    11
 72
    12
 73
     6
  0
VERTEX
  5
BC4
  8
0
 10
0.0
 20
0.0
 30
0.0
 70
   128
 71
    12
 72
     1
 73
     2
  0
VERTEX
  5
BC5
  8
0
 10
0.0
 20
0.0
 30
0.0
 70
   128
 71
     2
 72
     3
 73
    12
  0
VERTEX
  5
BC6
  8
0
 10
0.0
 20
0.0
 30
0.0
 70
   128
 71
     3
 72
     5
 73
    12
  0
VERTEX
  5
BC7
  8
0
 10
0.0
 20
0.0
 30
0.0
 70
   128
 71
     3
 72
     4
 73
     5
  0
SEQEND
  5
CF4
  8
0
  0
POLYLINE
  5
BC8
  8
0
 66
     1
 10
0.0
 20
0.0
 30
0.0
 70
    64
 71
    12
 72
    10
  0
VERTEX
  5
BC9
  8
0
 10
-0.0000000000057522
 20
-47.45183832948122
 30
253.6441283991961
 70
   192
  0
VERTEX
  5
BCA
  8
0
 10
-17.25509613898561
 20
-47.78815183354876
 30
249.0020811576692
 70
   192
  0
VERTEX
  5
BCB
  8
0
 10
-29.84240512574085
 20
-48.4408961372564
 30
236.3666957419645
 70
   192
  0
VERTEX
  5
BCC
  8
0
 10
-34.4391348278824
 20
-48.75692317467184
 30
219.1512439963692
 70
   192
  0
VERTEX
  5
BCD
  8
0
 10
-34.84330495801127
 20
-48.37901308934885
 30
219.1512437855018
 70
   192
  0
VERTEX
  5
BCE
  8
0
 10
-35.34601564878147
 20
-48.12269507428492
 30
219.1512436399706
 70
   192
  0
VERTEX
  5
BCF
  8
0
 10
-35.88925883413719
 20
-48.01754580772083
 30
219.1512435765684
 70
   192
  0
VERTEX
  5
BD0
  8
0
 10
-31.0898081720302
 20
-47.68982995852297
 30
237.0562909558046
 70
   192
  0
VERTEX
  5
BD1
  8
0
 10
-17.96266971398684
 20
-47.01233614231243
 30
250.1791500979499
 70
   192
  0
VERTEX
  5
BD2
  8
0
 10
0.0000000043683597
 20
-46.66503232597774
 30
254.9888783528701
 70
   192
  0
VERTEX
  5
BD3
  8
0
 10
0.0000000035795623
 20
-46.80189973074071
 30
254.4782008080038
 70
   192
  0
VERTEX
  5
BD4
  8
0
 10
0.0000000020684859
 20
-47.07370893838686
 30
254.013644846607
 70
   192
  0
VERTEX
  5
BD5
  8
0
 10
0.0
 20
0.0
 30
0.0
 70
   128
 71
     6
 72
     7
 73
     8
  0
VERTEX
  5
BD6
  8
0
 10
0.0
 20
0.0
 30
0.0
 70
   128
 71
     8
 72
     9
 73
     6
  0
VERTEX
  5
BD7
  8
0
 10
0.0
 20
0.0
 30
0.0
 70
   128
 71
     9
 72
    11
 73
     6
  0
VERTEX
  5
BD8
  8
0
 10
0.0
 20
0.0
 30
0.0
 70
   128
 71
     9
 72
    10
 73
    11
  0
VERTEX
  5
BD9
  8
0
 10
0.0
 20
0.0
 30
0.0
 70
   128
 71
    12
 72
     5
 73
     6
  0
VERTEX
  5
BDA
  8
0
 10
0.0
 20
0.0
 30
0.0
 70
   128
 71
    11
 72
    12
 73
     6
  0
VERTEX
  5
BDB
  8
0
 10
0.0
 20
0.0
 30
0.0
 70
   128
 71
    12
 72
     1
 73
     2
  0
VERTEX
  5
BDC
  8
0
 10
0.0
 20
0.0
 30
0.0
 70
   128
 71
     2
 72
     3
 73
    12
  0
VERTEX
  5
BDD
  8
0
 10
0.0
 20
0.0
 30
0.0
 70
   128
 71
     3
 72
     5
 73
    12
  0
VERTEX
  5
BDE
  8
0
 10
0.0
 20
0.0
 30
0.0
 70
   128
 71
     3
 72
     4
 73
     5
  0
SEQEND
  5
CF5
  8
0
  0
POLYLINE
  5
BDF
  8
0
 66
     1
 10
0.0
 20
0.0
 30
0.0
 70
    64
 71
    12
 72
    10
  0
VERTEX
  5
BE0
  8
0
 10
34.4391348213791
 20
-48.75692348991084
 30
219.1512439963747
 70
   192
  0
VERTEX
  5
BE1
  8
0
 10
29.84238008726478
 20
-48.4408884647243
 30
236.3667043464719
 70
   192
  0
VERTEX
  5
BE2
  8
0
 10
17.25507695436945
 20
-47.78814920755288
 30
249.0020681763006
 70
   192
  0
VERTEX
  5
BE3
  8
0
 10
-0.0000000000057522
 20
-47.45183832948122
 30
253.6441283991961
 70
   192
  0
VERTEX
  5
BE4
  8
0
 10
0.0000000020684859
 20
-47.07370893838686
 30
254.013644846607
 70
   192
  0
VERTEX
  5
BE5
  8
0
 10
0.0000000035795623
 20
-46.80189973074071
 30
254.4782008080038
 70
   192
  0
VERTEX
  5
BE6
  8
0
 10
0.0000000043683597
 20
-46.66503232597774
 30
254.9888783528701
 70
   192
  0
VERTEX
  5
BE7
  8
0
 10
17.96241384236872
 20
-47.01236752316051
 30
250.1792322609154
 70
   192
  0
VERTEX
  5
BE8
  8
0
 10
31.08990084743458
 20
-47.68983725088462
 30
237.0560801354771
 70
   192
  0
VERTEX
  5
BE9
  8
0
 10
35.88925882447379
 20
-48.01754613828282
 30
219.151243576574
 70
   192
  0
VERTEX
  5
BEA
  8
0
 10
35.34601564191784
 20
-48.12269540109103
 30
219.1512436399763
 70
   192
  0
VERTEX
  5
BEB
  8
0
 10
34.84330495249658
 20
-48.37901341071378
 30
219.1512437855075
 70
   192
  0
VERTEX
  5
BEC
  8
0
 10
0.0
 20
0.0
 30
0.0
 70
   128
 71
     6
 72
     7
 73
     8
  0
VERTEX
  5
BED
  8
0
 10
0.0
 20
0.0
 30
0.0
 70
   128
 71
     8
 72
     9
 73
     6
  0
VERTEX
  5
BEE
  8
0
 10
0.0
 20
0.0
 30
0.0
 70
   128
 71
     9
 72
    11
 73
     6
  0
VERTEX
  5
BEF
  8
0
 10
0.0
 20
0.0
 30
0.0
 70
   128
 71
     9
 72
    10
 73
    11
  0
VERTEX
  5
BF0
  8
0
 10
0.0
 20
0.0
 30
0.0
 70
   128
 71
    12
 72
     5
 73
     6
  0
VERTEX
  5
BF1
  8
0
 10
0.0
 20
0.0
 30
0.0
 70
   128
 71
    11
 72
    12
 73
     6
  0
VERTEX
  5
BF2
  8
0
 10
0.0
 20
0.0
 30
0.0
 70
   128
 71
    12
 72
     1
 73
     2
  0
VERTEX
  5
BF3
  8
0
 10
0.0
 20
0.0
 30
0.0
 70
   128
 71
     2
 72
     3
 73
    12
  0
VERTEX
  5
BF4
  8
0
 10
0.0
 20
0.0
 30
0.0
 70
   128
 71
     3
 72
     5
 73
    12
  0
VERTEX
  5
BF5
  8
0
 10
0.0
 20
0.0
 30
0.0
 70
   128
 71
     3
 72
     4
 73
     5
  0
SEQEND
  5
CF6
  8
0
  0
POLYLINE
  5
BF6
  8
0
 66
     1
 10
0.0
 20
0.0
 30
0.0
 70
    64
 71
    15
 72
    13
  0
VERTEX
  5
BF7
  8
0
 10
-19.48551115487037
 20
-63.86197367780498
 30
207.9012768150517
 70
   192
  0
VERTEX
  5
BF8
  8
0
 10
-22.5000000000057
 20
-63.86921437809884
 30
219.1512440063828
 70
   192
  0
VERTEX
  5
BF9
  8
0
 10
-22.5000000000057
 20
-67.0846004935681
 30
219.1512439993243
 70
   192
  0
VERTEX
  5
BFA
  8
0
 10
22.50000000003278
 20
-67.08460049704757
 30
219.1512440148374
 70
   192
  0
VERTEX
  5
BFB
  8
0
 10
22.50000000012325
 20
-63.86921438284082
 30
219.1512440533682
 70
   192
  0
VERTEX
  5
BFC
  8
0
 10
19.48551115148918
 20
-63.861973681539
 30
207.9012768092149
 70
   192
  0
VERTEX
  5
BFD
  8
0
 10
-11.00343771925025
 20
-73.51537272448448
 30
199.5253845665353
 70
   192
  0
VERTEX
  5
BFE
  8
0
 10
11.00343771923882
 20
-73.5153727244845
 30
199.5253845665354
 70
   192
  0
VERTEX
  5
BFF
  8
0
 10
-0.0000000000898415
 20
-63.84749227723019
 30
196.6512439963575
 70
   192
  0
VERTEX
  5
C00
  8
0
 10
-11.24996719006657
 20
-63.8547329775146
 30
199.6657328465476
 70
   192
  0
VERTEX
  5
C01
  8
0
 10
11.24996718706395
 20
-63.85473297938159
 30
199.6657328448205
 70
   192
  0
VERTEX
  5
C02
  8
0
 10
22.4999999999943
 20
-73.51537272450683
 30
219.1512439963465
 70
   192
  0
VERTEX
  5
C03
  8
0
 10
22.49999999999928
 20
-70.29998661087278
 30
219.1512439997349
 70
   192
  0
VERTEX
  5
C04
  8
0
 10
-22.5000000000057
 20
-70.29998660903757
 30
219.1512439967214
 70
   192
  0
VERTEX
  5
C05
  8
0
 10
-22.5000000000057
 20
-73.51537272450683
 30
219.1512439963465
 70
   192
  0
VERTEX
  5
C06
  8
0
 10
0.0
 20
0.0
 30
0.0
 70
   128
 71
     1
 72
     2
 73
    -3
  0
VERTEX
  5
C07
  8
0
 10
0.0
 20
0.0
 30
0.0
 70
   128
 71
     4
 72
     5
 73
     6
  0
VERTEX
  5
C08
  8
0
 10
0.0
 20
0.0
 30
0.0
 70
   128
 71
     7
 72
     8
 73
     9
  0
VERTEX
  5
C09
  8
0
 10
0.0
 20
0.0
 30
0.0
 70
   128
 71
     9
 72
    10
 73
     7
  0
VERTEX
  5
C0A
  8
0
 10
0.0
 20
0.0
 30
0.0
 70
   128
 71
     8
 72
    11
 73
     9
  0
VERTEX
  5
C0B
  8
0
 10
0.0
 20
0.0
 30
0.0
 70
   128
 71
     8
 72
    12
 73
   -13
  0
VERTEX
  5
C0C
  8
0
 10
0.0
 20
0.0
 30
0.0
 70
   128
 71
    -1
 72
     3
 73
    14
  0
VERTEX
  5
C0D
  8
0
 10
0.0
 20
0.0
 30
0.0
 70
   128
 71
    10
 72
     1
 73
    14
  0
VERTEX
  5
C0E
  8
0
 10
0.0
 20
0.0
 30
0.0
 70
   128
 71
     7
 72
    10
 73
    14
  0
VERTEX
  5
C0F
  8
0
 10
0.0
 20
0.0
 30
0.0
 70
   128
 71
    14
 72
    15
 73
     7
  0
VERTEX
  5
C10
  8
0
 10
0.0
 20
0.0
 30
0.0
 70
   128
 71
     6
 72
    11
 73
     8
  0
VERTEX
  5
C11
  8
0
 10
0.0
 20
0.0
 30
0.0
 70
   128
 71
     4
 72
     6
 73
     8
  0
VERTEX
  5
C12
  8
0
 10
0.0
 20
0.0
 30
0.0
 70
   128
 71
    13
 72
     4
 73
    -8
  0
SEQEND
  5
CF7
  8
0
  0
POLYLINE
  5
C13
  8
0
 66
     1
 10
0.0
 20
0.0
 30
0.0
 70
    64
 71
     8
 72
     6
  0
VERTEX
  5
C14
  8
0
 10
-0.0000000000057519
 20
-63.24924218004973
 30
241.8499345695253
 70
   192
  0
VERTEX
  5
C15
  8
0
 10
-0.0000000000057522
 20
-47.45183832948122
 30
253.6441283991961
 70
   192
  0
VERTEX
  5
C16
  8
0
 10
17.25507695436945
 20
-47.78814920755288
 30
249.0020681763006
 70
   192
  0
VERTEX
  5
C17
  8
0
 10
29.84238008726478
 20
-48.4408884647243
 30
236.3667043464719
 70
   192
  0
VERTEX
  5
C18
  8
0
 10
34.4391348213791
 20
-48.75692348991084
 30
219.1512439963747
 70
   192
  0
VERTEX
  5
C19
  8
0
 10
22.7225444081517
 20
-63.24027654715686
 30
219.1512439949119
 70
   192
  0
VERTEX
  5
C1A
  8
0
 10
19.6725662877405
 20
-63.24252729387244
 30
230.5085148459029
 70
   192
  0
VERTEX
  5
C1B
  8
0
 10
11.35244873229307
 20
-63.2468530645668
 30
238.8134050434897
 70
   192
  0
VERTEX
  5
C1C
  8
0
 10
0.0
 20
0.0
 30
0.0
 70
   128
 71
     5
 72
     6
 73
     7
  0
VERTEX
  5
C1D
  8
0
 10
0.0
 20
0.0
 30
0.0
 70
   128
 71
     4
 72
     5
 73
     7
  0
VERTEX
  5
C1E
  8
0
 10
0.0
 20
0.0
 30
0.0
 70
   128
 71
     8
 72
     3
 73
     4
  0
VERTEX
  5
C1F
  8
0
 10
0.0
 20
0.0
 30
0.0
 70
   128
 71
     7
 72
     8
 73
     4
  0
VERTEX
  5
C20
  8
0
 10
0.0
 20
0.0
 30
0.0
 70
   128
 71
     1
 72
     2
 73
     3
  0
VERTEX
  5
C21
  8
0
 10
0.0
 20
0.0
 30
0.0
 70
   128
 71
     8
 72
     1
 73
     3
  0
SEQEND
  5
CF8
  8
0
  0
POLYLINE
  5
C22
  8
0
 66
     1
 10
0.0
 20
0.0
 30
0.0
 70
    64
 71
     8
 72
     6
  0
VERTEX
  5
C23
  8
0
 10
22.7225444081517
 20
-63.24027654715686
 30
219.1512439949119
 70
   192
  0
VERTEX
  5
C24
  8
0
 10
34.4391348213791
 20
-48.75692348991084
 30
219.1512439963747
 70
   192
  0
VERTEX
  5
C25
  8
0
 10
29.84240628601488
 20
-48.44089721481306
 30
201.9357936665294
 70
   192
  0
VERTEX
  5
C26
  8
0
 10
17.25509641367473
 20
-47.78814874936291
 30
189.3004072305664
 70
   192
  0
VERTEX
  5
C27
  8
0
 10
-0.0000000000057391
 20
-47.45183759641547
 30
184.6583599283844
 70
   192
  0
VERTEX
  5
C28
  8
0
 10
-0.0000000000057273
 20
-63.24924218871394
 30
196.4525534443123
 70
   192
  0
VERTEX
  5
C29
  8
0
 10
11.3523887475172
 20
-63.24685307747712
 30
199.4890971368625
 70
   192
  0
VERTEX
  5
C2A
  8
0
 10
19.67257828169323
 20
-63.24252694401687
 30
207.7939142579816
 70
   192
  0
VERTEX
  5
C2B
  8
0
 10
0.0
 20
0.0
 30
0.0
 70
   128
 71
     5
 72
     6
 73
     7
  0
VERTEX
  5
C2C
  8
0
 10
0.0
 20
0.0
 30
0.0
 70
   128
 71
     4
 72
     5
 73
     7
  0
VERTEX
  5
C2D
  8
0
 10
0.0
 20
0.0
 30
0.0
 70
   128
 71
     8
 72
     3
 73
     4
  0
VERTEX
  5
C2E
  8
0
 10
0.0
 20
0.0
 30
0.0
 70
   128
 71
     7
 72
     8
 73
     4
  0
VERTEX
  5
C2F
  8
0
 10
0.0
 20
0.0
 30
0.0
 70
   128
 71
     1
 72
     2
 73
     3
  0
VERTEX
  5
C30
  8
0
 10
0.0
 20
0.0
 30
0.0
 70
   128
 71
     8
 72
     1
 73
     3
  0
SEQEND
  5
CF9
  8
0
  0
POLYLINE
  5
C31
  8
0
 66
     1
 10
0.0
 20
0.0
 30
0.0
 70
    64
 71
     8
 72
     6
  0
VERTEX
  5
C32
  8
0
 10
-0.0000000000057273
 20
-63.24924218871394
 30
196.4525534443123
 70
   192
  0
VERTEX
  5
C33
  8
0
 10
-0.0000000000057391
 20
-47.45183759641547
 30
184.6583599283844
 70
   192
  0
VERTEX
  5
C34
  8
0
 10
-17.25507725521296
 20
-47.78814655594655
 30
189.3004202603388
 70
   192
  0
VERTEX
  5
C35
  8
0
 10
-29.84238129045802
 20
-48.44088916056477
 30
201.9357850022319
 70
   192
  0
VERTEX
  5
C36
  8
0
 10
-34.4391348278824
 20
-48.75692317467184
 30
219.1512439963692
 70
   192
  0
VERTEX
  5
C37
  8
0
 10
-22.722544401653
 20
-63.24027654947786
 30
219.1512439963581
 70
   192
  0
VERTEX
  5
C38
  8
0
 10
-19.67256634006748
 20
-63.24252725908823
 30
207.7939731483175
 70
   192
  0
VERTEX
  5
C39
  8
0
 10
-11.3524487159801
 20
-63.24685306138144
 30
199.4890829835547
 70
   192
  0
VERTEX
  5
C3A
  8
0
 10
0.0
 20
0.0
 30
0.0
 70
   128
 71
     5
 72
     6
 73
     7
  0
VERTEX
  5
C3B
  8
0
 10
0.0
 20
0.0
 30
0.0
 70
   128
 71
     4
 72
     5
 73
     7
  0
VERTEX
  5
C3C
  8
0
 10
0.0
 20
0.0
 30
0.0
 70
   128
 71
     8
 72
     3
 73
     4
  0
VERTEX
  5
C3D
  8
0
 10
0.0
 20
0.0
 30
0.0
 70
   128
 71
     7
 72
     8
 73
     4
  0
VERTEX
  5
C3E
  8
0
 10
0.0
 20
0.0
 30
0.0
 70
   128
 71
     1
 72
     2
 73
     3
  0
VERTEX
  5
C3F
  8
0
 10
0.0
 20
0.0
 30
0.0
 70
   128
 71
     8
 72
     1
 73
     3
  0
SEQEND
  5
CFA
  8
0
  0
POLYLINE
  5
C40
  8
0
 66
     1
 10
0.0
 20
0.0
 30
0.0
 70
    64
 71
     8
 72
     6
  0
VERTEX
  5
C41
  8
0
 10
-22.722544401653
 20
-63.24027654947786
 30
219.1512439963581
 70
   192
  0
VERTEX
  5
C42
  8
0
 10
-34.4391348278824
 20
-48.75692317467184
 30
219.1512439963692
 70
   192
  0
VERTEX
  5
C43
  8
0
 10
-29.84240512574085
 20
-48.4408961372564
 30
236.3666957419645
 70
   192
  0
VERTEX
  5
C44
  8
0
 10
-17.25509613898561
 20
-47.78815183354876
 30
249.0020811576692
 70
   192
  0
VERTEX
  5
C45
  8
0
 10
-0.0000000000057522
 20
-47.45183832948122
 30
253.6441283991961
 70
   192
  0
VERTEX
  5
C46
  8
0
 10
-0.0000000000057519
 20
-63.24924218004973
 30
241.8499345695253
 70
   192
  0
VERTEX
  5
C47
  8
0
 10
-11.35238962464019
 20
-63.24685305212823
 30
238.8133904330459
 70
   192
  0
VERTEX
  5
C48
  8
0
 10
-19.67257824997674
 20
-63.24252695485328
 30
230.5085737055313
 70
   192
  0
VERTEX
  5
C49
  8
0
 10
0.0
 20
0.0
 30
0.0
 70
   128
 71
     5
 72
     6
 73
     7
  0
VERTEX
  5
C4A
  8
0
 10
0.0
 20
0.0
 30
0.0
 70
   128
 71
     4
 72
     5
 73
     7
  0
VERTEX
  5
C4B
  8
0
 10
0.0
 20
0.0
 30
0.0
 70
   128
 71
     8
 72
     3
 73
     4
  0
VERTEX
  5
C4C
  8
0
 10
0.0
 20
0.0
 30
0.0
 70
   128
 71
     7
 72
     8
 73
     4
  0
VERTEX
  5
C4D
  8
0
 10
0.0
 20
0.0
 30
0.0
 70
   128
 71
     1
 72
     2
 73
     3
  0
VERTEX
  5
C4E
  8
0
 10
0.0
 20
0.0
 30
0.0
 70
   128
 71
     8
 72
     1
 73
     3
  0
SEQEND
  5
CFB
  8
0
  0
POLYLINE
  5
C4F
  8
0
 66
     1
 10
0.0
 20
0.0
 30
0.0
 70
    64
 71
    12
 72
    10
  0
VERTEX
  5
C50
  8
0
 10
-0.0000000000898617
 20
-63.84749229683953
 30
241.6512439963575
 70
   192
  0
VERTEX
  5
C51
  8
0
 10
-0.0000000000599985
 20
-63.63614740308175
 30
241.6738324475391
 70
   192
  0
VERTEX
  5
C52
  8
0
 10
-0.000000000031312
 20
-63.43210837927621
 30
241.7415978009436
 70
   192
  0
VERTEX
  5
C53
  8
0
 10
-0.0000000000057519
 20
-63.24924218004973
 30
241.8499345695253
 70
   192
  0
VERTEX
  5
C54
  8
0
 10
11.35244873229307
 20
-63.2468530645668
 30
238.8134050434897
 70
   192
  0
VERTEX
  5
C55
  8
0
 10
19.6725662877405
 20
-63.24252729387244
 30
230.5085148459029
 70
   192
  0
VERTEX
  5
C56
  8
0
 10
22.72254440815171
 20
-63.24027654715687
 30
219.1512439949119
 70
   192
  0
VERTEX
  5
C57
  8
0
 10
22.60149223000284
 20
-63.4302567697932
 30
219.1512440025177
 70
   192
  0
VERTEX
  5
C58
  8
0
 10
22.52537305767061
 20
-63.64537890170749
 30
219.1512440225121
 70
   192
  0
VERTEX
  5
C59
  8
0
 10
22.50000000012325
 20
-63.86921438284082
 30
219.1512440533682
 70
   192
  0
VERTEX
  5
C5A
  8
0
 10
19.48551115148917
 20
-63.86197368808404
 30
230.4012111835
 70
   192
  0
VERTEX
  5
C5B
  8
0
 10
11.24996718706393
 20
-63.85473299246476
 30
238.6367551478945
 70
   192
  0
VERTEX
  5
C5C
  8
0
 10
0.0
 20
0.0
 30
0.0
 70
   128
 71
     6
 72
     7
 73
     8
  0
VERTEX
  5
C5D
  8
0
 10
0.0
 20
0.0
 30
0.0
 70
   128
 71
     9
 72
    11
 73
     6
  0
VERTEX
  5
C5E
  8
0
 10
0.0
 20
0.0
 30
0.0
 70
   128
 71
     8
 72
     9
 73
     6
  0
VERTEX
  5
C5F
  8
0
 10
0.0
 20
0.0
 30
0.0
 70
   128
 71
     9
 72
    10
 73
    11
  0
VERTEX
  5
C60
  8
0
 10
0.0
 20
0.0
 30
0.0
 70
   128
 71
    12
 72
     5
 73
     6
  0
VERTEX
  5
C61
  8
0
 10
0.0
 20
0.0
 30
0.0
 70
   128
 71
    11
 72
    12
 73
     6
  0
VERTEX
  5
C62
  8
0
 10
0.0
 20
0.0
 30
0.0
 70
   128
 71
    12
 72
     1
 73
     2
  0
VERTEX
  5
C63
  8
0
 10
0.0
 20
0.0
 30
0.0
 70
   128
 71
     3
 72
     5
 73
    12
  0
VERTEX
  5
C64
  8
0
 10
0.0
 20
0.0
 30
0.0
 70
   128
 71
     2
 72
     3
 73
    12
  0
VERTEX
  5
C65
  8
0
 10
0.0
 20
0.0
 30
0.0
 70
   128
 71
     3
 72
     4
 73
     5
  0
SEQEND
  5
CFC
  8
0
  0
POLYLINE
  5
C66
  8
0
 66
     1
 10
0.0
 20
0.0
 30
0.0
 70
    64
 71
    12
 72
    10
  0
VERTEX
  5
C67
  8
0
 10
-22.5000000000057
 20
-63.86921437809884
 30
219.1512440063828
 70
   192
  0
VERTEX
  5
C68
  8
0
 10
-22.52537305678906
 20
-63.64537889977734
 30
219.1512440027909
 70
   192
  0
VERTEX
  5
C69
  8
0
 10
-22.60149222688711
 20
-63.43025677042463
 30
219.1512439993621
 70
   192
  0
VERTEX
  5
C6A
  8
0
 10
-22.722544401653
 20
-63.24027654947786
 30
219.1512439963581
 70
   192
  0
VERTEX
  5
C6B
  8
0
 10
-19.67257824997674
 20
-63.24252695485328
 30
230.5085737055313
 70
   192
  0
VERTEX
  5
C6C
  8
0
 10
-11.35238962464019
 20
-63.24685305212823
 30
238.8133904330459
 70
   192
  0
VERTEX
  5
C6D
  8
0
 10
-0.0000000000057519
 20
-63.24924218004973
 30
241.8499345695253
 70
   192
  0
VERTEX
  5
C6E
  8
0
 10
-0.000000000031312
 20
-63.43210837927621
 30
241.7415978009436
 70
   192
  0
VERTEX
  5
C6F
  8
0
 10
-0.0000000000599985
 20
-63.63614740308175
 30
241.6738324475391
 70
   192
  0
VERTEX
  5
C70
  8
0
 10
-0.0000000000898617
 20
-63.84749229683953
 30
241.6512439963575
 70
   192
  0
VERTEX
  5
C71
  8
0
 10
-11.24996718427854
 20
-63.85473299059774
 30
238.6367551495093
 70
   192
  0
VERTEX
  5
C72
  8
0
 10
-19.48551114818701
 20
-63.86197368435001
 30
230.4012111892396
 70
   192
  0
VERTEX
  5
C73
  8
0
 10
0.0
 20
0.0
 30
0.0
 70
   128
 71
     6
 72
     7
 73
     8
  0
VERTEX
  5
C74
  8
0
 10
0.0
 20
0.0
 30
0.0
 70
   128
 71
     9
 72
    11
 73
     6
  0
VERTEX
  5
C75
  8
0
 10
0.0
 20
0.0
 30
0.0
 70
   128
 71
     8
 72
     9
 73
     6
  0
VERTEX
  5
C76
  8
0
 10
0.0
 20
0.0
 30
0.0
 70
   128
 71
     9
 72
    10
 73
    11
  0
VERTEX
  5
C77
  8
0
 10
0.0
 20
0.0
 30
0.0
 70
   128
 71
    12
 72
     5
 73
     6
  0
VERTEX
  5
C78
  8
0
 10
0.0
 20
0.0
 30
0.0
 70
   128
 71
    11
 72
    12
 73
     6
  0
VERTEX
  5
C79
  8
0
 10
0.0
 20
0.0
 30
0.0
 70
   128
 71
    12
 72
     1
 73
     2
  0
VERTEX
  5
C7A
  8
0
 10
0.0
 20
0.0
 30
0.0
 70
   128
 71
     3
 72
     5
 73
    12
  0
VERTEX
  5
C7B
  8
0
 10
0.0
 20
0.0
 30
0.0
 70
   128
 71
     2
 72
     3
 73
    12
  0
VERTEX
  5
C7C
  8
0
 10
0.0
 20
0.0
 30
0.0
 70
   128
 71
     3
 72
     4
 73
     5
  0
SEQEND
  5
CFD
  8
0
  0
POLYLINE
  5
C7D
  8
0
 66
     1
 10
0.0
 20
0.0
 30
0.0
 70
    64
 71
    12
 72
    10
  0
VERTEX
  5
C7E
  8
0
 10
-0.0000000000898415
 20
-63.84749227723019
 30
196.6512439963575
 70
   192
  0
VERTEX
  5
C7F
  8
0
 10
-0.0000000000599662
 20
-63.63614739483629
 30
196.6286555476508
 70
   192
  0
VERTEX
  5
C80
  8
0
 10
-0.0000000000312782
 20
-63.43210838118512
 30
196.5608902016203
 70
   192
  0
VERTEX
  5
C81
  8
0
 10
-0.0000000000057273
 20
-63.24924218871394
 30
196.4525534443123
 70
   192
  0
VERTEX
  5
C82
  8
0
 10
-11.3524487159801
 20
-63.24685306138144
 30
199.4890829835547
 70
   192
  0
VERTEX
  5
C83
  8
0
 10
-19.67256634006748
 20
-63.24252725908823
 30
207.7939731483175
 70
   192
  0
VERTEX
  5
C84
  8
0
 10
-22.722544401653
 20
-63.24027654947786
 30
219.1512439963581
 70
   192
  0
VERTEX
  5
C85
  8
0
 10
-22.60149222688711
 20
-63.43025677042463
 30
219.1512439993621
 70
   192
  0
VERTEX
  5
C86
  8
0
 10
-22.52537305678906
 20
-63.64537889977734
 30
219.1512440027909
 70
   192
  0
VERTEX
  5
C87
  8
0
 10
-22.5000000000057
 20
-63.86921437809884
 30
219.1512440063828
 70
   192
  0
VERTEX
  5
C88
  8
0
 10
-19.48551115487037
 20
-63.86197367780498
 30
207.9012768150517
 70
   192
  0
VERTEX
  5
C89
  8
0
 10
-11.24996719006657
 20
-63.8547329775146
 30
199.6657328465476
 70
   192
  0
VERTEX
  5
C8A
  8
0
 10
0.0
 20
0.0
 30
0.0
 70
   128
 71
     6
 72
     7
 73
     8
  0
VERTEX
  5
C8B
  8
0
 10
0.0
 20
0.0
 30
0.0
 70
   128
 71
     9
 72
    11
 73
     6
  0
VERTEX
  5
C8C
  8
0
 10
0.0
 20
0.0
 30
0.0
 70
   128
 71
     8
 72
     9
 73
     6
  0
VERTEX
  5
C8D
  8
0
 10
0.0
 20
0.0
 30
0.0
 70
   128
 71
     9
 72
    10
 73
    11
  0
VERTEX
  5
C8E
  8
0
 10
0.0
 20
0.0
 30
0.0
 70
   128
 71
    12
 72
     5
 73
     6
  0
VERTEX
  5
C8F
  8
0
 10
0.0
 20
0.0
 30
0.0
 70
   128
 71
    11
 72
    12
 73
     6
  0
VERTEX
  5
C90
  8
0
 10
0.0
 20
0.0
 30
0.0
 70
   128
 71
    12
 72
     1
 73
     2
  0
VERTEX
  5
C91
  8
0
 10
0.0
 20
0.0
 30
0.0
 70
   128
 71
     3
 72
     5
 73
    12
  0
VERTEX
  5
C92
  8
0
 10
0.0
 20
0.0
 30
0.0
 70
   128
 71
     2
 72
     3
 73
    12
  0
VERTEX
  5
C93
  8
0
 10
0.0
 20
0.0
 30
0.0
 70
   128
 71
     3
 72
     4
 73
     5
  0
SEQEND
  5
CFE
  8
0
  0
POLYLINE
  5
C94
  8
0
 66
     1
 10
0.0
 20
0.0
 30
0.0
 70
    64
 71
    12
 72
    10
  0
VERTEX
  5
C95
  8
0
 10
22.50000000012325
 20
-63.86921438284082
 30
219.1512440533682
 70
   192
  0
VERTEX
  5
C96
  8
0
 10
22.52537305767061
 20
-63.64537890170749
 30
219.1512440225121
 70
   192
  0
VERTEX
  5
C97
  8
0
 10
22.60149223000284
 20
-63.4302567697932
 30
219.1512440025177
 70
   192
  0
VERTEX
  5
C98
  8
0
 10
22.7225444081517
 20
-63.24027654715686
 30
219.1512439949119
 70
   192
  0
VERTEX
  5
C99
  8
0
 10
19.67257828169323
 20
-63.24252694401687
 30
207.7939142579816
 70
   192
  0
VERTEX
  5
C9A
  8
0
 10
11.3523887475172
 20
-63.24685307747712
 30
199.4890971368625
 70
   192
  0
VERTEX
  5
C9B
  8
0
 10
-0.0000000000057273
 20
-63.24924218871394
 30
196.4525534443123
 70
   192
  0
VERTEX
  5
C9C
  8
0
 10
-0.0000000000312782
 20
-63.43210838118512
 30
196.5608902016203
 70
   192
  0
VERTEX
  5
C9D
  8
0
 10
-0.0000000000599662
 20
-63.63614739483629
 30
196.6286555476508
 70
   192
  0
VERTEX
  5
C9E
  8
0
 10
-0.0000000000898415
 20
-63.84749227723019
 30
196.6512439963575
 70
   192
  0
VERTEX
  5
C9F
  8
0
 10
11.24996718706395
 20
-63.85473297938159
 30
199.6657328448205
 70
   192
  0
VERTEX
  5
CA0
  8
0
 10
19.48551115148918
 20
-63.861973681539
 30
207.9012768092149
 70
   192
  0
VERTEX
  5
CA1
  8
0
 10
0.0
 20
0.0
 30
0.0
 70
   128
 71
     6
 72
     7
 73
     8
  0
VERTEX
  5
CA2
  8
0
 10
0.0
 20
0.0
 30
0.0
 70
   128
 71
     9
 72
    11
 73
     6
  0
VERTEX
  5
CA3
  8
0
 10
0.0
 20
0.0
 30
0.0
 70
   128
 71
     8
 72
     9
 73
     6
  0
VERTEX
  5
CA4
  8
0
 10
0.0
 20
0.0
 30
0.0
 70
   128
 71
     9
 72
    10
 73
    11
  0
VERTEX
  5
CA5
  8
0
 10
0.0
 20
0.0
 30
0.0
 70
   128
 71
    12
 72
     5
 73
     6
  0
VERTEX
  5
CA6
  8
0
 10
0.0
 20
0.0
 30
0.0
 70
   128
 71
    11
 72
    12
 73
     6
  0
VERTEX
  5
CA7
  8
0
 10
0.0
 20
0.0
 30
0.0
 70
   128
 71
    12
 72
     1
 73
     2
  0
VERTEX
  5
CA8
  8
0
 10
0.0
 20
0.0
 30
0.0
 70
   128
 71
     3
 72
     5
 73
    12
  0
VERTEX
  5
CA9
  8
0
 10
0.0
 20
0.0
 30
0.0
 70
   128
 71
     2
 72
     3
 73
    12
  0
VERTEX
  5
CAA
  8
0
 10
0.0
 20
0.0
 30
0.0
 70
   128
 71
     3
 72
     4
 73
     5
  0
SEQEND
  5
CFF
  8
0
  0
POLYLINE
  5
CAB
  8
0
 66
     1
 10
0.0
 20
0.0
 30
0.0
 70
    64
 71
    15
 72
    13
  0
VERTEX
  5
CAC
  8
0
 10
19.48551115148917
 20
-63.86197368808404
 30
230.4012111835
 70
   192
  0
VERTEX
  5
CAD
  8
0
 10
22.50000000012325
 20
-63.86921438284082
 30
219.1512440533682
 70
   192
  0
VERTEX
  5
CAE
  8
0
 10
22.50000000003278
 20
-67.08460049704757
 30
219.1512440148374
 70
   192
  0
VERTEX
  5
CAF
  8
0
 10
22.49999999999928
 20
-70.29998661087278
 30
219.1512439997349
 70
   192
  0
VERTEX
  5
CB0
  8
0
 10
22.4999999999943
 20
-73.51537272450683
 30
219.1512439963465
 70
   192
  0
VERTEX
  5
CB1
  8
0
 10
-11.24996718427854
 20
-63.85473299059774
 30
238.6367551495093
 70
   192
  0
VERTEX
  5
CB2
  8
0
 10
-0.0000000000898617
 20
-63.84749229683953
 30
241.6512439963575
 70
   192
  0
VERTEX
  5
CB3
  8
0
 10
-11.00343771925025
 20
-73.51537272452929
 30
238.7771034261576
 70
   192
  0
VERTEX
  5
CB4
  8
0
 10
-22.5000000000057
 20
-67.0846004935681
 30
219.1512439993243
 70
   192
  0
VERTEX
  5
CB5
  8
0
 10
-22.5000000000057
 20
-63.86921437809884
 30
219.1512440063828
 70
   192
  0
VERTEX
  5
CB6
  8
0
 10
-19.48551114818701
 20
-63.86197368435001
 30
230.4012111892396
 70
   192
  0
VERTEX
  5
CB7
  8
0
 10
11.24996718706393
 20
-63.85473299246476
 30
238.6367551478945
 70
   192
  0
VERTEX
  5
CB8
  8
0
 10
11.00343771923881
 20
-73.51537272452927
 30
238.7771034261576
 70
   192
  0
VERTEX
  5
CB9
  8
0
 10
-22.5000000000057
 20
-73.51537272450683
 30
219.1512439963465
 70
   192
  0
VERTEX
  5
CBA
  8
0
 10
-22.5000000000057
 20
-70.29998660903757
 30
219.1512439967214
 70
   192
  0
VERTEX
  5
CBB
  8
0
 10
0.0
 20
0.0
 30
0.0
 70
   128
 71
     1
 72
     2
 73
    -3
  0
VERTEX
  5
CBC
  8
0
 10
0.0
 20
0.0
 30
0.0
 70
   128
 71
     3
 72
    -4
 73
    -1
  0
VERTEX
  5
CBD
  8
0
 10
0.0
 20
0.0
 30
0.0
 70
   128
 71
     4
 72
     5
 73
    -1
  0
VERTEX
  5
CBE
  8
0
 10
0.0
 20
0.0
 30
0.0
 70
   128
 71
     6
 72
     7
 73
     8
  0
VERTEX
  5
CBF
  8
0
 10
0.0
 20
0.0
 30
0.0
 70
   128
 71
     9
 72
    10
 73
    11
  0
VERTEX
  5
CC0
  8
0
 10
0.0
 20
0.0
 30
0.0
 70
   128
 71
     7
 72
    12
 73
    13
  0
VERTEX
  5
CC1
  8
0
 10
0.0
 20
0.0
 30
0.0
 70
   128
 71
     8
 72
     7
 73
    13
  0
VERTEX
  5
CC2
  8
0
 10
0.0
 20
0.0
 30
0.0
 70
   128
 71
     8
 72
    14
 73
   -15
  0
VERTEX
  5
CC3
  8
0
 10
0.0
 20
0.0
 30
0.0
 70
   128
 71
    15
 72
     9
 73
    -8
  0
VERTEX
  5
CC4
  8
0
 10
0.0
 20
0.0
 30
0.0
 70
   128
 71
    12
 72
     1
 73
     5
  0
VERTEX
  5
CC5
  8
0
 10
0.0
 20
0.0
 30
0.0
 70
   128
 71
    13
 72
    12
 73
     5
  0
VERTEX
  5
CC6
  8
0
 10
0.0
 20
0.0
 30
0.0
 70
   128
 71
    11
 72
     6
 73
     8
  0
VERTEX
  5
CC7
  8
0
 10
0.0
 20
0.0
 30
0.0
 70
   128
 71
     9
 72
    11
 73
     8
  0
SEQEND
  5
D00
  8
0
  0
ENDBLK
  5
CC9
  8
0
  0
ENDSEC
  0
SECTION
  2
ENTITIES
  0
INSERT
  5
BD
  8
0
  2
*X1
 10
0.0
 20
0.0
 30
0.0
  0
ENDSEC
  0
EOF
