  0
SECTION
  2
HEADER
  9
$ACADVER
  1
AC1009
  9
$DWGCODEPAGE
  3
ansi_1250
  9
$INSBASE
 10
0.0
 20
0.0
 30
0.0
  9
$EXTMIN
 10
-400.0
 20
-400.0000000000007
 30
-35.00000000000009
  9
$EXTMAX
 10
400.0
 20
400.0000000000007
 30
0.0000000000000853
  9
$LIMMIN
 10
0.0
 20
0.0
  9
$LIMMAX
 10
420.0
 20
297.0
  9
$ORTHOMODE
 70
     0
  9
$REGENMODE
 70
     1
  9
$FILLMODE
 70
     1
  9
$QTEXTMODE
 70
     0
  9
$MIRRTEXT
 70
     0
  9
$DRAGMODE
 70
     2
  9
$LTSCALE
 40
1.0
  9
$OSMODE
 70
   511
  9
$ATTMODE
 70
     1
  9
$TEXTSIZE
 40
2.5
  9
$TRACEWID
 40
1.0
  9
$TEXTSTYLE
  7
STANDARD
  9
$CLAYER
  8
0
  9
$CELTYPE
  6
BYLAYER
  9
$CECOLOR
 62
   256
  9
$DIMSCALE
 40
1.0
  9
$DIMASZ
 40
2.5
  9
$DIMEXO
 40
0.625
  9
$DIMDLI
 40
3.75
  9
$DIMRND
 40
0.0
  9
$DIMDLE
 40
0.0
  9
$DIMEXE
 40
1.25
  9
$DIMTP
 40
0.0
  9
$DIMTM
 40
0.0
  9
$DIMTXT
 40
2.5
  9
$DIMCEN
 40
-2.5
  9
$DIMTSZ
 40
0.0
  9
$DIMTOL
 70
     0
  9
$DIMLIM
 70
     0
  9
$DIMTIH
 70
     0
  9
$DIMTOH
 70
     0
  9
$DIMSE1
 70
     0
  9
$DIMSE2
 70
     0
  9
$DIMTAD
 70
     1
  9
$DIMZIN
 70
     8
  9
$DIMBLK
  1

  9
$DIMASO
 70
     1
  9
$DIMSHO
 70
     1
  9
$DIMPOST
  1

  9
$DIMAPOST
  1

  9
$DIMALT
 70
     0
  9
$DIMALTD
 70
     3
  9
$DIMALTF
 40
0.03937007874016
  9
$DIMLFAC
 40
1.0
  9
$DIMTOFL
 70
     1
  9
$DIMTVP
 40
0.0
  9
$DIMTIX
 70
     0
  9
$DIMSOXD
 70
     0
  9
$DIMSAH
 70
     0
  9
$DIMBLK1
  1

  9
$DIMBLK2
  1

  9
$DIMSTYLE
  2
ISO-25
  9
$DIMCLRD
 70
     0
  9
$DIMCLRE
 70
     0
  9
$DIMCLRT
 70
     0
  9
$DIMTFAC
 40
1.0
  9
$DIMGAP
 40
0.625
  9
$LUNITS
 70
     2
  9
$LUPREC
 70
     3
  9
$SKETCHINC
 40
1.0
  9
$FILLETRAD
 40
10.0
  9
$AUNITS
 70
     0
  9
$AUPREC
 70
     0
  9
$MENU
  1
.
  9
$ELEVATION
 40
0.0
  9
$PELEVATION
 40
0.0
  9
$THICKNESS
 40
0.0
  9
$LIMCHECK
 70
     0
  9
$CHAMFERA
 40
10.0
  9
$CHAMFERB
 40
10.0
  9
$SKPOLY
 70
     0
  9
$TDCREATE
 40
2455022.720692848
  9
$TDUPDATE
 40
2460521.495037454
  9
$TDINDWG
 40
0.165756088
  9
$TDUSRTIMER
 40
0.165756088
  9
$USRTIMER
 70
     1
  9
$ANGBASE
 50
0.0
  9
$ANGDIR
 70
     0
  9
$PDMODE
 70
     0
  9
$PDSIZE
 40
0.0
  9
$PLINEWID
 40
0.0
  9
$COORDS
 70
     1
  9
$SPLFRAME
 70
     0
  9
$SPLINETYPE
 70
     6
  9
$SPLINESEGS
 70
     8
  9
$ATTDIA
 70
     0
  9
$ATTREQ
 70
     1
  9
$HANDLING
 70
     1
  9
$HANDSEED
  5
7818
  9
$SURFTAB1
 70
     6
  9
$SURFTAB2
 70
     6
  9
$SURFTYPE
 70
     6
  9
$SURFU
 70
     6
  9
$SURFV
 70
     6
  9
$UCSNAME
  2

  9
$UCSORG
 10
0.0
 20
0.0
 30
0.0
  9
$UCSXDIR
 10
1.0
 20
0.0
 30
0.0
  9
$UCSYDIR
 10
0.0
 20
1.0
 30
0.0
  9
$PUCSNAME
  2

  9
$PUCSORG
 10
0.0
 20
0.0
 30
0.0
  9
$PUCSXDIR
 10
1.0
 20
0.0
 30
0.0
  9
$PUCSYDIR
 10
0.0
 20
1.0
 30
0.0
  9
$USERI1
 70
     0
  9
$USERI2
 70
     0
  9
$USERI3
 70
     0
  9
$USERI4
 70
     0
  9
$USERI5
 70
     0
  9
$USERR1
 40
0.0
  9
$USERR2
 40
0.0
  9
$USERR3
 40
0.0
  9
$USERR4
 40
0.0
  9
$USERR5
 40
0.0
  9
$WORLDVIEW
 70
     1
  9
$SHADEDGE
 70
     3
  9
$SHADEDIF
 70
    70
  9
$TILEMODE
 70
     1
  9
$MAXACTVP
 70
    64
  9
$PLIMCHECK
 70
     0
  9
$PEXTMIN
 10
1.000000000000000E+20
 20
1.000000000000000E+20
 30
1.000000000000000E+20
  9
$PEXTMAX
 10
-1.000000000000000E+20
 20
-1.000000000000000E+20
 30
-1.000000000000000E+20
  9
$PLIMMIN
 10
0.0
 20
0.0
  9
$PLIMMAX
 10
0.0
 20
0.0
  9
$UNITMODE
 70
     0
  9
$VISRETAIN
 70
     1
  9
$PLINEGEN
 70
     0
  9
$PSLTSCALE
 70
     1
  0
ENDSEC
  0
SECTION
  2
TABLES
  0
TABLE
  2
VPORT
 70
     1
  0
VPORT
  2
*ACTIVE
 70
     0
 10
0.0
 20
0.0
 11
1.0
 21
1.0
 12
-116.6110757937285
 22
90.81470093901663
 13
0.0
 23
0.0
 14
10.0
 24
10.0
 15
10.0
 25
10.0
 16
0.5773502691896262
 26
0.5773502691896262
 36
0.5773502691896262
 17
-41.66599977993164
 27
123.2469651304761
 37
-82.93435654674934
 40
770.3645241053097
 41
1.88293897882939
 42
50.0
 43
0.0
 44
0.0
 50
0.0
 51
0.0
 71
    16
 72
  1000
 73
     1
 74
     3
 75
     0
 76
     0
 77
     0
 78
     0
  0
ENDTAB
  0
TABLE
  2
LTYPE
 70
     1
  0
LTYPE
  2
CONTINUOUS
 70
     0
  3
Solid line
 72
    65
 73
     0
 40
0.0
  0
ENDTAB
  0
TABLE
  2
LAYER
 70
     1
  0
LAYER
  2
0
 70
     0
 62
     7
  6
CONTINUOUS
  0
ENDTAB
  0
TABLE
  2
STYLE
 70
     2
  0
STYLE
  2
STANDARD
 70
     0
 40
0.0
 41
1.0
 50
0.0
 71
     0
 42
2.5
  3
arial.ttf
  4

  0
STYLE
  2
ANNOTATIVE
 70
     0
 40
0.0
 41
1.0
 50
0.0
 71
     0
 42
2.5
  3
arial.ttf
  4

  0
ENDTAB
  0
TABLE
  2
VIEW
 70
     0
  0
ENDTAB
  0
TABLE
  2
UCS
 70
     0
  0
ENDTAB
  0
TABLE
  2
APPID
 70
     2
  0
APPID
  2
ACAD
 70
     0
  0
APPID
  2
ACADANNOTATIVE
 70
     0
  0
ENDTAB
  0
TABLE
  2
DIMSTYLE
 70
     2
  0
DIMSTYLE
  2
ISO-25
 70
     0
  3

  4

  5

  6

  7

 40
1.0
 41
2.5
 42
0.625
 43
3.75
 44
1.25
 45
0.0
 46
0.0
 47
0.0
 48
0.0
140
2.5
141
-2.5
142
0.0
143
0.03937007874016
144
1.0
145
0.0
146
1.0
147
0.625
 71
     0
 72
     0
 73
     0
 74
     0
 75
     0
 76
     0
 77
     1
 78
     8
170
     0
171
     3
172
     1
173
     0
174
     0
175
     0
176
     0
177
     0
178
     0
  0
DIMSTYLE
  2
ANNOTATIVE
 70
     0
  3

  4

  5

  6

  7

 40
0.0
 41
2.5
 42
0.625
 43
3.75
 44
1.25
 45
0.0
 46
0.0
 47
0.0
 48
0.0
140
2.5
141
-2.5
142
0.0
143
0.03937007874016
144
1.0
145
0.0
146
1.0
147
0.625
 71
     0
 72
     0
 73
     0
 74
     0
 75
     0
 76
     0
 77
     1
 78
     8
170
     0
171
     3
172
     1
173
     0
174
     0
175
     0
176
     0
177
     0
178
     0
  0
ENDTAB
  0
ENDSEC
  0
SECTION
  2
BLOCKS
  0
BLOCK
  8
0
  2
$MODEL_SPACE
 70
     0
 10
0.0
 20
0.0
 30
0.0
  3
$MODEL_SPACE
  1

  0
ENDBLK
  5
21
  8
0
  0
BLOCK
 67
     1
  8
0
  2
$PAPER_SPACE
 70
     0
 10
0.0
 20
0.0
 30
0.0
  3
$PAPER_SPACE
  1

  0
ENDBLK
  5
1D
 67
     1
  8
0
  0
BLOCK
  8
0
  2
*X1
 70
     1
 10
0.0
 20
0.0
 30
0.0
  3
*X1
  1

  0
POLYLINE
  5
73C3
  8
0
 66
     1
 10
0.0
 20
0.0
 30
0.0
 70
    64
 71
    14
 72
    12
  0
VERTEX
  5
73C4
  8
0
 10
-195.0000000000001
 20
-337.749907475931
 30
-35.0
 70
   192
  0
VERTEX
  5
73C5
  8
0
 10
-337.7499074759311
 20
-194.9999999999999
 30
-35.0
 70
   192
  0
VERTEX
  5
73C6
  8
0
 10
-337.7499074759311
 20
-194.9999999999999
 30
-10.5
 70
   192
  0
VERTEX
  5
73C7
  8
0
 10
-195.0000000000001
 20
-337.749907475931
 30
-10.5
 70
   192
  0
VERTEX
  5
73C8
  8
0
 10
337.749907475931
 20
-195.0000000000002
 30
-35.0
 70
   192
  0
VERTEX
  5
73C9
  8
0
 10
194.9999999999999
 20
-337.7499074759312
 30
-35.0
 70
   192
  0
VERTEX
  5
73CA
  8
0
 10
194.9999999999999
 20
-337.7499074759312
 30
-10.5
 70
   192
  0
VERTEX
  5
73CB
  8
0
 10
337.749907475931
 20
-195.0000000000002
 30
-10.5
 70
   192
  0
VERTEX
  5
73CC
  8
0
 10
390.0
 20
-0.0000000000002814
 30
-35.0
 70
   192
  0
VERTEX
  5
73CD
  8
0
 10
390.0
 20
-0.0000000000002814
 30
-10.5
 70
   192
  0
VERTEX
  5
73CE
  8
0
 10
-0.0000000000001515
 20
-390.0
 30
-35.0
 70
   192
  0
VERTEX
  5
73CF
  8
0
 10
-0.0000000000001515
 20
-390.0
 30
-10.5
 70
   192
  0
VERTEX
  5
73D0
  8
0
 10
-390.0
 20
0.0000000000000478
 30
-35.0
 70
   192
  0
VERTEX
  5
73D1
  8
0
 10
-390.0
 20
0.0000000000000478
 30
-10.5
 70
   192
  0
VERTEX
  5
73D2
  8
0
 10
0.0
 20
0.0
 30
0.0
 70
   128
 71
     1
 72
     2
 73
    -3
  0
VERTEX
  5
73D3
  8
0
 10
0.0
 20
0.0
 30
0.0
 70
   128
 71
     4
 72
    -1
 73
     3
  0
VERTEX
  5
73D4
  8
0
 10
0.0
 20
0.0
 30
0.0
 70
   128
 71
     5
 72
     6
 73
    -7
  0
VERTEX
  5
73D5
  8
0
 10
0.0
 20
0.0
 30
0.0
 70
   128
 71
     8
 72
    -5
 73
     7
  0
VERTEX
  5
73D6
  8
0
 10
0.0
 20
0.0
 30
0.0
 70
   128
 71
     9
 72
     5
 73
    -8
  0
VERTEX
  5
73D7
  8
0
 10
0.0
 20
0.0
 30
0.0
 70
   128
 71
    10
 72
    -9
 73
     8
  0
VERTEX
  5
73D8
  8
0
 10
0.0
 20
0.0
 30
0.0
 70
   128
 71
     6
 72
    11
 73
   -12
  0
VERTEX
  5
73D9
  8
0
 10
0.0
 20
0.0
 30
0.0
 70
   128
 71
     7
 72
    -6
 73
    12
  0
VERTEX
  5
73DA
  8
0
 10
0.0
 20
0.0
 30
0.0
 70
   128
 71
    11
 72
     1
 73
    -4
  0
VERTEX
  5
73DB
  8
0
 10
0.0
 20
0.0
 30
0.0
 70
   128
 71
    12
 72
   -11
 73
     4
  0
VERTEX
  5
73DC
  8
0
 10
0.0
 20
0.0
 30
0.0
 70
   128
 71
     2
 72
    13
 73
   -14
  0
VERTEX
  5
73DD
  8
0
 10
0.0
 20
0.0
 30
0.0
 70
   128
 71
     3
 72
    -2
 73
    14
  0
SEQEND
  5
77D5
  8
0
  0
POLYLINE
  5
73DE
  8
0
 66
     1
 10
0.0
 20
0.0
 30
0.0
 70
    64
 71
    14
 72
    12
  0
VERTEX
  5
73DF
  8
0
 10
-365.0
 20
0.0000000000000447
 30
-0.5
 70
   192
  0
VERTEX
  5
73E0
  8
0
 10
-365.0
 20
0.0000000000000447
 30
0.0
 70
   192
  0
VERTEX
  5
73E1
  8
0
 10
-316.0992723813202
 20
-182.4999999999999
 30
0.0
 70
   192
  0
VERTEX
  5
73E2
  8
0
 10
-316.0992723813202
 20
-182.4999999999999
 30
-0.5
 70
   192
  0
VERTEX
  5
73E3
  8
0
 10
-0.0000000000001418
 20
-365.0
 30
0.0
 70
   192
  0
VERTEX
  5
73E4
  8
0
 10
-0.0000000000001418
 20
-365.0
 30
-0.5
 70
   192
  0
VERTEX
  5
73E5
  8
0
 10
-182.5000000000001
 20
-316.0992723813201
 30
-0.5
 70
   192
  0
VERTEX
  5
73E6
  8
0
 10
-182.5000000000001
 20
-316.0992723813201
 30
0.0
 70
   192
  0
VERTEX
  5
73E7
  8
0
 10
182.4999999999999
 20
-316.0992723813202
 30
0.0
 70
   192
  0
VERTEX
  5
73E8
  8
0
 10
182.4999999999999
 20
-316.0992723813202
 30
-0.5
 70
   192
  0
VERTEX
  5
73E9
  8
0
 10
365.0
 20
-0.0000000000002634
 30
0.0
 70
   192
  0
VERTEX
  5
73EA
  8
0
 10
365.0
 20
-0.0000000000002634
 30
-0.5
 70
   192
  0
VERTEX
  5
73EB
  8
0
 10
316.09927238132
 20
-182.5000000000002
 30
-0.5
 70
   192
  0
VERTEX
  5
73EC
  8
0
 10
316.09927238132
 20
-182.5000000000002
 30
0.0
 70
   192
  0
VERTEX
  5
73ED
  8
0
 10
0.0
 20
0.0
 30
0.0
 70
   128
 71
     1
 72
     2
 73
    -3
  0
VERTEX
  5
73EE
  8
0
 10
0.0
 20
0.0
 30
0.0
 70
   128
 71
     4
 72
    -1
 73
     3
  0
VERTEX
  5
73EF
  8
0
 10
0.0
 20
0.0
 30
0.0
 70
   128
 71
     5
 72
     6
 73
    -7
  0
VERTEX
  5
73F0
  8
0
 10
0.0
 20
0.0
 30
0.0
 70
   128
 71
     8
 72
    -5
 73
     7
  0
VERTEX
  5
73F1
  8
0
 10
0.0
 20
0.0
 30
0.0
 70
   128
 71
     6
 72
     5
 73
    -9
  0
VERTEX
  5
73F2
  8
0
 10
0.0
 20
0.0
 30
0.0
 70
   128
 71
    10
 72
    -6
 73
     9
  0
VERTEX
  5
73F3
  8
0
 10
0.0
 20
0.0
 30
0.0
 70
   128
 71
    11
 72
    12
 73
   -13
  0
VERTEX
  5
73F4
  8
0
 10
0.0
 20
0.0
 30
0.0
 70
   128
 71
    14
 72
   -11
 73
    13
  0
VERTEX
  5
73F5
  8
0
 10
0.0
 20
0.0
 30
0.0
 70
   128
 71
     7
 72
     4
 73
    -3
  0
VERTEX
  5
73F6
  8
0
 10
0.0
 20
0.0
 30
0.0
 70
   128
 71
     8
 72
    -7
 73
     3
  0
VERTEX
  5
73F7
  8
0
 10
0.0
 20
0.0
 30
0.0
 70
   128
 71
    13
 72
    10
 73
    -9
  0
VERTEX
  5
73F8
  8
0
 10
0.0
 20
0.0
 30
0.0
 70
   128
 71
    14
 72
   -13
 73
     9
  0
SEQEND
  5
77D6
  8
0
  0
POLYLINE
  5
73F9
  8
0
 66
     1
 10
0.0
 20
0.0
 30
0.0
 70
    64
 71
    14
 72
    12
  0
VERTEX
  5
73FA
  8
0
 10
-195.0000000000001
 20
-337.749907475931
 30
-0.5
 70
   192
  0
VERTEX
  5
73FB
  8
0
 10
-337.7499074759311
 20
-194.9999999999999
 30
-0.5
 70
   192
  0
VERTEX
  5
73FC
  8
0
 10
-337.7499074759311
 20
-194.9999999999999
 30
0.0
 70
   192
  0
VERTEX
  5
73FD
  8
0
 10
-195.0000000000001
 20
-337.749907475931
 30
0.0
 70
   192
  0
VERTEX
  5
73FE
  8
0
 10
337.749907475931
 20
-195.0000000000002
 30
-0.5
 70
   192
  0
VERTEX
  5
73FF
  8
0
 10
194.9999999999999
 20
-337.7499074759312
 30
-0.5
 70
   192
  0
VERTEX
  5
7400
  8
0
 10
194.9999999999999
 20
-337.7499074759312
 30
0.0
 70
   192
  0
VERTEX
  5
7401
  8
0
 10
337.749907475931
 20
-195.0000000000002
 30
0.0
 70
   192
  0
VERTEX
  5
7402
  8
0
 10
390.0
 20
-0.0000000000002814
 30
-0.5
 70
   192
  0
VERTEX
  5
7403
  8
0
 10
390.0
 20
-0.0000000000002814
 30
0.0
 70
   192
  0
VERTEX
  5
7404
  8
0
 10
-0.0000000000001515
 20
-390.0
 30
-0.5
 70
   192
  0
VERTEX
  5
7405
  8
0
 10
-0.0000000000001515
 20
-390.0
 30
0.0
 70
   192
  0
VERTEX
  5
7406
  8
0
 10
-390.0
 20
0.0000000000000478
 30
-0.5
 70
   192
  0
VERTEX
  5
7407
  8
0
 10
-390.0
 20
0.0000000000000478
 30
0.0
 70
   192
  0
VERTEX
  5
7408
  8
0
 10
0.0
 20
0.0
 30
0.0
 70
   128
 71
     1
 72
     2
 73
    -3
  0
VERTEX
  5
7409
  8
0
 10
0.0
 20
0.0
 30
0.0
 70
   128
 71
     4
 72
    -1
 73
     3
  0
VERTEX
  5
740A
  8
0
 10
0.0
 20
0.0
 30
0.0
 70
   128
 71
     5
 72
     6
 73
    -7
  0
VERTEX
  5
740B
  8
0
 10
0.0
 20
0.0
 30
0.0
 70
   128
 71
     8
 72
    -5
 73
     7
  0
VERTEX
  5
740C
  8
0
 10
0.0
 20
0.0
 30
0.0
 70
   128
 71
     9
 72
     5
 73
    -8
  0
VERTEX
  5
740D
  8
0
 10
0.0
 20
0.0
 30
0.0
 70
   128
 71
    10
 72
    -9
 73
     8
  0
VERTEX
  5
740E
  8
0
 10
0.0
 20
0.0
 30
0.0
 70
   128
 71
     6
 72
    11
 73
   -12
  0
VERTEX
  5
740F
  8
0
 10
0.0
 20
0.0
 30
0.0
 70
   128
 71
     7
 72
    -6
 73
    12
  0
VERTEX
  5
7410
  8
0
 10
0.0
 20
0.0
 30
0.0
 70
   128
 71
    11
 72
     1
 73
    -4
  0
VERTEX
  5
7411
  8
0
 10
0.0
 20
0.0
 30
0.0
 70
   128
 71
    12
 72
   -11
 73
     4
  0
VERTEX
  5
7412
  8
0
 10
0.0
 20
0.0
 30
0.0
 70
   128
 71
     2
 72
    13
 73
   -14
  0
VERTEX
  5
7413
  8
0
 10
0.0
 20
0.0
 30
0.0
 70
   128
 71
     3
 72
    -2
 73
    14
  0
SEQEND
  5
77D7
  8
0
  0
POLYLINE
  5
7414
  8
0
 66
     1
 10
0.0
 20
0.0
 30
0.0
 70
    64
 71
    14
 72
    12
  0
VERTEX
  5
7415
  8
0
 10
329.0896534380868
 20
190.0
 30
0.0
 70
   192
  0
VERTEX
  5
7416
  8
0
 10
329.0896534380868
 20
190.0
 30
-0.5
 70
   192
  0
VERTEX
  5
7417
  8
0
 10
190.0000000000001
 20
329.0896534380867
 30
-0.5
 70
   192
  0
VERTEX
  5
7418
  8
0
 10
190.0000000000001
 20
329.0896534380867
 30
0.0
 70
   192
  0
VERTEX
  5
7419
  8
0
 10
-189.9999999999999
 20
329.0896534380868
 30
0.0
 70
   192
  0
VERTEX
  5
741A
  8
0
 10
-189.9999999999999
 20
329.0896534380868
 30
-0.5
 70
   192
  0
VERTEX
  5
741B
  8
0
 10
-329.0896534380867
 20
190.0000000000002
 30
-0.5
 70
   192
  0
VERTEX
  5
741C
  8
0
 10
-329.0896534380867
 20
190.0000000000002
 30
0.0
 70
   192
  0
VERTEX
  5
741D
  8
0
 10
-380.0000000000001
 20
0.0000000000002109
 30
-0.5
 70
   192
  0
VERTEX
  5
741E
  8
0
 10
-380.0000000000001
 20
0.0000000000000465
 30
0.0
 70
   192
  0
VERTEX
  5
741F
  8
0
 10
0.0000000000001055
 20
380.0000000000001
 30
0.0
 70
   192
  0
VERTEX
  5
7420
  8
0
 10
0.0000000000001055
 20
380.0000000000001
 30
-0.5
 70
   192
  0
VERTEX
  5
7421
  8
0
 10
380.0000000000001
 20
0.0
 30
0.0
 70
   192
  0
VERTEX
  5
7422
  8
0
 10
380.0000000000001
 20
0.0
 30
-0.5
 70
   192
  0
VERTEX
  5
7423
  8
0
 10
0.0
 20
0.0
 30
0.0
 70
   128
 71
     1
 72
     2
 73
    -3
  0
VERTEX
  5
7424
  8
0
 10
0.0
 20
0.0
 30
0.0
 70
   128
 71
    -1
 72
     3
 73
     4
  0
VERTEX
  5
7425
  8
0
 10
0.0
 20
0.0
 30
0.0
 70
   128
 71
     5
 72
     6
 73
    -7
  0
VERTEX
  5
7426
  8
0
 10
0.0
 20
0.0
 30
0.0
 70
   128
 71
    -5
 72
     7
 73
     8
  0
VERTEX
  5
7427
  8
0
 10
0.0
 20
0.0
 30
0.0
 70
   128
 71
     8
 72
     7
 73
    -9
  0
VERTEX
  5
7428
  8
0
 10
0.0
 20
0.0
 30
0.0
 70
   128
 71
    -8
 72
     9
 73
    10
  0
VERTEX
  5
7429
  8
0
 10
0.0
 20
0.0
 30
0.0
 70
   128
 71
    11
 72
    12
 73
    -6
  0
VERTEX
  5
742A
  8
0
 10
0.0
 20
0.0
 30
0.0
 70
   128
 71
   -11
 72
     6
 73
     5
  0
VERTEX
  5
742B
  8
0
 10
0.0
 20
0.0
 30
0.0
 70
   128
 71
     4
 72
     3
 73
   -12
  0
VERTEX
  5
742C
  8
0
 10
0.0
 20
0.0
 30
0.0
 70
   128
 71
    -4
 72
    12
 73
    11
  0
VERTEX
  5
742D
  8
0
 10
0.0
 20
0.0
 30
0.0
 70
   128
 71
    13
 72
    14
 73
    -2
  0
VERTEX
  5
742E
  8
0
 10
0.0
 20
0.0
 30
0.0
 70
   128
 71
   -13
 72
     2
 73
     1
  0
SEQEND
  5
77D8
  8
0
  0
POLYLINE
  5
742F
  8
0
 66
     1
 10
0.0
 20
0.0
 30
0.0
 70
    64
 71
    14
 72
    12
  0
VERTEX
  5
7430
  8
0
 10
346.4101615137755
 20
200.0
 30
0.0
 70
   192
  0
VERTEX
  5
7431
  8
0
 10
346.4101615137755
 20
200.0
 30
-35.0
 70
   192
  0
VERTEX
  5
7432
  8
0
 10
200.0000000000001
 20
346.4101615137754
 30
-35.0
 70
   192
  0
VERTEX
  5
7433
  8
0
 10
200.0000000000001
 20
346.4101615137754
 30
0.0
 70
   192
  0
VERTEX
  5
7434
  8
0
 10
-199.9999999999999
 20
346.4101615137755
 30
0.0
 70
   192
  0
VERTEX
  5
7435
  8
0
 10
-199.9999999999999
 20
346.4101615137755
 30
-35.0
 70
   192
  0
VERTEX
  5
7436
  8
0
 10
-346.4101615137754
 20
200.0000000000002
 30
-35.0
 70
   192
  0
VERTEX
  5
7437
  8
0
 10
-346.4101615137754
 20
200.0000000000002
 30
0.0
 70
   192
  0
VERTEX
  5
7438
  8
0
 10
-400.0
 20
0.000000000000222
 30
-35.0
 70
   192
  0
VERTEX
  5
7439
  8
0
 10
-400.0
 20
0.000000000000049
 30
0.0
 70
   192
  0
VERTEX
  5
743A
  8
0
 10
0.000000000000111
 20
400.0
 30
0.0
 70
   192
  0
VERTEX
  5
743B
  8
0
 10
0.000000000000111
 20
400.0
 30
-35.0
 70
   192
  0
VERTEX
  5
743C
  8
0
 10
400.0
 20
0.0
 30
0.0
 70
   192
  0
VERTEX
  5
743D
  8
0
 10
400.0
 20
0.0
 30
-35.0
 70
   192
  0
VERTEX
  5
743E
  8
0
 10
0.0
 20
0.0
 30
0.0
 70
   128
 71
     1
 72
     2
 73
    -3
  0
VERTEX
  5
743F
  8
0
 10
0.0
 20
0.0
 30
0.0
 70
   128
 71
    -1
 72
     3
 73
     4
  0
VERTEX
  5
7440
  8
0
 10
0.0
 20
0.0
 30
0.0
 70
   128
 71
     5
 72
     6
 73
    -7
  0
VERTEX
  5
7441
  8
0
 10
0.0
 20
0.0
 30
0.0
 70
   128
 71
    -5
 72
     7
 73
     8
  0
VERTEX
  5
7442
  8
0
 10
0.0
 20
0.0
 30
0.0
 70
   128
 71
     8
 72
     7
 73
    -9
  0
VERTEX
  5
7443
  8
0
 10
0.0
 20
0.0
 30
0.0
 70
   128
 71
    -8
 72
     9
 73
    10
  0
VERTEX
  5
7444
  8
0
 10
0.0
 20
0.0
 30
0.0
 70
   128
 71
    11
 72
    12
 73
    -6
  0
VERTEX
  5
7445
  8
0
 10
0.0
 20
0.0
 30
0.0
 70
   128
 71
   -11
 72
     6
 73
     5
  0
VERTEX
  5
7446
  8
0
 10
0.0
 20
0.0
 30
0.0
 70
   128
 71
     4
 72
     3
 73
   -12
  0
VERTEX
  5
7447
  8
0
 10
0.0
 20
0.0
 30
0.0
 70
   128
 71
    -4
 72
    12
 73
    11
  0
VERTEX
  5
7448
  8
0
 10
0.0
 20
0.0
 30
0.0
 70
   128
 71
    13
 72
    14
 73
    -2
  0
VERTEX
  5
7449
  8
0
 10
0.0
 20
0.0
 30
0.0
 70
   128
 71
   -13
 72
     2
 73
     1
  0
SEQEND
  5
77D9
  8
0
  0
POLYLINE
  5
744A
  8
0
 66
     1
 10
0.0
 20
0.0
 30
0.0
 70
    64
 71
    14
 72
    12
  0
VERTEX
  5
744B
  8
0
 10
-346.4101615137755
 20
-199.9999999999999
 30
0.0
 70
   192
  0
VERTEX
  5
744C
  8
0
 10
-346.4101615137755
 20
-199.9999999999999
 30
-35.0
 70
   192
  0
VERTEX
  5
744D
  8
0
 10
-200.0000000000001
 20
-346.4101615137754
 30
-35.0
 70
   192
  0
VERTEX
  5
744E
  8
0
 10
-200.0000000000001
 20
-346.4101615137754
 30
0.0
 70
   192
  0
VERTEX
  5
744F
  8
0
 10
199.9999999999999
 20
-346.4101615137756
 30
0.0
 70
   192
  0
VERTEX
  5
7450
  8
0
 10
199.9999999999999
 20
-346.4101615137756
 30
-35.0
 70
   192
  0
VERTEX
  5
7451
  8
0
 10
346.4101615137753
 20
-200.0000000000002
 30
-35.0
 70
   192
  0
VERTEX
  5
7452
  8
0
 10
346.4101615137753
 20
-200.0000000000002
 30
0.0
 70
   192
  0
VERTEX
  5
7453
  8
0
 10
400.0
 20
-0.0000000000002887
 30
-35.0
 70
   192
  0
VERTEX
  5
7454
  8
0
 10
400.0
 20
0.0
 30
0.0
 70
   192
  0
VERTEX
  5
7455
  8
0
 10
-0.0000000000001554
 20
-400.0
 30
0.0
 70
   192
  0
VERTEX
  5
7456
  8
0
 10
-0.0000000000001554
 20
-400.0
 30
-35.0
 70
   192
  0
VERTEX
  5
7457
  8
0
 10
-400.0
 20
0.000000000000049
 30
0.0
 70
   192
  0
VERTEX
  5
7458
  8
0
 10
-400.0
 20
0.000000000000049
 30
-35.0
 70
   192
  0
VERTEX
  5
7459
  8
0
 10
0.0
 20
0.0
 30
0.0
 70
   128
 71
     1
 72
     2
 73
    -3
  0
VERTEX
  5
745A
  8
0
 10
0.0
 20
0.0
 30
0.0
 70
   128
 71
    -1
 72
     3
 73
     4
  0
VERTEX
  5
745B
  8
0
 10
0.0
 20
0.0
 30
0.0
 70
   128
 71
     5
 72
     6
 73
    -7
  0
VERTEX
  5
745C
  8
0
 10
0.0
 20
0.0
 30
0.0
 70
   128
 71
    -5
 72
     7
 73
     8
  0
VERTEX
  5
745D
  8
0
 10
0.0
 20
0.0
 30
0.0
 70
   128
 71
     8
 72
     7
 73
    -9
  0
VERTEX
  5
745E
  8
0
 10
0.0
 20
0.0
 30
0.0
 70
   128
 71
    -8
 72
     9
 73
    10
  0
VERTEX
  5
745F
  8
0
 10
0.0
 20
0.0
 30
0.0
 70
   128
 71
    11
 72
    12
 73
    -6
  0
VERTEX
  5
7460
  8
0
 10
0.0
 20
0.0
 30
0.0
 70
   128
 71
   -11
 72
     6
 73
     5
  0
VERTEX
  5
7461
  8
0
 10
0.0
 20
0.0
 30
0.0
 70
   128
 71
     4
 72
     3
 73
   -12
  0
VERTEX
  5
7462
  8
0
 10
0.0
 20
0.0
 30
0.0
 70
   128
 71
    -4
 72
    12
 73
    11
  0
VERTEX
  5
7463
  8
0
 10
0.0
 20
0.0
 30
0.0
 70
   128
 71
    13
 72
    14
 73
    -2
  0
VERTEX
  5
7464
  8
0
 10
0.0
 20
0.0
 30
0.0
 70
   128
 71
   -13
 72
     2
 73
     1
  0
SEQEND
  5
77DA
  8
0
  0
POLYLINE
  5
7465
  8
0
 66
     1
 10
0.0
 20
0.0
 30
0.0
 70
    64
 71
    24
 72
    24
  0
VERTEX
  5
7466
  8
0
 10
-400.0
 20
0.000000000000049
 30
-35.0
 70
   192
  0
VERTEX
  5
7467
  8
0
 10
-346.4101615137755
 20
-199.9999999999999
 30
-35.0
 70
   192
  0
VERTEX
  5
7468
  8
0
 10
-200.0000000000001
 20
-346.4101615137754
 30
-35.0
 70
   192
  0
VERTEX
  5
7469
  8
0
 10
-0.0000000000001554
 20
-400.0
 30
-35.0
 70
   192
  0
VERTEX
  5
746A
  8
0
 10
199.9999999999999
 20
-346.4101615137756
 30
-35.0
 70
   192
  0
VERTEX
  5
746B
  8
0
 10
346.4101615137753
 20
-200.0000000000002
 30
-35.0
 70
   192
  0
VERTEX
  5
746C
  8
0
 10
400.0
 20
0.0
 30
-35.0
 70
   192
  0
VERTEX
  5
746D
  8
0
 10
346.4101615137755
 20
200.0
 30
-35.0
 70
   192
  0
VERTEX
  5
746E
  8
0
 10
200.0000000000001
 20
346.4101615137754
 30
-35.0
 70
   192
  0
VERTEX
  5
746F
  8
0
 10
0.000000000000111
 20
400.0
 30
-35.0
 70
   192
  0
VERTEX
  5
7470
  8
0
 10
-199.9999999999999
 20
346.4101615137755
 30
-35.0
 70
   192
  0
VERTEX
  5
7471
  8
0
 10
-346.4101615137754
 20
200.0000000000002
 30
-35.0
 70
   192
  0
VERTEX
  5
7472
  8
0
 10
390.0
 20
-0.0000000000002814
 30
-35.0
 70
   192
  0
VERTEX
  5
7473
  8
0
 10
337.749907475931
 20
-195.0000000000002
 30
-35.0
 70
   192
  0
VERTEX
  5
7474
  8
0
 10
194.9999999999999
 20
-337.7499074759312
 30
-35.0
 70
   192
  0
VERTEX
  5
7475
  8
0
 10
-0.0000000000001515
 20
-390.0
 30
-35.0
 70
   192
  0
VERTEX
  5
7476
  8
0
 10
-195.0000000000001
 20
-337.749907475931
 30
-35.0
 70
   192
  0
VERTEX
  5
7477
  8
0
 10
-337.7499074759311
 20
-194.9999999999999
 30
-35.0
 70
   192
  0
VERTEX
  5
7478
  8
0
 10
-390.0
 20
0.0000000000002165
 30
-35.0
 70
   192
  0
VERTEX
  5
7479
  8
0
 10
-337.749907475931
 20
195.0000000000002
 30
-35.0
 70
   192
  0
VERTEX
  5
747A
  8
0
 10
-194.9999999999999
 20
337.7499074759311
 30
-35.0
 70
   192
  0
VERTEX
  5
747B
  8
0
 10
0.0000000000001082
 20
390.0
 30
-35.0
 70
   192
  0
VERTEX
  5
747C
  8
0
 10
195.0000000000001
 20
337.749907475931
 30
-35.0
 70
   192
  0
VERTEX
  5
747D
  8
0
 10
337.7499074759311
 20
195.0
 30
-35.0
 70
   192
  0
VERTEX
  5
747E
  8
0
 10
0.0
 20
0.0
 30
0.0
 70
   128
 71
    14
 72
   -13
 73
    -7
  0
VERTEX
  5
747F
  8
0
 10
0.0
 20
0.0
 30
0.0
 70
   128
 71
   -14
 72
     7
 73
    -6
  0
VERTEX
  5
7480
  8
0
 10
0.0
 20
0.0
 30
0.0
 70
   128
 71
     6
 72
    -5
 73
   -15
  0
VERTEX
  5
7481
  8
0
 10
0.0
 20
0.0
 30
0.0
 70
   128
 71
    -6
 72
    15
 73
   -14
  0
VERTEX
  5
7482
  8
0
 10
0.0
 20
0.0
 30
0.0
 70
   128
 71
     5
 72
    -4
 73
   -16
  0
VERTEX
  5
7483
  8
0
 10
0.0
 20
0.0
 30
0.0
 70
   128
 71
    -5
 72
    16
 73
   -15
  0
VERTEX
  5
7484
  8
0
 10
0.0
 20
0.0
 30
0.0
 70
   128
 71
     4
 72
    -3
 73
   -17
  0
VERTEX
  5
7485
  8
0
 10
0.0
 20
0.0
 30
0.0
 70
   128
 71
    -4
 72
    17
 73
   -16
  0
VERTEX
  5
7486
  8
0
 10
0.0
 20
0.0
 30
0.0
 70
   128
 71
     3
 72
    -2
 73
   -18
  0
VERTEX
  5
7487
  8
0
 10
0.0
 20
0.0
 30
0.0
 70
   128
 71
    -3
 72
    18
 73
   -17
  0
VERTEX
  5
7488
  8
0
 10
0.0
 20
0.0
 30
0.0
 70
   128
 71
     2
 72
    -1
 73
   -19
  0
VERTEX
  5
7489
  8
0
 10
0.0
 20
0.0
 30
0.0
 70
   128
 71
    -2
 72
    19
 73
   -18
  0
VERTEX
  5
748A
  8
0
 10
0.0
 20
0.0
 30
0.0
 70
   128
 71
     1
 72
   -12
 73
   -20
  0
VERTEX
  5
748B
  8
0
 10
0.0
 20
0.0
 30
0.0
 70
   128
 71
    -1
 72
    20
 73
   -19
  0
VERTEX
  5
748C
  8
0
 10
0.0
 20
0.0
 30
0.0
 70
   128
 71
    12
 72
   -11
 73
   -21
  0
VERTEX
  5
748D
  8
0
 10
0.0
 20
0.0
 30
0.0
 70
   128
 71
   -12
 72
    21
 73
   -20
  0
VERTEX
  5
748E
  8
0
 10
0.0
 20
0.0
 30
0.0
 70
   128
 71
    11
 72
   -10
 73
   -22
  0
VERTEX
  5
748F
  8
0
 10
0.0
 20
0.0
 30
0.0
 70
   128
 71
   -11
 72
    22
 73
   -21
  0
VERTEX
  5
7490
  8
0
 10
0.0
 20
0.0
 30
0.0
 70
   128
 71
    10
 72
    -9
 73
   -23
  0
VERTEX
  5
7491
  8
0
 10
0.0
 20
0.0
 30
0.0
 70
   128
 71
   -10
 72
    23
 73
   -22
  0
VERTEX
  5
7492
  8
0
 10
0.0
 20
0.0
 30
0.0
 70
   128
 71
     9
 72
    -8
 73
   -24
  0
VERTEX
  5
7493
  8
0
 10
0.0
 20
0.0
 30
0.0
 70
   128
 71
    -9
 72
    24
 73
   -23
  0
VERTEX
  5
7494
  8
0
 10
0.0
 20
0.0
 30
0.0
 70
   128
 71
     8
 72
    -7
 73
   -13
  0
VERTEX
  5
7495
  8
0
 10
0.0
 20
0.0
 30
0.0
 70
   128
 71
    -8
 72
    13
 73
   -24
  0
SEQEND
  5
77DB
  8
0
  0
POLYLINE
  5
7496
  8
0
 66
     1
 10
0.0
 20
0.0
 30
0.0
 70
    64
 71
    24
 72
    24
  0
VERTEX
  5
7497
  8
0
 10
400.0
 20
0.0
 30
0.0
 70
   192
  0
VERTEX
  5
7498
  8
0
 10
346.4101615137755
 20
200.0
 30
0.0
 70
   192
  0
VERTEX
  5
7499
  8
0
 10
200.0000000000001
 20
346.4101615137754
 30
0.0
 70
   192
  0
VERTEX
  5
749A
  8
0
 10
0.000000000000111
 20
400.0
 30
0.0
 70
   192
  0
VERTEX
  5
749B
  8
0
 10
-199.9999999999999
 20
346.4101615137755
 30
0.0
 70
   192
  0
VERTEX
  5
749C
  8
0
 10
-346.4101615137754
 20
200.0000000000002
 30
0.0
 70
   192
  0
VERTEX
  5
749D
  8
0
 10
-400.0
 20
0.000000000000222
 30
0.0
 70
   192
  0
VERTEX
  5
749E
  8
0
 10
-346.4101615137755
 20
-199.9999999999999
 30
0.0
 70
   192
  0
VERTEX
  5
749F
  8
0
 10
-200.0000000000001
 20
-346.4101615137754
 30
0.0
 70
   192
  0
VERTEX
  5
74A0
  8
0
 10
-0.0000000000001554
 20
-400.0
 30
0.0
 70
   192
  0
VERTEX
  5
74A1
  8
0
 10
199.9999999999999
 20
-346.4101615137756
 30
0.0
 70
   192
  0
VERTEX
  5
74A2
  8
0
 10
346.4101615137753
 20
-200.0000000000002
 30
0.0
 70
   192
  0
VERTEX
  5
74A3
  8
0
 10
-390.0
 20
0.0000000000002165
 30
0.0
 70
   192
  0
VERTEX
  5
74A4
  8
0
 10
-337.749907475931
 20
195.0000000000002
 30
0.0
 70
   192
  0
VERTEX
  5
74A5
  8
0
 10
-194.9999999999999
 20
337.7499074759311
 30
0.0
 70
   192
  0
VERTEX
  5
74A6
  8
0
 10
0.0000000000001082
 20
390.0
 30
0.0
 70
   192
  0
VERTEX
  5
74A7
  8
0
 10
195.0000000000001
 20
337.749907475931
 30
0.0
 70
   192
  0
VERTEX
  5
74A8
  8
0
 10
337.7499074759311
 20
195.0
 30
0.0
 70
   192
  0
VERTEX
  5
74A9
  8
0
 10
390.0
 20
0.0
 30
0.0
 70
   192
  0
VERTEX
  5
74AA
  8
0
 10
337.749907475931
 20
-195.0000000000002
 30
0.0
 70
   192
  0
VERTEX
  5
74AB
  8
0
 10
194.9999999999999
 20
-337.7499074759312
 30
0.0
 70
   192
  0
VERTEX
  5
74AC
  8
0
 10
-0.0000000000001515
 20
-390.0
 30
0.0
 70
   192
  0
VERTEX
  5
74AD
  8
0
 10
-195.0000000000001
 20
-337.749907475931
 30
0.0
 70
   192
  0
VERTEX
  5
74AE
  8
0
 10
-337.7499074759311
 20
-194.9999999999999
 30
0.0
 70
   192
  0
VERTEX
  5
74AF
  8
0
 10
0.0
 20
0.0
 30
0.0
 70
   128
 71
    -7
 72
    13
 73
   -14
  0
VERTEX
  5
74B0
  8
0
 10
0.0
 20
0.0
 30
0.0
 70
   128
 71
     6
 72
    -7
 73
   -14
  0
VERTEX
  5
74B1
  8
0
 10
0.0
 20
0.0
 30
0.0
 70
   128
 71
   -15
 72
     5
 73
    -6
  0
VERTEX
  5
74B2
  8
0
 10
0.0
 20
0.0
 30
0.0
 70
   128
 71
    14
 72
   -15
 73
    -6
  0
VERTEX
  5
74B3
  8
0
 10
0.0
 20
0.0
 30
0.0
 70
   128
 71
   -16
 72
     4
 73
    -5
  0
VERTEX
  5
74B4
  8
0
 10
0.0
 20
0.0
 30
0.0
 70
   128
 71
    15
 72
   -16
 73
    -5
  0
VERTEX
  5
74B5
  8
0
 10
0.0
 20
0.0
 30
0.0
 70
   128
 71
   -17
 72
     3
 73
    -4
  0
VERTEX
  5
74B6
  8
0
 10
0.0
 20
0.0
 30
0.0
 70
   128
 71
    16
 72
   -17
 73
    -4
  0
VERTEX
  5
74B7
  8
0
 10
0.0
 20
0.0
 30
0.0
 70
   128
 71
   -18
 72
     2
 73
    -3
  0
VERTEX
  5
74B8
  8
0
 10
0.0
 20
0.0
 30
0.0
 70
   128
 71
    17
 72
   -18
 73
    -3
  0
VERTEX
  5
74B9
  8
0
 10
0.0
 20
0.0
 30
0.0
 70
   128
 71
   -19
 72
     1
 73
    -2
  0
VERTEX
  5
74BA
  8
0
 10
0.0
 20
0.0
 30
0.0
 70
   128
 71
    18
 72
   -19
 73
    -2
  0
VERTEX
  5
74BB
  8
0
 10
0.0
 20
0.0
 30
0.0
 70
   128
 71
   -20
 72
    12
 73
    -1
  0
VERTEX
  5
74BC
  8
0
 10
0.0
 20
0.0
 30
0.0
 70
   128
 71
    19
 72
   -20
 73
    -1
  0
VERTEX
  5
74BD
  8
0
 10
0.0
 20
0.0
 30
0.0
 70
   128
 71
   -21
 72
    11
 73
   -12
  0
VERTEX
  5
74BE
  8
0
 10
0.0
 20
0.0
 30
0.0
 70
   128
 71
    20
 72
   -21
 73
   -12
  0
VERTEX
  5
74BF
  8
0
 10
0.0
 20
0.0
 30
0.0
 70
   128
 71
   -22
 72
    10
 73
   -11
  0
VERTEX
  5
74C0
  8
0
 10
0.0
 20
0.0
 30
0.0
 70
   128
 71
    21
 72
   -22
 73
   -11
  0
VERTEX
  5
74C1
  8
0
 10
0.0
 20
0.0
 30
0.0
 70
   128
 71
   -23
 72
     9
 73
   -10
  0
VERTEX
  5
74C2
  8
0
 10
0.0
 20
0.0
 30
0.0
 70
   128
 71
    22
 72
   -23
 73
   -10
  0
VERTEX
  5
74C3
  8
0
 10
0.0
 20
0.0
 30
0.0
 70
   128
 71
   -24
 72
     8
 73
    -9
  0
VERTEX
  5
74C4
  8
0
 10
0.0
 20
0.0
 30
0.0
 70
   128
 71
    23
 72
   -24
 73
    -9
  0
VERTEX
  5
74C5
  8
0
 10
0.0
 20
0.0
 30
0.0
 70
   128
 71
   -13
 72
     7
 73
    -8
  0
VERTEX
  5
74C6
  8
0
 10
0.0
 20
0.0
 30
0.0
 70
   128
 71
    24
 72
   -13
 73
    -8
  0
SEQEND
  5
77DC
  8
0
  0
POLYLINE
  5
74C7
  8
0
 66
     1
 10
0.0
 20
0.0
 30
0.0
 70
    64
 71
    14
 72
    12
  0
VERTEX
  5
74C8
  8
0
 10
-329.0896534380868
 20
-190.0
 30
0.0
 70
   192
  0
VERTEX
  5
74C9
  8
0
 10
-329.0896534380868
 20
-190.0
 30
-0.5
 70
   192
  0
VERTEX
  5
74CA
  8
0
 10
-190.0000000000001
 20
-329.0896534380867
 30
-0.5
 70
   192
  0
VERTEX
  5
74CB
  8
0
 10
-190.0000000000001
 20
-329.0896534380867
 30
0.0
 70
   192
  0
VERTEX
  5
74CC
  8
0
 10
189.9999999999999
 20
-329.0896534380868
 30
0.0
 70
   192
  0
VERTEX
  5
74CD
  8
0
 10
189.9999999999999
 20
-329.0896534380868
 30
-0.5
 70
   192
  0
VERTEX
  5
74CE
  8
0
 10
329.0896534380867
 20
-190.0000000000002
 30
-0.5
 70
   192
  0
VERTEX
  5
74CF
  8
0
 10
329.0896534380867
 20
-190.0000000000002
 30
0.0
 70
   192
  0
VERTEX
  5
74D0
  8
0
 10
380.0000000000001
 20
-0.0000000000002742
 30
-0.5
 70
   192
  0
VERTEX
  5
74D1
  8
0
 10
380.0000000000001
 20
0.0
 30
0.0
 70
   192
  0
VERTEX
  5
74D2
  8
0
 10
-0.0000000000001477
 20
-380.0000000000001
 30
0.0
 70
   192
  0
VERTEX
  5
74D3
  8
0
 10
-0.0000000000001477
 20
-380.0000000000001
 30
-0.5
 70
   192
  0
VERTEX
  5
74D4
  8
0
 10
-380.0000000000001
 20
0.0000000000000465
 30
0.0
 70
   192
  0
VERTEX
  5
74D5
  8
0
 10
-380.0000000000001
 20
0.0000000000000465
 30
-0.5
 70
   192
  0
VERTEX
  5
74D6
  8
0
 10
0.0
 20
0.0
 30
0.0
 70
   128
 71
     1
 72
     2
 73
    -3
  0
VERTEX
  5
74D7
  8
0
 10
0.0
 20
0.0
 30
0.0
 70
   128
 71
    -1
 72
     3
 73
     4
  0
VERTEX
  5
74D8
  8
0
 10
0.0
 20
0.0
 30
0.0
 70
   128
 71
     5
 72
     6
 73
    -7
  0
VERTEX
  5
74D9
  8
0
 10
0.0
 20
0.0
 30
0.0
 70
   128
 71
    -5
 72
     7
 73
     8
  0
VERTEX
  5
74DA
  8
0
 10
0.0
 20
0.0
 30
0.0
 70
   128
 71
     8
 72
     7
 73
    -9
  0
VERTEX
  5
74DB
  8
0
 10
0.0
 20
0.0
 30
0.0
 70
   128
 71
    -8
 72
     9
 73
    10
  0
VERTEX
  5
74DC
  8
0
 10
0.0
 20
0.0
 30
0.0
 70
   128
 71
    11
 72
    12
 73
    -6
  0
VERTEX
  5
74DD
  8
0
 10
0.0
 20
0.0
 30
0.0
 70
   128
 71
   -11
 72
     6
 73
     5
  0
VERTEX
  5
74DE
  8
0
 10
0.0
 20
0.0
 30
0.0
 70
   128
 71
     4
 72
     3
 73
   -12
  0
VERTEX
  5
74DF
  8
0
 10
0.0
 20
0.0
 30
0.0
 70
   128
 71
    -4
 72
    12
 73
    11
  0
VERTEX
  5
74E0
  8
0
 10
0.0
 20
0.0
 30
0.0
 70
   128
 71
    13
 72
    14
 73
    -2
  0
VERTEX
  5
74E1
  8
0
 10
0.0
 20
0.0
 30
0.0
 70
   128
 71
   -13
 72
     2
 73
     1
  0
SEQEND
  5
77DD
  8
0
  0
POLYLINE
  5
74E2
  8
0
 66
     1
 10
0.0
 20
0.0
 30
0.0
 70
    64
 71
    14
 72
    12
  0
VERTEX
  5
74E3
  8
0
 10
195.0000000000001
 20
337.749907475931
 30
-0.5
 70
   192
  0
VERTEX
  5
74E4
  8
0
 10
337.7499074759311
 20
195.0
 30
-0.5
 70
   192
  0
VERTEX
  5
74E5
  8
0
 10
337.7499074759311
 20
195.0
 30
0.0
 70
   192
  0
VERTEX
  5
74E6
  8
0
 10
195.0000000000001
 20
337.749907475931
 30
0.0
 70
   192
  0
VERTEX
  5
74E7
  8
0
 10
-337.749907475931
 20
195.0000000000002
 30
-0.5
 70
   192
  0
VERTEX
  5
74E8
  8
0
 10
-194.9999999999999
 20
337.7499074759311
 30
-0.5
 70
   192
  0
VERTEX
  5
74E9
  8
0
 10
-194.9999999999999
 20
337.7499074759311
 30
0.0
 70
   192
  0
VERTEX
  5
74EA
  8
0
 10
-337.749907475931
 20
195.0000000000002
 30
0.0
 70
   192
  0
VERTEX
  5
74EB
  8
0
 10
-390.0
 20
0.0000000000000478
 30
-0.5
 70
   192
  0
VERTEX
  5
74EC
  8
0
 10
-390.0
 20
0.0000000000000478
 30
0.0
 70
   192
  0
VERTEX
  5
74ED
  8
0
 10
0.0000000000001082
 20
390.0
 30
-0.5
 70
   192
  0
VERTEX
  5
74EE
  8
0
 10
0.0000000000001082
 20
390.0
 30
0.0
 70
   192
  0
VERTEX
  5
74EF
  8
0
 10
390.0
 20
0.0
 30
-0.5
 70
   192
  0
VERTEX
  5
74F0
  8
0
 10
390.0
 20
0.0
 30
0.0
 70
   192
  0
VERTEX
  5
74F1
  8
0
 10
0.0
 20
0.0
 30
0.0
 70
   128
 71
     1
 72
     2
 73
    -3
  0
VERTEX
  5
74F2
  8
0
 10
0.0
 20
0.0
 30
0.0
 70
   128
 71
     4
 72
    -1
 73
     3
  0
VERTEX
  5
74F3
  8
0
 10
0.0
 20
0.0
 30
0.0
 70
   128
 71
     5
 72
     6
 73
    -7
  0
VERTEX
  5
74F4
  8
0
 10
0.0
 20
0.0
 30
0.0
 70
   128
 71
     8
 72
    -5
 73
     7
  0
VERTEX
  5
74F5
  8
0
 10
0.0
 20
0.0
 30
0.0
 70
   128
 71
     9
 72
     5
 73
    -8
  0
VERTEX
  5
74F6
  8
0
 10
0.0
 20
0.0
 30
0.0
 70
   128
 71
    10
 72
    -9
 73
     8
  0
VERTEX
  5
74F7
  8
0
 10
0.0
 20
0.0
 30
0.0
 70
   128
 71
     6
 72
    11
 73
   -12
  0
VERTEX
  5
74F8
  8
0
 10
0.0
 20
0.0
 30
0.0
 70
   128
 71
     7
 72
    -6
 73
    12
  0
VERTEX
  5
74F9
  8
0
 10
0.0
 20
0.0
 30
0.0
 70
   128
 71
    11
 72
     1
 73
    -4
  0
VERTEX
  5
74FA
  8
0
 10
0.0
 20
0.0
 30
0.0
 70
   128
 71
    12
 72
   -11
 73
     4
  0
VERTEX
  5
74FB
  8
0
 10
0.0
 20
0.0
 30
0.0
 70
   128
 71
     2
 72
    13
 73
   -14
  0
VERTEX
  5
74FC
  8
0
 10
0.0
 20
0.0
 30
0.0
 70
   128
 71
     3
 72
    -2
 73
    14
  0
SEQEND
  5
77DE
  8
0
  0
POLYLINE
  5
74FD
  8
0
 66
     1
 10
0.0
 20
0.0
 30
0.0
 70
    64
 71
    24
 72
    24
  0
VERTEX
  5
74FE
  8
0
 10
390.0
 20
0.0
 30
-0.5
 70
   192
  0
VERTEX
  5
74FF
  8
0
 10
337.7499074759311
 20
195.0
 30
-0.5
 70
   192
  0
VERTEX
  5
7500
  8
0
 10
195.0000000000001
 20
337.749907475931
 30
-0.5
 70
   192
  0
VERTEX
  5
7501
  8
0
 10
0.0000000000001082
 20
390.0
 30
-0.5
 70
   192
  0
VERTEX
  5
7502
  8
0
 10
-194.9999999999999
 20
337.7499074759311
 30
-0.5
 70
   192
  0
VERTEX
  5
7503
  8
0
 10
-337.749907475931
 20
195.0000000000002
 30
-0.5
 70
   192
  0
VERTEX
  5
7504
  8
0
 10
-390.0
 20
0.0000000000002165
 30
-0.5
 70
   192
  0
VERTEX
  5
7505
  8
0
 10
-337.7499074759311
 20
-194.9999999999999
 30
-0.5
 70
   192
  0
VERTEX
  5
7506
  8
0
 10
-195.0000000000001
 20
-337.749907475931
 30
-0.5
 70
   192
  0
VERTEX
  5
7507
  8
0
 10
-0.0000000000001515
 20
-390.0
 30
-0.5
 70
   192
  0
VERTEX
  5
7508
  8
0
 10
194.9999999999999
 20
-337.7499074759312
 30
-0.5
 70
   192
  0
VERTEX
  5
7509
  8
0
 10
337.749907475931
 20
-195.0000000000002
 30
-0.5
 70
   192
  0
VERTEX
  5
750A
  8
0
 10
-380.0000000000001
 20
0.0000000000002109
 30
-0.5
 70
   192
  0
VERTEX
  5
750B
  8
0
 10
-329.0896534380867
 20
190.0000000000002
 30
-0.5
 70
   192
  0
VERTEX
  5
750C
  8
0
 10
-189.9999999999999
 20
329.0896534380868
 30
-0.5
 70
   192
  0
VERTEX
  5
750D
  8
0
 10
0.0000000000001055
 20
380.0000000000001
 30
-0.5
 70
   192
  0
VERTEX
  5
750E
  8
0
 10
190.0000000000001
 20
329.0896534380867
 30
-0.5
 70
   192
  0
VERTEX
  5
750F
  8
0
 10
329.0896534380868
 20
190.0
 30
-0.5
 70
   192
  0
VERTEX
  5
7510
  8
0
 10
380.0000000000001
 20
0.0
 30
-0.5
 70
   192
  0
VERTEX
  5
7511
  8
0
 10
329.0896534380867
 20
-190.0000000000002
 30
-0.5
 70
   192
  0
VERTEX
  5
7512
  8
0
 10
189.9999999999999
 20
-329.0896534380868
 30
-0.5
 70
   192
  0
VERTEX
  5
7513
  8
0
 10
-0.0000000000001477
 20
-380.0000000000001
 30
-0.5
 70
   192
  0
VERTEX
  5
7514
  8
0
 10
-190.0000000000001
 20
-329.0896534380867
 30
-0.5
 70
   192
  0
VERTEX
  5
7515
  8
0
 10
-329.0896534380868
 20
-190.0
 30
-0.5
 70
   192
  0
VERTEX
  5
7516
  8
0
 10
0.0
 20
0.0
 30
0.0
 70
   128
 71
    -7
 72
    13
 73
   -14
  0
VERTEX
  5
7517
  8
0
 10
0.0
 20
0.0
 30
0.0
 70
   128
 71
     6
 72
    -7
 73
   -14
  0
VERTEX
  5
7518
  8
0
 10
0.0
 20
0.0
 30
0.0
 70
   128
 71
   -15
 72
     5
 73
    -6
  0
VERTEX
  5
7519
  8
0
 10
0.0
 20
0.0
 30
0.0
 70
   128
 71
    14
 72
   -15
 73
    -6
  0
VERTEX
  5
751A
  8
0
 10
0.0
 20
0.0
 30
0.0
 70
   128
 71
   -16
 72
     4
 73
    -5
  0
VERTEX
  5
751B
  8
0
 10
0.0
 20
0.0
 30
0.0
 70
   128
 71
    15
 72
   -16
 73
    -5
  0
VERTEX
  5
751C
  8
0
 10
0.0
 20
0.0
 30
0.0
 70
   128
 71
   -17
 72
     3
 73
    -4
  0
VERTEX
  5
751D
  8
0
 10
0.0
 20
0.0
 30
0.0
 70
   128
 71
    16
 72
   -17
 73
    -4
  0
VERTEX
  5
751E
  8
0
 10
0.0
 20
0.0
 30
0.0
 70
   128
 71
   -18
 72
     2
 73
    -3
  0
VERTEX
  5
751F
  8
0
 10
0.0
 20
0.0
 30
0.0
 70
   128
 71
    17
 72
   -18
 73
    -3
  0
VERTEX
  5
7520
  8
0
 10
0.0
 20
0.0
 30
0.0
 70
   128
 71
   -19
 72
     1
 73
    -2
  0
VERTEX
  5
7521
  8
0
 10
0.0
 20
0.0
 30
0.0
 70
   128
 71
    18
 72
   -19
 73
    -2
  0
VERTEX
  5
7522
  8
0
 10
0.0
 20
0.0
 30
0.0
 70
   128
 71
   -20
 72
    12
 73
    -1
  0
VERTEX
  5
7523
  8
0
 10
0.0
 20
0.0
 30
0.0
 70
   128
 71
    19
 72
   -20
 73
    -1
  0
VERTEX
  5
7524
  8
0
 10
0.0
 20
0.0
 30
0.0
 70
   128
 71
   -21
 72
    11
 73
   -12
  0
VERTEX
  5
7525
  8
0
 10
0.0
 20
0.0
 30
0.0
 70
   128
 71
    20
 72
   -21
 73
   -12
  0
VERTEX
  5
7526
  8
0
 10
0.0
 20
0.0
 30
0.0
 70
   128
 71
   -22
 72
    10
 73
   -11
  0
VERTEX
  5
7527
  8
0
 10
0.0
 20
0.0
 30
0.0
 70
   128
 71
    21
 72
   -22
 73
   -11
  0
VERTEX
  5
7528
  8
0
 10
0.0
 20
0.0
 30
0.0
 70
   128
 71
   -23
 72
     9
 73
   -10
  0
VERTEX
  5
7529
  8
0
 10
0.0
 20
0.0
 30
0.0
 70
   128
 71
    22
 72
   -23
 73
   -10
  0
VERTEX
  5
752A
  8
0
 10
0.0
 20
0.0
 30
0.0
 70
   128
 71
   -24
 72
     8
 73
    -9
  0
VERTEX
  5
752B
  8
0
 10
0.0
 20
0.0
 30
0.0
 70
   128
 71
    23
 72
   -24
 73
    -9
  0
VERTEX
  5
752C
  8
0
 10
0.0
 20
0.0
 30
0.0
 70
   128
 71
   -13
 72
     7
 73
    -8
  0
VERTEX
  5
752D
  8
0
 10
0.0
 20
0.0
 30
0.0
 70
   128
 71
    24
 72
   -13
 73
    -8
  0
SEQEND
  5
77DF
  8
0
  0
POLYLINE
  5
752E
  8
0
 66
     1
 10
0.0
 20
0.0
 30
0.0
 70
    64
 71
    24
 72
    24
  0
VERTEX
  5
752F
  8
0
 10
380.0000000000001
 20
0.0
 30
0.0
 70
   192
  0
VERTEX
  5
7530
  8
0
 10
329.0896534380868
 20
190.0
 30
0.0
 70
   192
  0
VERTEX
  5
7531
  8
0
 10
190.0000000000001
 20
329.0896534380867
 30
0.0
 70
   192
  0
VERTEX
  5
7532
  8
0
 10
0.0000000000001055
 20
380.0000000000001
 30
0.0
 70
   192
  0
VERTEX
  5
7533
  8
0
 10
-189.9999999999999
 20
329.0896534380868
 30
0.0
 70
   192
  0
VERTEX
  5
7534
  8
0
 10
-329.0896534380867
 20
190.0000000000002
 30
0.0
 70
   192
  0
VERTEX
  5
7535
  8
0
 10
-380.0000000000001
 20
0.0000000000002109
 30
0.0
 70
   192
  0
VERTEX
  5
7536
  8
0
 10
-329.0896534380868
 20
-190.0
 30
0.0
 70
   192
  0
VERTEX
  5
7537
  8
0
 10
-190.0000000000001
 20
-329.0896534380867
 30
0.0
 70
   192
  0
VERTEX
  5
7538
  8
0
 10
-0.0000000000001477
 20
-380.0000000000001
 30
0.0
 70
   192
  0
VERTEX
  5
7539
  8
0
 10
189.9999999999999
 20
-329.0896534380868
 30
0.0
 70
   192
  0
VERTEX
  5
753A
  8
0
 10
329.0896534380867
 20
-190.0000000000002
 30
0.0
 70
   192
  0
VERTEX
  5
753B
  8
0
 10
-365.0
 20
0.0000000000002026
 30
0.0
 70
   192
  0
VERTEX
  5
753C
  8
0
 10
-316.09927238132
 20
182.5000000000002
 30
0.0
 70
   192
  0
VERTEX
  5
753D
  8
0
 10
-182.4999999999999
 20
316.0992723813202
 30
0.0
 70
   192
  0
VERTEX
  5
753E
  8
0
 10
0.0000000000001013
 20
365.0
 30
0.0
 70
   192
  0
VERTEX
  5
753F
  8
0
 10
182.5000000000001
 20
316.0992723813201
 30
0.0
 70
   192
  0
VERTEX
  5
7540
  8
0
 10
316.0992723813201
 20
182.5
 30
0.0
 70
   192
  0
VERTEX
  5
7541
  8
0
 10
365.0
 20
0.0
 30
0.0
 70
   192
  0
VERTEX
  5
7542
  8
0
 10
316.09927238132
 20
-182.5000000000002
 30
0.0
 70
   192
  0
VERTEX
  5
7543
  8
0
 10
182.4999999999999
 20
-316.0992723813202
 30
0.0
 70
   192
  0
VERTEX
  5
7544
  8
0
 10
-0.0000000000001418
 20
-365.0
 30
0.0
 70
   192
  0
VERTEX
  5
7545
  8
0
 10
-182.5000000000001
 20
-316.0992723813201
 30
0.0
 70
   192
  0
VERTEX
  5
7546
  8
0
 10
-316.0992723813202
 20
-182.4999999999999
 30
0.0
 70
   192
  0
VERTEX
  5
7547
  8
0
 10
0.0
 20
0.0
 30
0.0
 70
   128
 71
    -7
 72
    13
 73
   -14
  0
VERTEX
  5
7548
  8
0
 10
0.0
 20
0.0
 30
0.0
 70
   128
 71
     6
 72
    -7
 73
   -14
  0
VERTEX
  5
7549
  8
0
 10
0.0
 20
0.0
 30
0.0
 70
   128
 71
   -15
 72
     5
 73
    -6
  0
VERTEX
  5
754A
  8
0
 10
0.0
 20
0.0
 30
0.0
 70
   128
 71
    14
 72
   -15
 73
    -6
  0
VERTEX
  5
754B
  8
0
 10
0.0
 20
0.0
 30
0.0
 70
   128
 71
   -16
 72
     4
 73
    -5
  0
VERTEX
  5
754C
  8
0
 10
0.0
 20
0.0
 30
0.0
 70
   128
 71
    15
 72
   -16
 73
    -5
  0
VERTEX
  5
754D
  8
0
 10
0.0
 20
0.0
 30
0.0
 70
   128
 71
   -17
 72
     3
 73
    -4
  0
VERTEX
  5
754E
  8
0
 10
0.0
 20
0.0
 30
0.0
 70
   128
 71
    16
 72
   -17
 73
    -4
  0
VERTEX
  5
754F
  8
0
 10
0.0
 20
0.0
 30
0.0
 70
   128
 71
   -18
 72
     2
 73
    -3
  0
VERTEX
  5
7550
  8
0
 10
0.0
 20
0.0
 30
0.0
 70
   128
 71
    17
 72
   -18
 73
    -3
  0
VERTEX
  5
7551
  8
0
 10
0.0
 20
0.0
 30
0.0
 70
   128
 71
   -19
 72
     1
 73
    -2
  0
VERTEX
  5
7552
  8
0
 10
0.0
 20
0.0
 30
0.0
 70
   128
 71
    18
 72
   -19
 73
    -2
  0
VERTEX
  5
7553
  8
0
 10
0.0
 20
0.0
 30
0.0
 70
   128
 71
   -20
 72
    12
 73
    -1
  0
VERTEX
  5
7554
  8
0
 10
0.0
 20
0.0
 30
0.0
 70
   128
 71
    19
 72
   -20
 73
    -1
  0
VERTEX
  5
7555
  8
0
 10
0.0
 20
0.0
 30
0.0
 70
   128
 71
   -21
 72
    11
 73
   -12
  0
VERTEX
  5
7556
  8
0
 10
0.0
 20
0.0
 30
0.0
 70
   128
 71
    20
 72
   -21
 73
   -12
  0
VERTEX
  5
7557
  8
0
 10
0.0
 20
0.0
 30
0.0
 70
   128
 71
   -22
 72
    10
 73
   -11
  0
VERTEX
  5
7558
  8
0
 10
0.0
 20
0.0
 30
0.0
 70
   128
 71
    21
 72
   -22
 73
   -11
  0
VERTEX
  5
7559
  8
0
 10
0.0
 20
0.0
 30
0.0
 70
   128
 71
   -23
 72
     9
 73
   -10
  0
VERTEX
  5
755A
  8
0
 10
0.0
 20
0.0
 30
0.0
 70
   128
 71
    22
 72
   -23
 73
   -10
  0
VERTEX
  5
755B
  8
0
 10
0.0
 20
0.0
 30
0.0
 70
   128
 71
   -24
 72
     8
 73
    -9
  0
VERTEX
  5
755C
  8
0
 10
0.0
 20
0.0
 30
0.0
 70
   128
 71
    23
 72
   -24
 73
    -9
  0
VERTEX
  5
755D
  8
0
 10
0.0
 20
0.0
 30
0.0
 70
   128
 71
   -13
 72
     7
 73
    -8
  0
VERTEX
  5
755E
  8
0
 10
0.0
 20
0.0
 30
0.0
 70
   128
 71
    24
 72
   -13
 73
    -8
  0
SEQEND
  5
77E0
  8
0
  0
POLYLINE
  5
755F
  8
0
 66
     1
 10
0.0
 20
0.0
 30
0.0
 70
    64
 71
    14
 72
    12
  0
VERTEX
  5
7560
  8
0
 10
365.0
 20
0.0
 30
-0.5
 70
   192
  0
VERTEX
  5
7561
  8
0
 10
365.0
 20
0.0
 30
0.0
 70
   192
  0
VERTEX
  5
7562
  8
0
 10
316.0992723813201
 20
182.5
 30
0.0
 70
   192
  0
VERTEX
  5
7563
  8
0
 10
316.0992723813201
 20
182.5
 30
-0.5
 70
   192
  0
VERTEX
  5
7564
  8
0
 10
0.0000000000001013
 20
365.0
 30
0.0
 70
   192
  0
VERTEX
  5
7565
  8
0
 10
0.0000000000001013
 20
365.0
 30
-0.5
 70
   192
  0
VERTEX
  5
7566
  8
0
 10
182.5000000000001
 20
316.0992723813201
 30
-0.5
 70
   192
  0
VERTEX
  5
7567
  8
0
 10
182.5000000000001
 20
316.0992723813201
 30
0.0
 70
   192
  0
VERTEX
  5
7568
  8
0
 10
-182.4999999999999
 20
316.0992723813202
 30
0.0
 70
   192
  0
VERTEX
  5
7569
  8
0
 10
-182.4999999999999
 20
316.0992723813202
 30
-0.5
 70
   192
  0
VERTEX
  5
756A
  8
0
 10
-365.0
 20
0.0000000000000447
 30
0.0
 70
   192
  0
VERTEX
  5
756B
  8
0
 10
-365.0
 20
0.0000000000000447
 30
-0.5
 70
   192
  0
VERTEX
  5
756C
  8
0
 10
-316.09927238132
 20
182.5000000000002
 30
-0.5
 70
   192
  0
VERTEX
  5
756D
  8
0
 10
-316.09927238132
 20
182.5000000000002
 30
0.0
 70
   192
  0
VERTEX
  5
756E
  8
0
 10
0.0
 20
0.0
 30
0.0
 70
   128
 71
     1
 72
     2
 73
    -3
  0
VERTEX
  5
756F
  8
0
 10
0.0
 20
0.0
 30
0.0
 70
   128
 71
     4
 72
    -1
 73
     3
  0
VERTEX
  5
7570
  8
0
 10
0.0
 20
0.0
 30
0.0
 70
   128
 71
     5
 72
     6
 73
    -7
  0
VERTEX
  5
7571
  8
0
 10
0.0
 20
0.0
 30
0.0
 70
   128
 71
     8
 72
    -5
 73
     7
  0
VERTEX
  5
7572
  8
0
 10
0.0
 20
0.0
 30
0.0
 70
   128
 71
     6
 72
     5
 73
    -9
  0
VERTEX
  5
7573
  8
0
 10
0.0
 20
0.0
 30
0.0
 70
   128
 71
    10
 72
    -6
 73
     9
  0
VERTEX
  5
7574
  8
0
 10
0.0
 20
0.0
 30
0.0
 70
   128
 71
    11
 72
    12
 73
   -13
  0
VERTEX
  5
7575
  8
0
 10
0.0
 20
0.0
 30
0.0
 70
   128
 71
    14
 72
   -11
 73
    13
  0
VERTEX
  5
7576
  8
0
 10
0.0
 20
0.0
 30
0.0
 70
   128
 71
     7
 72
     4
 73
    -3
  0
VERTEX
  5
7577
  8
0
 10
0.0
 20
0.0
 30
0.0
 70
   128
 71
     8
 72
    -7
 73
     3
  0
VERTEX
  5
7578
  8
0
 10
0.0
 20
0.0
 30
0.0
 70
   128
 71
    13
 72
    10
 73
    -9
  0
VERTEX
  5
7579
  8
0
 10
0.0
 20
0.0
 30
0.0
 70
   128
 71
    14
 72
   -13
 73
     9
  0
SEQEND
  5
77E1
  8
0
  0
POLYLINE
  5
757A
  8
0
 66
     1
 10
0.0
 20
0.0
 30
0.0
 70
    64
 71
    12
 72
    10
  0
VERTEX
  5
757B
  8
0
 10
365.0
 20
0.0
 30
-0.5
 70
   192
  0
VERTEX
  5
757C
  8
0
 10
316.0992723813201
 20
182.5
 30
-0.5
 70
   192
  0
VERTEX
  5
757D
  8
0
 10
182.5000000000001
 20
316.0992723813201
 30
-0.5
 70
   192
  0
VERTEX
  5
757E
  8
0
 10
0.0000000000001013
 20
365.0
 30
-0.5
 70
   192
  0
VERTEX
  5
757F
  8
0
 10
-182.4999999999999
 20
316.0992723813202
 30
-0.5
 70
   192
  0
VERTEX
  5
7580
  8
0
 10
-316.09927238132
 20
182.5000000000002
 30
-0.5
 70
   192
  0
VERTEX
  5
7581
  8
0
 10
-365.0
 20
0.0000000000002026
 30
-0.5
 70
   192
  0
VERTEX
  5
7582
  8
0
 10
-316.0992723813202
 20
-182.4999999999999
 30
-0.5
 70
   192
  0
VERTEX
  5
7583
  8
0
 10
-182.5000000000001
 20
-316.0992723813201
 30
-0.5
 70
   192
  0
VERTEX
  5
7584
  8
0
 10
-0.0000000000001418
 20
-365.0
 30
-0.5
 70
   192
  0
VERTEX
  5
7585
  8
0
 10
182.4999999999999
 20
-316.0992723813202
 30
-0.5
 70
   192
  0
VERTEX
  5
7586
  8
0
 10
316.09927238132
 20
-182.5000000000002
 30
-0.5
 70
   192
  0
VERTEX
  5
7587
  8
0
 10
0.0
 20
0.0
 30
0.0
 70
   128
 71
    11
 72
    12
 73
    -1
  0
VERTEX
  5
7588
  8
0
 10
0.0
 20
0.0
 30
0.0
 70
   128
 71
    10
 72
   -11
 73
    -1
  0
VERTEX
  5
7589
  8
0
 10
0.0
 20
0.0
 30
0.0
 70
   128
 71
     9
 72
   -10
 73
    -1
  0
VERTEX
  5
758A
  8
0
 10
0.0
 20
0.0
 30
0.0
 70
   128
 71
     8
 72
    -9
 73
    -1
  0
VERTEX
  5
758B
  8
0
 10
0.0
 20
0.0
 30
0.0
 70
   128
 71
     7
 72
    -8
 73
    -1
  0
VERTEX
  5
758C
  8
0
 10
0.0
 20
0.0
 30
0.0
 70
   128
 71
     6
 72
    -7
 73
    -1
  0
VERTEX
  5
758D
  8
0
 10
0.0
 20
0.0
 30
0.0
 70
   128
 71
     5
 72
    -6
 73
    -1
  0
VERTEX
  5
758E
  8
0
 10
0.0
 20
0.0
 30
0.0
 70
   128
 71
     4
 72
    -5
 73
    -1
  0
VERTEX
  5
758F
  8
0
 10
0.0
 20
0.0
 30
0.0
 70
   128
 71
     3
 72
    -4
 73
    -1
  0
VERTEX
  5
7590
  8
0
 10
0.0
 20
0.0
 30
0.0
 70
   128
 71
     2
 72
    -3
 73
     1
  0
SEQEND
  5
77E2
  8
0
  0
POLYLINE
  5
7591
  8
0
 66
     1
 10
0.0
 20
0.0
 30
0.0
 70
    64
 71
    14
 72
    12
  0
VERTEX
  5
7592
  8
0
 10
195.0000000000001
 20
337.749907475931
 30
-35.0
 70
   192
  0
VERTEX
  5
7593
  8
0
 10
337.7499074759311
 20
195.0
 30
-35.0
 70
   192
  0
VERTEX
  5
7594
  8
0
 10
337.7499074759311
 20
195.0
 30
-10.5
 70
   192
  0
VERTEX
  5
7595
  8
0
 10
195.0000000000001
 20
337.749907475931
 30
-10.5
 70
   192
  0
VERTEX
  5
7596
  8
0
 10
-337.749907475931
 20
195.0000000000002
 30
-35.0
 70
   192
  0
VERTEX
  5
7597
  8
0
 10
-194.9999999999999
 20
337.7499074759311
 30
-35.0
 70
   192
  0
VERTEX
  5
7598
  8
0
 10
-194.9999999999999
 20
337.7499074759311
 30
-10.5
 70
   192
  0
VERTEX
  5
7599
  8
0
 10
-337.749907475931
 20
195.0000000000002
 30
-10.5
 70
   192
  0
VERTEX
  5
759A
  8
0
 10
-390.0
 20
0.0000000000000478
 30
-35.0
 70
   192
  0
VERTEX
  5
759B
  8
0
 10
-390.0
 20
0.0000000000000478
 30
-10.5
 70
   192
  0
VERTEX
  5
759C
  8
0
 10
0.0000000000001082
 20
390.0
 30
-35.0
 70
   192
  0
VERTEX
  5
759D
  8
0
 10
0.0000000000001082
 20
390.0
 30
-10.5
 70
   192
  0
VERTEX
  5
759E
  8
0
 10
390.0
 20
0.0
 30
-35.0
 70
   192
  0
VERTEX
  5
759F
  8
0
 10
390.0
 20
0.0
 30
-10.5
 70
   192
  0
VERTEX
  5
75A0
  8
0
 10
0.0
 20
0.0
 30
0.0
 70
   128
 71
     1
 72
     2
 73
    -3
  0
VERTEX
  5
75A1
  8
0
 10
0.0
 20
0.0
 30
0.0
 70
   128
 71
     4
 72
    -1
 73
     3
  0
VERTEX
  5
75A2
  8
0
 10
0.0
 20
0.0
 30
0.0
 70
   128
 71
     5
 72
     6
 73
    -7
  0
VERTEX
  5
75A3
  8
0
 10
0.0
 20
0.0
 30
0.0
 70
   128
 71
     8
 72
    -5
 73
     7
  0
VERTEX
  5
75A4
  8
0
 10
0.0
 20
0.0
 30
0.0
 70
   128
 71
     9
 72
     5
 73
    -8
  0
VERTEX
  5
75A5
  8
0
 10
0.0
 20
0.0
 30
0.0
 70
   128
 71
    10
 72
    -9
 73
     8
  0
VERTEX
  5
75A6
  8
0
 10
0.0
 20
0.0
 30
0.0
 70
   128
 71
     6
 72
    11
 73
   -12
  0
VERTEX
  5
75A7
  8
0
 10
0.0
 20
0.0
 30
0.0
 70
   128
 71
     7
 72
    -6
 73
    12
  0
VERTEX
  5
75A8
  8
0
 10
0.0
 20
0.0
 30
0.0
 70
   128
 71
    11
 72
     1
 73
    -4
  0
VERTEX
  5
75A9
  8
0
 10
0.0
 20
0.0
 30
0.0
 70
   128
 71
    12
 72
   -11
 73
     4
  0
VERTEX
  5
75AA
  8
0
 10
0.0
 20
0.0
 30
0.0
 70
   128
 71
     2
 72
    13
 73
   -14
  0
VERTEX
  5
75AB
  8
0
 10
0.0
 20
0.0
 30
0.0
 70
   128
 71
     3
 72
    -2
 73
    14
  0
SEQEND
  5
77E3
  8
0
  0
POLYLINE
  5
75AC
  8
0
 66
     1
 10
0.0
 20
0.0
 30
0.0
 70
    64
 71
    12
 72
    10
  0
VERTEX
  5
75AD
  8
0
 10
-390.0
 20
0.0000000000000478
 30
-10.5
 70
   192
  0
VERTEX
  5
75AE
  8
0
 10
-337.7499074759311
 20
-194.9999999999999
 30
-10.5
 70
   192
  0
VERTEX
  5
75AF
  8
0
 10
-195.0000000000001
 20
-337.749907475931
 30
-10.5
 70
   192
  0
VERTEX
  5
75B0
  8
0
 10
-0.0000000000001515
 20
-390.0
 30
-10.5
 70
   192
  0
VERTEX
  5
75B1
  8
0
 10
194.9999999999999
 20
-337.7499074759312
 30
-10.5
 70
   192
  0
VERTEX
  5
75B2
  8
0
 10
337.749907475931
 20
-195.0000000000002
 30
-10.5
 70
   192
  0
VERTEX
  5
75B3
  8
0
 10
390.0
 20
0.0
 30
-10.5
 70
   192
  0
VERTEX
  5
75B4
  8
0
 10
337.7499074759311
 20
195.0
 30
-10.5
 70
   192
  0
VERTEX
  5
75B5
  8
0
 10
195.0000000000001
 20
337.749907475931
 30
-10.5
 70
   192
  0
VERTEX
  5
75B6
  8
0
 10
0.0000000000001082
 20
390.0
 30
-10.5
 70
   192
  0
VERTEX
  5
75B7
  8
0
 10
-194.9999999999999
 20
337.7499074759311
 30
-10.5
 70
   192
  0
VERTEX
  5
75B8
  8
0
 10
-337.749907475931
 20
195.0000000000002
 30
-10.5
 70
   192
  0
VERTEX
  5
75B9
  8
0
 10
0.0
 20
0.0
 30
0.0
 70
   128
 71
     1
 72
    12
 73
   -11
  0
VERTEX
  5
75BA
  8
0
 10
0.0
 20
0.0
 30
0.0
 70
   128
 71
    -1
 72
    11
 73
   -10
  0
VERTEX
  5
75BB
  8
0
 10
0.0
 20
0.0
 30
0.0
 70
   128
 71
    -1
 72
    10
 73
    -9
  0
VERTEX
  5
75BC
  8
0
 10
0.0
 20
0.0
 30
0.0
 70
   128
 71
    -1
 72
     9
 73
    -8
  0
VERTEX
  5
75BD
  8
0
 10
0.0
 20
0.0
 30
0.0
 70
   128
 71
    -1
 72
     8
 73
    -7
  0
VERTEX
  5
75BE
  8
0
 10
0.0
 20
0.0
 30
0.0
 70
   128
 71
    -1
 72
     7
 73
    -6
  0
VERTEX
  5
75BF
  8
0
 10
0.0
 20
0.0
 30
0.0
 70
   128
 71
    -1
 72
     6
 73
    -5
  0
VERTEX
  5
75C0
  8
0
 10
0.0
 20
0.0
 30
0.0
 70
   128
 71
    -1
 72
     5
 73
    -4
  0
VERTEX
  5
75C1
  8
0
 10
0.0
 20
0.0
 30
0.0
 70
   128
 71
    -1
 72
     4
 73
    -3
  0
VERTEX
  5
75C2
  8
0
 10
0.0
 20
0.0
 30
0.0
 70
   128
 71
    -1
 72
     3
 73
     2
  0
SEQEND
  5
77E4
  8
0
  0
ENDBLK
  5
77D4
  8
0
  0
BLOCK
  8
0
  2
*X2
 70
     1
 10
0.0
 20
0.0
 30
0.0
  3
*X2
  1

  0
POLYLINE
  5
75C4
  8
0
 66
     1
 10
0.0
 20
0.0
 30
0.0
 70
    64
 71
     6
 72
     4
  0
VERTEX
  5
75C5
  8
0
 10
-173.0000000000001
 20
210.0
 30
-20.5
 70
   192
  0
VERTEX
  5
75C6
  8
0
 10
-207.0
 20
210.0
 30
-20.5
 70
   192
  0
VERTEX
  5
75C7
  8
0
 10
-207.0
 20
210.0
 30
-13.5
 70
   192
  0
VERTEX
  5
75C8
  8
0
 10
-210.0
 20
210.0
 30
-13.5
 70
   192
  0
VERTEX
  5
75C9
  8
0
 10
-210.0
 20
210.0
 30
-23.5
 70
   192
  0
VERTEX
  5
75CA
  8
0
 10
-173.0000000000001
 20
210.0
 30
-23.5
 70
   192
  0
VERTEX
  5
75CB
  8
0
 10
0.0
 20
0.0
 30
0.0
 70
   128
 71
     6
 72
     1
 73
    -2
  0
VERTEX
  5
75CC
  8
0
 10
0.0
 20
0.0
 30
0.0
 70
   128
 71
     5
 72
    -6
 73
    -2
  0
VERTEX
  5
75CD
  8
0
 10
0.0
 20
0.0
 30
0.0
 70
   128
 71
     3
 72
     4
 73
    -5
  0
VERTEX
  5
75CE
  8
0
 10
0.0
 20
0.0
 30
0.0
 70
   128
 71
     2
 72
    -3
 73
    -5
  0
SEQEND
  5
77E7
  8
0
  0
POLYLINE
  5
75CF
  8
0
 66
     1
 10
0.0
 20
0.0
 30
0.0
 70
    64
 71
     6
 72
     4
  0
VERTEX
  5
75D0
  8
0
 10
-210.0
 20
175.0
 30
-10.5
 70
   192
  0
VERTEX
  5
75D1
  8
0
 10
-210.0
 20
235.0
 30
-10.5
 70
   192
  0
VERTEX
  5
75D2
  8
0
 10
-210.0
 20
235.0
 30
-23.5
 70
   192
  0
VERTEX
  5
75D3
  8
0
 10
-210.0
 20
210.0
 30
-23.5
 70
   192
  0
VERTEX
  5
75D4
  8
0
 10
-210.0
 20
210.0
 30
-13.5
 70
   192
  0
VERTEX
  5
75D5
  8
0
 10
-210.0
 20
175.0
 30
-13.5
 70
   192
  0
VERTEX
  5
75D6
  8
0
 10
0.0
 20
0.0
 30
0.0
 70
   128
 71
     3
 72
     4
 73
    -5
  0
VERTEX
  5
75D7
  8
0
 10
0.0
 20
0.0
 30
0.0
 70
   128
 71
     2
 72
    -3
 73
    -5
  0
VERTEX
  5
75D8
  8
0
 10
0.0
 20
0.0
 30
0.0
 70
   128
 71
     6
 72
     1
 73
    -2
  0
VERTEX
  5
75D9
  8
0
 10
0.0
 20
0.0
 30
0.0
 70
   128
 71
     5
 72
    -6
 73
    -2
  0
SEQEND
  5
77E8
  8
0
  0
POLYLINE
  5
75DA
  8
0
 66
     1
 10
0.0
 20
0.0
 30
0.0
 70
    64
 71
     4
 72
     2
  0
VERTEX
  5
75DB
  8
0
 10
-210.0
 20
235.0
 30
-10.5
 70
   192
  0
VERTEX
  5
75DC
  8
0
 10
-210.0
 20
235.0
 30
-23.5
 70
   192
  0
VERTEX
  5
75DD
  8
0
 10
-130.0
 20
235.0
 30
-23.5
 70
   192
  0
VERTEX
  5
75DE
  8
0
 10
-130.0
 20
235.0
 30
-10.5
 70
   192
  0
VERTEX
  5
75DF
  8
0
 10
0.0
 20
0.0
 30
0.0
 70
   128
 71
     1
 72
     4
 73
    -3
  0
VERTEX
  5
75E0
  8
0
 10
0.0
 20
0.0
 30
0.0
 70
   128
 71
    -1
 72
     3
 73
     2
  0
SEQEND
  5
77E9
  8
0
  0
POLYLINE
  5
75E1
  8
0
 66
     1
 10
0.0
 20
0.0
 30
0.0
 70
    64
 71
     6
 72
     4
  0
VERTEX
  5
75E2
  8
0
 10
-130.0
 20
235.0
 30
-10.5
 70
   192
  0
VERTEX
  5
75E3
  8
0
 10
-130.0
 20
235.0
 30
-23.5
 70
   192
  0
VERTEX
  5
75E4
  8
0
 10
-130.0
 20
210.0
 30
-23.5
 70
   192
  0
VERTEX
  5
75E5
  8
0
 10
-130.0
 20
210.0
 30
-13.5
 70
   192
  0
VERTEX
  5
75E6
  8
0
 10
-130.0
 20
175.0
 30
-13.5
 70
   192
  0
VERTEX
  5
75E7
  8
0
 10
-130.0
 20
175.0
 30
-10.5
 70
   192
  0
VERTEX
  5
75E8
  8
0
 10
0.0
 20
0.0
 30
0.0
 70
   128
 71
     4
 72
     3
 73
    -2
  0
VERTEX
  5
75E9
  8
0
 10
0.0
 20
0.0
 30
0.0
 70
   128
 71
    -4
 72
     2
 73
    -1
  0
VERTEX
  5
75EA
  8
0
 10
0.0
 20
0.0
 30
0.0
 70
   128
 71
     1
 72
     6
 73
    -5
  0
VERTEX
  5
75EB
  8
0
 10
0.0
 20
0.0
 30
0.0
 70
   128
 71
    -1
 72
     5
 73
    -4
  0
SEQEND
  5
77EA
  8
0
  0
POLYLINE
  5
75EC
  8
0
 66
     1
 10
0.0
 20
0.0
 30
0.0
 70
    64
 71
     4
 72
     2
  0
VERTEX
  5
75ED
  8
0
 10
-130.0
 20
175.0
 30
-10.5
 70
   192
  0
VERTEX
  5
75EE
  8
0
 10
-210.0
 20
175.0
 30
-10.5
 70
   192
  0
VERTEX
  5
75EF
  8
0
 10
-210.0
 20
175.0
 30
-13.5
 70
   192
  0
VERTEX
  5
75F0
  8
0
 10
-130.0
 20
175.0
 30
-13.5
 70
   192
  0
VERTEX
  5
75F1
  8
0
 10
0.0
 20
0.0
 30
0.0
 70
   128
 71
     3
 72
     4
 73
    -1
  0
VERTEX
  5
75F2
  8
0
 10
0.0
 20
0.0
 30
0.0
 70
   128
 71
     2
 72
    -3
 73
     1
  0
SEQEND
  5
77EB
  8
0
  0
POLYLINE
  5
75F3
  8
0
 66
     1
 10
0.0
 20
0.0
 30
0.0
 70
    64
 71
     8
 72
     6
  0
VERTEX
  5
75F4
  8
0
 10
-133.0
 20
232.0
 30
-13.5
 70
   192
  0
VERTEX
  5
75F5
  8
0
 10
-207.0
 20
232.0
 30
-13.5
 70
   192
  0
VERTEX
  5
75F6
  8
0
 10
-207.0
 20
210.0
 30
-13.5
 70
   192
  0
VERTEX
  5
75F7
  8
0
 10
-210.0
 20
210.0
 30
-13.5
 70
   192
  0
VERTEX
  5
75F8
  8
0
 10
-210.0
 20
175.0
 30
-13.5
 70
   192
  0
VERTEX
  5
75F9
  8
0
 10
-130.0
 20
175.0
 30
-13.5
 70
   192
  0
VERTEX
  5
75FA
  8
0
 10
-130.0
 20
210.0
 30
-13.5
 70
   192
  0
VERTEX
  5
75FB
  8
0
 10
-133.0
 20
210.0
 30
-13.5
 70
   192
  0
VERTEX
  5
75FC
  8
0
 10
0.0
 20
0.0
 30
0.0
 70
   128
 71
     8
 72
     7
 73
    -6
  0
VERTEX
  5
75FD
  8
0
 10
0.0
 20
0.0
 30
0.0
 70
   128
 71
     3
 72
     2
 73
    -1
  0
VERTEX
  5
75FE
  8
0
 10
0.0
 20
0.0
 30
0.0
 70
   128
 71
    -3
 72
     1
 73
    -8
  0
VERTEX
  5
75FF
  8
0
 10
0.0
 20
0.0
 30
0.0
 70
   128
 71
    -8
 72
     6
 73
    -5
  0
VERTEX
  5
7600
  8
0
 10
0.0
 20
0.0
 30
0.0
 70
   128
 71
    -8
 72
    -5
 73
    -3
  0
VERTEX
  5
7601
  8
0
 10
0.0
 20
0.0
 30
0.0
 70
   128
 71
     5
 72
     4
 73
    -3
  0
SEQEND
  5
77EC
  8
0
  0
POLYLINE
  5
7602
  8
0
 66
     1
 10
0.0
 20
0.0
 30
0.0
 70
    64
 71
     4
 72
     2
  0
VERTEX
  5
7603
  8
0
 10
-210.0
 20
235.0
 30
-10.5
 70
   192
  0
VERTEX
  5
7604
  8
0
 10
-210.0
 20
175.0
 30
-10.5
 70
   192
  0
VERTEX
  5
7605
  8
0
 10
-130.0
 20
175.0
 30
-10.5
 70
   192
  0
VERTEX
  5
7606
  8
0
 10
-130.0
 20
235.0
 30
-10.5
 70
   192
  0
VERTEX
  5
7607
  8
0
 10
0.0
 20
0.0
 30
0.0
 70
   128
 71
     3
 72
     4
 73
    -1
  0
VERTEX
  5
7608
  8
0
 10
0.0
 20
0.0
 30
0.0
 70
   128
 71
     2
 72
    -3
 73
     1
  0
SEQEND
  5
77ED
  8
0
  0
POLYLINE
  5
7609
  8
0
 66
     1
 10
0.0
 20
0.0
 30
0.0
 70
    64
 71
     4
 72
     2
  0
VERTEX
  5
760A
  8
0
 10
-166.9999999999999
 20
230.0
 30
-20.5
 70
   192
  0
VERTEX
  5
760B
  8
0
 10
-173.0000000000001
 20
230.0
 30
-20.5
 70
   192
  0
VERTEX
  5
760C
  8
0
 10
-173.0
 20
230.0
 30
-23.5
 70
   192
  0
VERTEX
  5
760D
  8
0
 10
-166.9999999999999
 20
230.0
 30
-23.5
 70
   192
  0
VERTEX
  5
760E
  8
0
 10
0.0
 20
0.0
 30
0.0
 70
   128
 71
     3
 72
     4
 73
    -1
  0
VERTEX
  5
760F
  8
0
 10
0.0
 20
0.0
 30
0.0
 70
   128
 71
     2
 72
    -3
 73
     1
  0
SEQEND
  5
77EE
  8
0
  0
POLYLINE
  5
7610
  8
0
 66
     1
 10
0.0
 20
0.0
 30
0.0
 70
    64
 71
     4
 72
     2
  0
VERTEX
  5
7611
  8
0
 10
-173.0
 20
230.0
 30
-20.5
 70
   192
  0
VERTEX
  5
7612
  8
0
 10
-173.0
 20
210.0
 30
-20.5
 70
   192
  0
VERTEX
  5
7613
  8
0
 10
-173.0
 20
210.0
 30
-23.5
 70
   192
  0
VERTEX
  5
7614
  8
0
 10
-173.0
 20
230.0
 30
-23.5
 70
   192
  0
VERTEX
  5
7615
  8
0
 10
0.0
 20
0.0
 30
0.0
 70
   128
 71
     3
 72
     4
 73
    -1
  0
VERTEX
  5
7616
  8
0
 10
0.0
 20
0.0
 30
0.0
 70
   128
 71
     2
 72
    -3
 73
     1
  0
SEQEND
  5
77EF
  8
0
  0
POLYLINE
  5
7617
  8
0
 66
     1
 10
0.0
 20
0.0
 30
0.0
 70
    64
 71
     6
 72
     4
  0
VERTEX
  5
7618
  8
0
 10
-133.0
 20
210.0
 30
-13.5
 70
   192
  0
VERTEX
  5
7619
  8
0
 10
-133.0
 20
210.0
 30
-20.5
 70
   192
  0
VERTEX
  5
761A
  8
0
 10
-166.9999999999999
 20
210.0
 30
-20.5
 70
   192
  0
VERTEX
  5
761B
  8
0
 10
-166.9999999999999
 20
210.0
 30
-23.5
 70
   192
  0
VERTEX
  5
761C
  8
0
 10
-130.0
 20
210.0
 30
-23.5
 70
   192
  0
VERTEX
  5
761D
  8
0
 10
-130.0
 20
210.0
 30
-13.5
 70
   192
  0
VERTEX
  5
761E
  8
0
 10
0.0
 20
0.0
 30
0.0
 70
   128
 71
     6
 72
     1
 73
    -2
  0
VERTEX
  5
761F
  8
0
 10
0.0
 20
0.0
 30
0.0
 70
   128
 71
     5
 72
    -6
 73
    -2
  0
VERTEX
  5
7620
  8
0
 10
0.0
 20
0.0
 30
0.0
 70
   128
 71
     3
 72
     4
 73
    -5
  0
VERTEX
  5
7621
  8
0
 10
0.0
 20
0.0
 30
0.0
 70
   128
 71
     2
 72
    -3
 73
    -5
  0
SEQEND
  5
77F0
  8
0
  0
POLYLINE
  5
7622
  8
0
 66
     1
 10
0.0
 20
0.0
 30
0.0
 70
    64
 71
     4
 72
     2
  0
VERTEX
  5
7623
  8
0
 10
-166.9999999999999
 20
210.0
 30
-20.5
 70
   192
  0
VERTEX
  5
7624
  8
0
 10
-166.9999999999999
 20
230.0
 30
-20.5
 70
   192
  0
VERTEX
  5
7625
  8
0
 10
-166.9999999999999
 20
230.0
 30
-23.5
 70
   192
  0
VERTEX
  5
7626
  8
0
 10
-166.9999999999999
 20
210.0
 30
-23.5
 70
   192
  0
VERTEX
  5
7627
  8
0
 10
0.0
 20
0.0
 30
0.0
 70
   128
 71
     3
 72
     4
 73
    -1
  0
VERTEX
  5
7628
  8
0
 10
0.0
 20
0.0
 30
0.0
 70
   128
 71
     2
 72
    -3
 73
     1
  0
SEQEND
  5
77F1
  8
0
  0
POLYLINE
  5
7629
  8
0
 66
     1
 10
0.0
 20
0.0
 30
0.0
 70
    64
 71
     8
 72
     6
  0
VERTEX
  5
762A
  8
0
 10
-166.9999999999999
 20
230.0
 30
-23.5
 70
   192
  0
VERTEX
  5
762B
  8
0
 10
-173.0000000000001
 20
230.0
 30
-23.5
 70
   192
  0
VERTEX
  5
762C
  8
0
 10
-173.0
 20
210.0
 30
-23.5
 70
   192
  0
VERTEX
  5
762D
  8
0
 10
-210.0
 20
210.0
 30
-23.5
 70
   192
  0
VERTEX
  5
762E
  8
0
 10
-210.0
 20
235.0
 30
-23.5
 70
   192
  0
VERTEX
  5
762F
  8
0
 10
-130.0
 20
235.0
 30
-23.5
 70
   192
  0
VERTEX
  5
7630
  8
0
 10
-130.0
 20
210.0
 30
-23.5
 70
   192
  0
VERTEX
  5
7631
  8
0
 10
-166.9999999999999
 20
210.0
 30
-23.5
 70
   192
  0
VERTEX
  5
7632
  8
0
 10
0.0
 20
0.0
 30
0.0
 70
   128
 71
     7
 72
     8
 73
    -1
  0
VERTEX
  5
7633
  8
0
 10
0.0
 20
0.0
 30
0.0
 70
   128
 71
     6
 72
    -7
 73
    -1
  0
VERTEX
  5
7634
  8
0
 10
0.0
 20
0.0
 30
0.0
 70
   128
 71
    -6
 72
     1
 73
    -2
  0
VERTEX
  5
7635
  8
0
 10
0.0
 20
0.0
 30
0.0
 70
   128
 71
     5
 72
    -6
 73
    -2
  0
VERTEX
  5
7636
  8
0
 10
0.0
 20
0.0
 30
0.0
 70
   128
 71
     3
 72
     4
 73
    -5
  0
VERTEX
  5
7637
  8
0
 10
0.0
 20
0.0
 30
0.0
 70
   128
 71
     2
 72
    -3
 73
    -5
  0
SEQEND
  5
77F2
  8
0
  0
POLYLINE
  5
7638
  8
0
 66
     1
 10
0.0
 20
0.0
 30
0.0
 70
    64
 71
     4
 72
     2
  0
VERTEX
  5
7639
  8
0
 10
-207.0
 20
210.0
 30
-13.5
 70
   192
  0
VERTEX
  5
763A
  8
0
 10
-207.0
 20
232.0
 30
-13.5
 70
   192
  0
VERTEX
  5
763B
  8
0
 10
-207.0
 20
232.0
 30
-20.5
 70
   192
  0
VERTEX
  5
763C
  8
0
 10
-207.0
 20
210.0
 30
-20.5
 70
   192
  0
VERTEX
  5
763D
  8
0
 10
0.0
 20
0.0
 30
0.0
 70
   128
 71
     1
 72
     4
 73
    -3
  0
VERTEX
  5
763E
  8
0
 10
0.0
 20
0.0
 30
0.0
 70
   128
 71
    -1
 72
     3
 73
     2
  0
SEQEND
  5
77F3
  8
0
  0
POLYLINE
  5
763F
  8
0
 66
     1
 10
0.0
 20
0.0
 30
0.0
 70
    64
 71
     4
 72
     2
  0
VERTEX
  5
7640
  8
0
 10
-133.0
 20
232.0
 30
-13.5
 70
   192
  0
VERTEX
  5
7641
  8
0
 10
-207.0
 20
232.0
 30
-13.5
 70
   192
  0
VERTEX
  5
7642
  8
0
 10
-207.0
 20
232.0
 30
-20.5
 70
   192
  0
VERTEX
  5
7643
  8
0
 10
-133.0
 20
232.0
 30
-20.5
 70
   192
  0
VERTEX
  5
7644
  8
0
 10
0.0
 20
0.0
 30
0.0
 70
   128
 71
     3
 72
     4
 73
    -1
  0
VERTEX
  5
7645
  8
0
 10
0.0
 20
0.0
 30
0.0
 70
   128
 71
     2
 72
    -3
 73
     1
  0
SEQEND
  5
77F4
  8
0
  0
POLYLINE
  5
7646
  8
0
 66
     1
 10
0.0
 20
0.0
 30
0.0
 70
    64
 71
     4
 72
     2
  0
VERTEX
  5
7647
  8
0
 10
-133.0
 20
210.0
 30
-13.5
 70
   192
  0
VERTEX
  5
7648
  8
0
 10
-133.0
 20
232.0
 30
-13.5
 70
   192
  0
VERTEX
  5
7649
  8
0
 10
-133.0
 20
232.0
 30
-20.5
 70
   192
  0
VERTEX
  5
764A
  8
0
 10
-133.0
 20
210.0
 30
-20.5
 70
   192
  0
VERTEX
  5
764B
  8
0
 10
0.0
 20
0.0
 30
0.0
 70
   128
 71
     3
 72
     4
 73
    -1
  0
VERTEX
  5
764C
  8
0
 10
0.0
 20
0.0
 30
0.0
 70
   128
 71
     2
 72
    -3
 73
     1
  0
SEQEND
  5
77F5
  8
0
  0
POLYLINE
  5
764D
  8
0
 66
     1
 10
0.0
 20
0.0
 30
0.0
 70
    64
 71
     8
 72
     6
  0
VERTEX
  5
764E
  8
0
 10
-173.0
 20
230.0
 30
-20.5
 70
   192
  0
VERTEX
  5
764F
  8
0
 10
-173.0000000000001
 20
210.0
 30
-20.5
 70
   192
  0
VERTEX
  5
7650
  8
0
 10
-207.0
 20
210.0
 30
-20.5
 70
   192
  0
VERTEX
  5
7651
  8
0
 10
-207.0
 20
232.0
 30
-20.5
 70
   192
  0
VERTEX
  5
7652
  8
0
 10
-133.0
 20
232.0
 30
-20.5
 70
   192
  0
VERTEX
  5
7653
  8
0
 10
-133.0
 20
210.0
 30
-20.5
 70
   192
  0
VERTEX
  5
7654
  8
0
 10
-166.9999999999999
 20
210.0
 30
-20.5
 70
   192
  0
VERTEX
  5
7655
  8
0
 10
-166.9999999999999
 20
230.0
 30
-20.5
 70
   192
  0
VERTEX
  5
7656
  8
0
 10
0.0
 20
0.0
 30
0.0
 70
   128
 71
     8
 72
     7
 73
    -6
  0
VERTEX
  5
7657
  8
0
 10
0.0
 20
0.0
 30
0.0
 70
   128
 71
    -8
 72
     6
 73
    -5
  0
VERTEX
  5
7658
  8
0
 10
0.0
 20
0.0
 30
0.0
 70
   128
 71
    -5
 72
     1
 73
    -8
  0
VERTEX
  5
7659
  8
0
 10
0.0
 20
0.0
 30
0.0
 70
   128
 71
     5
 72
    -4
 73
    -1
  0
VERTEX
  5
765A
  8
0
 10
0.0
 20
0.0
 30
0.0
 70
   128
 71
     4
 72
     3
 73
    -2
  0
VERTEX
  5
765B
  8
0
 10
0.0
 20
0.0
 30
0.0
 70
   128
 71
    -4
 72
     2
 73
    -1
  0
SEQEND
  5
77F6
  8
0
  0
ENDBLK
  5
77E6
  8
0
  0
BLOCK
  8
0
  2
*X3
 70
     1
 10
0.0
 20
0.0
 30
0.0
  3
*X3
  1

  0
POLYLINE
  5
765D
  8
0
 66
     1
 10
0.0
 20
0.0
 30
0.0
 70
    64
 71
     8
 72
     6
  0
VERTEX
  5
765E
  8
0
 10
130.0000000000001
 20
210.0
 30
-13.5
 70
   192
  0
VERTEX
  5
765F
  8
0
 10
130.0000000000001
 20
175.0
 30
-13.5
 70
   192
  0
VERTEX
  5
7660
  8
0
 10
210.0
 20
175.0
 30
-13.5
 70
   192
  0
VERTEX
  5
7661
  8
0
 10
210.0
 20
210.0
 30
-13.5
 70
   192
  0
VERTEX
  5
7662
  8
0
 10
207.0
 20
210.0
 30
-13.5
 70
   192
  0
VERTEX
  5
7663
  8
0
 10
207.0
 20
232.0
 30
-13.5
 70
   192
  0
VERTEX
  5
7664
  8
0
 10
133.0000000000001
 20
231.9999999999999
 30
-13.5
 70
   192
  0
VERTEX
  5
7665
  8
0
 10
133.0000000000001
 20
210.0
 30
-13.5
 70
   192
  0
VERTEX
  5
7666
  8
0
 10
0.0
 20
0.0
 30
0.0
 70
   128
 71
     5
 72
    -4
 73
    -8
  0
VERTEX
  5
7667
  8
0
 10
0.0
 20
0.0
 30
0.0
 70
   128
 71
     8
 72
     7
 73
    -6
  0
VERTEX
  5
7668
  8
0
 10
0.0
 20
0.0
 30
0.0
 70
   128
 71
    -8
 72
     6
 73
    -5
  0
VERTEX
  5
7669
  8
0
 10
0.0
 20
0.0
 30
0.0
 70
   128
 71
     4
 72
     3
 73
    -2
  0
VERTEX
  5
766A
  8
0
 10
0.0
 20
0.0
 30
0.0
 70
   128
 71
    -4
 72
    -2
 73
    -8
  0
VERTEX
  5
766B
  8
0
 10
0.0
 20
0.0
 30
0.0
 70
   128
 71
     2
 72
     1
 73
    -8
  0
SEQEND
  5
77F9
  8
0
  0
POLYLINE
  5
766C
  8
0
 66
     1
 10
0.0
 20
0.0
 30
0.0
 70
    64
 71
     6
 72
     4
  0
VERTEX
  5
766D
  8
0
 10
130.0000000000001
 20
175.0
 30
-10.5
 70
   192
  0
VERTEX
  5
766E
  8
0
 10
130.0000000000001
 20
234.9999999999999
 30
-10.5
 70
   192
  0
VERTEX
  5
766F
  8
0
 10
130.0000000000001
 20
234.9999999999999
 30
-23.5
 70
   192
  0
VERTEX
  5
7670
  8
0
 10
130.0000000000001
 20
210.0
 30
-23.5
 70
   192
  0
VERTEX
  5
7671
  8
0
 10
130.0000000000001
 20
210.0
 30
-13.5
 70
   192
  0
VERTEX
  5
7672
  8
0
 10
130.0000000000001
 20
175.0
 30
-13.5
 70
   192
  0
VERTEX
  5
7673
  8
0
 10
0.0
 20
0.0
 30
0.0
 70
   128
 71
     3
 72
     4
 73
    -5
  0
VERTEX
  5
7674
  8
0
 10
0.0
 20
0.0
 30
0.0
 70
   128
 71
     2
 72
    -3
 73
    -5
  0
VERTEX
  5
7675
  8
0
 10
0.0
 20
0.0
 30
0.0
 70
   128
 71
     6
 72
     1
 73
    -2
  0
VERTEX
  5
7676
  8
0
 10
0.0
 20
0.0
 30
0.0
 70
   128
 71
     5
 72
    -6
 73
    -2
  0
SEQEND
  5
77FA
  8
0
  0
POLYLINE
  5
7677
  8
0
 66
     1
 10
0.0
 20
0.0
 30
0.0
 70
    64
 71
     4
 72
     2
  0
VERTEX
  5
7678
  8
0
 10
130.0000000000001
 20
234.9999999999999
 30
-10.5
 70
   192
  0
VERTEX
  5
7679
  8
0
 10
130.0000000000001
 20
234.9999999999999
 30
-23.5
 70
   192
  0
VERTEX
  5
767A
  8
0
 10
210.0
 20
235.0
 30
-23.5
 70
   192
  0
VERTEX
  5
767B
  8
0
 10
210.0
 20
235.0
 30
-10.5
 70
   192
  0
VERTEX
  5
767C
  8
0
 10
0.0
 20
0.0
 30
0.0
 70
   128
 71
     1
 72
     4
 73
    -3
  0
VERTEX
  5
767D
  8
0
 10
0.0
 20
0.0
 30
0.0
 70
   128
 71
    -1
 72
     3
 73
     2
  0
SEQEND
  5
77FB
  8
0
  0
POLYLINE
  5
767E
  8
0
 66
     1
 10
0.0
 20
0.0
 30
0.0
 70
    64
 71
     6
 72
     4
  0
VERTEX
  5
767F
  8
0
 10
210.0
 20
235.0
 30
-10.5
 70
   192
  0
VERTEX
  5
7680
  8
0
 10
210.0
 20
235.0
 30
-23.5
 70
   192
  0
VERTEX
  5
7681
  8
0
 10
210.0
 20
210.0
 30
-23.5
 70
   192
  0
VERTEX
  5
7682
  8
0
 10
210.0
 20
210.0
 30
-13.5
 70
   192
  0
VERTEX
  5
7683
  8
0
 10
210.0
 20
175.0
 30
-13.5
 70
   192
  0
VERTEX
  5
7684
  8
0
 10
210.0
 20
175.0
 30
-10.5
 70
   192
  0
VERTEX
  5
7685
  8
0
 10
0.0
 20
0.0
 30
0.0
 70
   128
 71
     4
 72
     3
 73
    -2
  0
VERTEX
  5
7686
  8
0
 10
0.0
 20
0.0
 30
0.0
 70
   128
 71
    -4
 72
     2
 73
    -1
  0
VERTEX
  5
7687
  8
0
 10
0.0
 20
0.0
 30
0.0
 70
   128
 71
     1
 72
     6
 73
    -5
  0
VERTEX
  5
7688
  8
0
 10
0.0
 20
0.0
 30
0.0
 70
   128
 71
    -1
 72
     5
 73
    -4
  0
SEQEND
  5
77FC
  8
0
  0
POLYLINE
  5
7689
  8
0
 66
     1
 10
0.0
 20
0.0
 30
0.0
 70
    64
 71
     4
 72
     2
  0
VERTEX
  5
768A
  8
0
 10
210.0
 20
175.0
 30
-10.5
 70
   192
  0
VERTEX
  5
768B
  8
0
 10
130.0000000000001
 20
175.0
 30
-10.5
 70
   192
  0
VERTEX
  5
768C
  8
0
 10
130.0000000000001
 20
175.0
 30
-13.5
 70
   192
  0
VERTEX
  5
768D
  8
0
 10
210.0
 20
175.0
 30
-13.5
 70
   192
  0
VERTEX
  5
768E
  8
0
 10
0.0
 20
0.0
 30
0.0
 70
   128
 71
     3
 72
     4
 73
    -1
  0
VERTEX
  5
768F
  8
0
 10
0.0
 20
0.0
 30
0.0
 70
   128
 71
     2
 72
    -3
 73
     1
  0
SEQEND
  5
77FD
  8
0
  0
POLYLINE
  5
7690
  8
0
 66
     1
 10
0.0
 20
0.0
 30
0.0
 70
    64
 71
     4
 72
     2
  0
VERTEX
  5
7691
  8
0
 10
130.0000000000001
 20
234.9999999999999
 30
-10.5
 70
   192
  0
VERTEX
  5
7692
  8
0
 10
130.0000000000001
 20
175.0
 30
-10.5
 70
   192
  0
VERTEX
  5
7693
  8
0
 10
210.0
 20
175.0
 30
-10.5
 70
   192
  0
VERTEX
  5
7694
  8
0
 10
210.0
 20
235.0
 30
-10.5
 70
   192
  0
VERTEX
  5
7695
  8
0
 10
0.0
 20
0.0
 30
0.0
 70
   128
 71
     3
 72
     4
 73
    -1
  0
VERTEX
  5
7696
  8
0
 10
0.0
 20
0.0
 30
0.0
 70
   128
 71
     2
 72
    -3
 73
     1
  0
SEQEND
  5
77FE
  8
0
  0
POLYLINE
  5
7697
  8
0
 66
     1
 10
0.0
 20
0.0
 30
0.0
 70
    64
 71
     4
 72
     2
  0
VERTEX
  5
7698
  8
0
 10
166.9999999999999
 20
230.0
 30
-23.5
 70
   192
  0
VERTEX
  5
7699
  8
0
 10
166.9999999999999
 20
210.0
 30
-23.5
 70
   192
  0
VERTEX
  5
769A
  8
0
 10
166.9999999999999
 20
210.0
 30
-20.5
 70
   192
  0
VERTEX
  5
769B
  8
0
 10
166.9999999999999
 20
230.0
 30
-20.5
 70
   192
  0
VERTEX
  5
769C
  8
0
 10
0.0
 20
0.0
 30
0.0
 70
   128
 71
     1
 72
     4
 73
    -3
  0
VERTEX
  5
769D
  8
0
 10
0.0
 20
0.0
 30
0.0
 70
   128
 71
    -1
 72
     3
 73
     2
  0
SEQEND
  5
77FF
  8
0
  0
POLYLINE
  5
769E
  8
0
 66
     1
 10
0.0
 20
0.0
 30
0.0
 70
    64
 71
     6
 72
     4
  0
VERTEX
  5
769F
  8
0
 10
166.9999999999999
 20
210.0
 30
-20.5
 70
   192
  0
VERTEX
  5
76A0
  8
0
 10
166.9999999999999
 20
210.0
 30
-23.5
 70
   192
  0
VERTEX
  5
76A1
  8
0
 10
130.0000000000001
 20
210.0
 30
-23.5
 70
   192
  0
VERTEX
  5
76A2
  8
0
 10
130.0000000000001
 20
210.0
 30
-13.5
 70
   192
  0
VERTEX
  5
76A3
  8
0
 10
133.0000000000001
 20
210.0
 30
-13.5
 70
   192
  0
VERTEX
  5
76A4
  8
0
 10
133.0000000000001
 20
210.0
 30
-20.5
 70
   192
  0
VERTEX
  5
76A5
  8
0
 10
0.0
 20
0.0
 30
0.0
 70
   128
 71
     6
 72
     5
 73
    -4
  0
VERTEX
  5
76A6
  8
0
 10
0.0
 20
0.0
 30
0.0
 70
   128
 71
    -6
 72
     4
 73
    -3
  0
VERTEX
  5
76A7
  8
0
 10
0.0
 20
0.0
 30
0.0
 70
   128
 71
     3
 72
     2
 73
    -1
  0
VERTEX
  5
76A8
  8
0
 10
0.0
 20
0.0
 30
0.0
 70
   128
 71
    -3
 72
     1
 73
    -6
  0
SEQEND
  5
7800
  8
0
  0
POLYLINE
  5
76A9
  8
0
 66
     1
 10
0.0
 20
0.0
 30
0.0
 70
    64
 71
     6
 72
     4
  0
VERTEX
  5
76AA
  8
0
 10
207.0
 20
210.0
 30
-13.5
 70
   192
  0
VERTEX
  5
76AB
  8
0
 10
210.0
 20
210.0
 30
-13.5
 70
   192
  0
VERTEX
  5
76AC
  8
0
 10
210.0
 20
210.0
 30
-23.5
 70
   192
  0
VERTEX
  5
76AD
  8
0
 10
173.0
 20
210.0
 30
-23.5
 70
   192
  0
VERTEX
  5
76AE
  8
0
 10
173.0000000000001
 20
210.0
 30
-20.5
 70
   192
  0
VERTEX
  5
76AF
  8
0
 10
207.0
 20
210.0
 30
-20.5
 70
   192
  0
VERTEX
  5
76B0
  8
0
 10
0.0
 20
0.0
 30
0.0
 70
   128
 71
     6
 72
     5
 73
    -4
  0
VERTEX
  5
76B1
  8
0
 10
0.0
 20
0.0
 30
0.0
 70
   128
 71
    -6
 72
     4
 73
    -3
  0
VERTEX
  5
76B2
  8
0
 10
0.0
 20
0.0
 30
0.0
 70
   128
 71
     3
 72
     2
 73
    -1
  0
VERTEX
  5
76B3
  8
0
 10
0.0
 20
0.0
 30
0.0
 70
   128
 71
    -3
 72
     1
 73
    -6
  0
SEQEND
  5
7801
  8
0
  0
POLYLINE
  5
76B4
  8
0
 66
     1
 10
0.0
 20
0.0
 30
0.0
 70
    64
 71
     4
 72
     2
  0
VERTEX
  5
76B5
  8
0
 10
173.0
 20
210.0
 30
-23.5
 70
   192
  0
VERTEX
  5
76B6
  8
0
 10
173.0
 20
230.0
 30
-23.5
 70
   192
  0
VERTEX
  5
76B7
  8
0
 10
173.0
 20
230.0
 30
-20.5
 70
   192
  0
VERTEX
  5
76B8
  8
0
 10
173.0
 20
210.0
 30
-20.5
 70
   192
  0
VERTEX
  5
76B9
  8
0
 10
0.0
 20
0.0
 30
0.0
 70
   128
 71
     1
 72
     4
 73
    -3
  0
VERTEX
  5
76BA
  8
0
 10
0.0
 20
0.0
 30
0.0
 70
   128
 71
    -1
 72
     3
 73
     2
  0
SEQEND
  5
7802
  8
0
  0
POLYLINE
  5
76BB
  8
0
 66
     1
 10
0.0
 20
0.0
 30
0.0
 70
    64
 71
     4
 72
     2
  0
VERTEX
  5
76BC
  8
0
 10
173.0
 20
230.0
 30
-23.5
 70
   192
  0
VERTEX
  5
76BD
  8
0
 10
166.9999999999999
 20
230.0
 30
-23.5
 70
   192
  0
VERTEX
  5
76BE
  8
0
 10
166.9999999999999
 20
230.0
 30
-20.5
 70
   192
  0
VERTEX
  5
76BF
  8
0
 10
173.0
 20
230.0
 30
-20.5
 70
   192
  0
VERTEX
  5
76C0
  8
0
 10
0.0
 20
0.0
 30
0.0
 70
   128
 71
     1
 72
     4
 73
    -3
  0
VERTEX
  5
76C1
  8
0
 10
0.0
 20
0.0
 30
0.0
 70
   128
 71
    -1
 72
     3
 73
     2
  0
SEQEND
  5
7803
  8
0
  0
POLYLINE
  5
76C2
  8
0
 66
     1
 10
0.0
 20
0.0
 30
0.0
 70
    64
 71
     8
 72
     6
  0
VERTEX
  5
76C3
  8
0
 10
166.9999999999999
 20
230.0
 30
-23.5
 70
   192
  0
VERTEX
  5
76C4
  8
0
 10
166.9999999999999
 20
210.0
 30
-23.5
 70
   192
  0
VERTEX
  5
76C5
  8
0
 10
130.0000000000001
 20
210.0
 30
-23.5
 70
   192
  0
VERTEX
  5
76C6
  8
0
 10
130.0000000000001
 20
234.9999999999999
 30
-23.5
 70
   192
  0
VERTEX
  5
76C7
  8
0
 10
210.0
 20
235.0
 30
-23.5
 70
   192
  0
VERTEX
  5
76C8
  8
0
 10
210.0
 20
210.0
 30
-23.5
 70
   192
  0
VERTEX
  5
76C9
  8
0
 10
173.0000000000001
 20
210.0
 30
-23.5
 70
   192
  0
VERTEX
  5
76CA
  8
0
 10
173.0
 20
230.0
 30
-23.5
 70
   192
  0
VERTEX
  5
76CB
  8
0
 10
0.0
 20
0.0
 30
0.0
 70
   128
 71
     6
 72
     7
 73
    -8
  0
VERTEX
  5
76CC
  8
0
 10
0.0
 20
0.0
 30
0.0
 70
   128
 71
     5
 72
    -6
 73
    -8
  0
VERTEX
  5
76CD
  8
0
 10
0.0
 20
0.0
 30
0.0
 70
   128
 71
    -1
 72
     4
 73
    -5
  0
VERTEX
  5
76CE
  8
0
 10
0.0
 20
0.0
 30
0.0
 70
   128
 71
     8
 72
    -1
 73
    -5
  0
VERTEX
  5
76CF
  8
0
 10
0.0
 20
0.0
 30
0.0
 70
   128
 71
     2
 72
     3
 73
    -4
  0
VERTEX
  5
76D0
  8
0
 10
0.0
 20
0.0
 30
0.0
 70
   128
 71
     1
 72
    -2
 73
    -4
  0
SEQEND
  5
7804
  8
0
  0
POLYLINE
  5
76D1
  8
0
 66
     1
 10
0.0
 20
0.0
 30
0.0
 70
    64
 71
     4
 72
     2
  0
VERTEX
  5
76D2
  8
0
 10
133.0000000000001
 20
210.0
 30
-13.5
 70
   192
  0
VERTEX
  5
76D3
  8
0
 10
133.0000000000001
 20
231.9999999999999
 30
-13.5
 70
   192
  0
VERTEX
  5
76D4
  8
0
 10
133.0000000000001
 20
231.9999999999999
 30
-20.5
 70
   192
  0
VERTEX
  5
76D5
  8
0
 10
133.0000000000001
 20
210.0
 30
-20.5
 70
   192
  0
VERTEX
  5
76D6
  8
0
 10
0.0
 20
0.0
 30
0.0
 70
   128
 71
     1
 72
     4
 73
    -3
  0
VERTEX
  5
76D7
  8
0
 10
0.0
 20
0.0
 30
0.0
 70
   128
 71
    -1
 72
     3
 73
     2
  0
SEQEND
  5
7805
  8
0
  0
POLYLINE
  5
76D8
  8
0
 66
     1
 10
0.0
 20
0.0
 30
0.0
 70
    64
 71
     4
 72
     2
  0
VERTEX
  5
76D9
  8
0
 10
207.0
 20
232.0
 30
-13.5
 70
   192
  0
VERTEX
  5
76DA
  8
0
 10
133.0000000000001
 20
231.9999999999999
 30
-13.5
 70
   192
  0
VERTEX
  5
76DB
  8
0
 10
133.0000000000001
 20
231.9999999999999
 30
-20.5
 70
   192
  0
VERTEX
  5
76DC
  8
0
 10
207.0
 20
232.0
 30
-20.5
 70
   192
  0
VERTEX
  5
76DD
  8
0
 10
0.0
 20
0.0
 30
0.0
 70
   128
 71
     3
 72
     4
 73
    -1
  0
VERTEX
  5
76DE
  8
0
 10
0.0
 20
0.0
 30
0.0
 70
   128
 71
     2
 72
    -3
 73
     1
  0
SEQEND
  5
7806
  8
0
  0
POLYLINE
  5
76DF
  8
0
 66
     1
 10
0.0
 20
0.0
 30
0.0
 70
    64
 71
     4
 72
     2
  0
VERTEX
  5
76E0
  8
0
 10
207.0
 20
210.0
 30
-13.5
 70
   192
  0
VERTEX
  5
76E1
  8
0
 10
207.0
 20
232.0
 30
-13.5
 70
   192
  0
VERTEX
  5
76E2
  8
0
 10
207.0
 20
232.0
 30
-20.5
 70
   192
  0
VERTEX
  5
76E3
  8
0
 10
207.0
 20
210.0
 30
-20.5
 70
   192
  0
VERTEX
  5
76E4
  8
0
 10
0.0
 20
0.0
 30
0.0
 70
   128
 71
     3
 72
     4
 73
    -1
  0
VERTEX
  5
76E5
  8
0
 10
0.0
 20
0.0
 30
0.0
 70
   128
 71
     2
 72
    -3
 73
     1
  0
SEQEND
  5
7807
  8
0
  0
POLYLINE
  5
76E6
  8
0
 66
     1
 10
0.0
 20
0.0
 30
0.0
 70
    64
 71
     8
 72
     6
  0
VERTEX
  5
76E7
  8
0
 10
166.9999999999999
 20
210.0
 30
-20.5
 70
   192
  0
VERTEX
  5
76E8
  8
0
 10
133.0000000000001
 20
210.0
 30
-20.5
 70
   192
  0
VERTEX
  5
76E9
  8
0
 10
133.0000000000001
 20
231.9999999999999
 30
-20.5
 70
   192
  0
VERTEX
  5
76EA
  8
0
 10
207.0
 20
232.0
 30
-20.5
 70
   192
  0
VERTEX
  5
76EB
  8
0
 10
207.0
 20
210.0
 30
-20.5
 70
   192
  0
VERTEX
  5
76EC
  8
0
 10
173.0
 20
210.0
 30
-20.5
 70
   192
  0
VERTEX
  5
76ED
  8
0
 10
173.0
 20
230.0
 30
-20.5
 70
   192
  0
VERTEX
  5
76EE
  8
0
 10
166.9999999999999
 20
230.0
 30
-20.5
 70
   192
  0
VERTEX
  5
76EF
  8
0
 10
0.0
 20
0.0
 30
0.0
 70
   128
 71
     7
 72
     6
 73
    -5
  0
VERTEX
  5
76F0
  8
0
 10
0.0
 20
0.0
 30
0.0
 70
   128
 71
    -7
 72
     5
 73
    -4
  0
VERTEX
  5
76F1
  8
0
 10
0.0
 20
0.0
 30
0.0
 70
   128
 71
    -4
 72
     8
 73
    -7
  0
VERTEX
  5
76F2
  8
0
 10
0.0
 20
0.0
 30
0.0
 70
   128
 71
     4
 72
    -3
 73
    -8
  0
VERTEX
  5
76F3
  8
0
 10
0.0
 20
0.0
 30
0.0
 70
   128
 71
     3
 72
     2
 73
    -1
  0
VERTEX
  5
76F4
  8
0
 10
0.0
 20
0.0
 30
0.0
 70
   128
 71
    -3
 72
     1
 73
    -8
  0
SEQEND
  5
7808
  8
0
  0
ENDBLK
  5
77F8
  8
0
  0
BLOCK
  8
0
  2
*X4
 70
     1
 10
0.0
 20
0.0
 30
0.0
  3
*X4
  1

  0
POLYLINE
  5
76F6
  8
0
 66
     1
 10
0.0
 20
0.0
 30
0.0
 70
    64
 71
    10
 72
     8
  0
VERTEX
  5
76F7
  8
0
 10
240.0
 20
-155.0
 30
-12.00000000000001
 70
   192
  0
VERTEX
  5
76F8
  8
0
 10
240.0
 20
-155.0
 30
-18.99999999999999
 70
   192
  0
VERTEX
  5
76F9
  8
0
 10
240.0
 20
-150.0
 30
-18.99999999999999
 70
   192
  0
VERTEX
  5
76FA
  8
0
 10
240.0
 20
-150.0
 30
-12.00000000000001
 70
   192
  0
VERTEX
  5
76FB
  8
0
 10
243.5
 20
-150.0
 30
-15.5
 70
   192
  0
VERTEX
  5
76FC
  8
0
 10
243.5
 20
-155.0
 30
-15.5
 70
   192
  0
VERTEX
  5
76FD
  8
0
 10
242.4748737341529
 20
-150.0
 30
-13.02512626584709
 70
   192
  0
VERTEX
  5
76FE
  8
0
 10
242.4748737341529
 20
-155.0
 30
-13.02512626584709
 70
   192
  0
VERTEX
  5
76FF
  8
0
 10
242.4748737341529
 20
-150.0
 30
-17.97487373415291
 70
   192
  0
VERTEX
  5
7700
  8
0
 10
242.4748737341529
 20
-155.0
 30
-17.97487373415291
 70
   192
  0
VERTEX
  5
7701
  8
0
 10
0.0
 20
0.0
 30
0.0
 70
   128
 71
     7
 72
     4
 73
    -1
  0
VERTEX
  5
7702
  8
0
 10
0.0
 20
0.0
 30
0.0
 70
   128
 71
    -7
 72
     1
 73
     8
  0
VERTEX
  5
7703
  8
0
 10
0.0
 20
0.0
 30
0.0
 70
   128
 71
     6
 72
     5
 73
    -7
  0
VERTEX
  5
7704
  8
0
 10
0.0
 20
0.0
 30
0.0
 70
   128
 71
    -6
 72
     7
 73
     8
  0
VERTEX
  5
7705
  8
0
 10
0.0
 20
0.0
 30
0.0
 70
   128
 71
    10
 72
     9
 73
    -5
  0
VERTEX
  5
7706
  8
0
 10
0.0
 20
0.0
 30
0.0
 70
   128
 71
   -10
 72
     5
 73
     6
  0
VERTEX
  5
7707
  8
0
 10
0.0
 20
0.0
 30
0.0
 70
   128
 71
     2
 72
     3
 73
    -9
  0
VERTEX
  5
7708
  8
0
 10
0.0
 20
0.0
 30
0.0
 70
   128
 71
    -2
 72
     9
 73
    10
  0
SEQEND
  5
780B
  8
0
  0
POLYLINE
  5
7709
  8
0
 66
     1
 10
0.0
 20
0.0
 30
0.0
 70
    64
 71
     8
 72
     6
  0
VERTEX
  5
770A
  8
0
 10
285.0
 20
-148.6602540378444
 30
-10.5
 70
   192
  0
VERTEX
  5
770B
  8
0
 10
285.0
 20
-148.6602540378444
 30
-20.5
 70
   192
  0
VERTEX
  5
770C
  8
0
 10
288.6602540378444
 20
-145.0
 30
-20.5
 70
   192
  0
VERTEX
  5
770D
  8
0
 10
288.6602540378444
 20
-145.0
 30
-10.5
 70
   192
  0
VERTEX
  5
770E
  8
0
 10
280.0
 20
-150.0
 30
-10.5
 70
   192
  0
VERTEX
  5
770F
  8
0
 10
280.0
 20
-150.0
 30
-20.5
 70
   192
  0
VERTEX
  5
7710
  8
0
 10
290.0
 20
-140.0
 30
-20.5
 70
   192
  0
VERTEX
  5
7711
  8
0
 10
290.0000000000001
 20
-140.0
 30
-10.5
 70
   192
  0
VERTEX
  5
7712
  8
0
 10
0.0
 20
0.0
 30
0.0
 70
   128
 71
     1
 72
     2
 73
    -3
  0
VERTEX
  5
7713
  8
0
 10
0.0
 20
0.0
 30
0.0
 70
   128
 71
    -1
 72
     3
 73
     4
  0
VERTEX
  5
7714
  8
0
 10
0.0
 20
0.0
 30
0.0
 70
   128
 71
     5
 72
     6
 73
    -2
  0
VERTEX
  5
7715
  8
0
 10
0.0
 20
0.0
 30
0.0
 70
   128
 71
    -5
 72
     2
 73
     1
  0
VERTEX
  5
7716
  8
0
 10
0.0
 20
0.0
 30
0.0
 70
   128
 71
     4
 72
     3
 73
    -7
  0
VERTEX
  5
7717
  8
0
 10
0.0
 20
0.0
 30
0.0
 70
   128
 71
    -4
 72
     7
 73
     8
  0
SEQEND
  5
780C
  8
0
  0
POLYLINE
  5
7718
  8
0
 66
     1
 10
0.0
 20
0.0
 30
0.0
 70
    64
 71
    12
 72
    12
  0
VERTEX
  5
7719
  8
0
 10
280.0
 20
-150.0
 30
-10.5
 70
   192
  0
VERTEX
  5
771A
  8
0
 10
280.0
 20
-150.0
 30
-20.5
 70
   192
  0
VERTEX
  5
771B
  8
0
 10
99.99999999999994
 20
-150.0
 30
-20.5
 70
   192
  0
VERTEX
  5
771C
  8
0
 10
99.99999999999994
 20
-150.0
 30
-10.5
 70
   192
  0
VERTEX
  5
771D
  8
0
 10
240.0
 20
-150.0
 30
-18.99999999999999
 70
   192
  0
VERTEX
  5
771E
  8
0
 10
242.4748737341529
 20
-150.0
 30
-17.97487373415291
 70
   192
  0
VERTEX
  5
771F
  8
0
 10
243.5
 20
-150.0
 30
-15.5
 70
   192
  0
VERTEX
  5
7720
  8
0
 10
242.4748737341529
 20
-150.0
 30
-13.02512626584709
 70
   192
  0
VERTEX
  5
7721
  8
0
 10
240.0
 20
-150.0
 30
-12.00000000000001
 70
   192
  0
VERTEX
  5
7722
  8
0
 10
237.5251262658471
 20
-150.0
 30
-13.02512626584709
 70
   192
  0
VERTEX
  5
7723
  8
0
 10
236.5
 20
-150.0
 30
-15.5
 70
   192
  0
VERTEX
  5
7724
  8
0
 10
237.5251262658471
 20
-150.0
 30
-17.97487373415291
 70
   192
  0
VERTEX
  5
7725
  8
0
 10
0.0
 20
0.0
 30
0.0
 70
   128
 71
     6
 72
    -5
 73
    -2
  0
VERTEX
  5
7726
  8
0
 10
0.0
 20
0.0
 30
0.0
 70
   128
 71
     2
 72
    -1
 73
    -7
  0
VERTEX
  5
7727
  8
0
 10
0.0
 20
0.0
 30
0.0
 70
   128
 71
    -2
 72
     7
 73
    -6
  0
VERTEX
  5
7728
  8
0
 10
0.0
 20
0.0
 30
0.0
 70
   128
 71
    -1
 72
     8
 73
    -7
  0
VERTEX
  5
7729
  8
0
 10
0.0
 20
0.0
 30
0.0
 70
   128
 71
    -1
 72
     9
 73
    -8
  0
VERTEX
  5
772A
  8
0
 10
0.0
 20
0.0
 30
0.0
 70
   128
 71
    -9
 72
     1
 73
    -4
  0
VERTEX
  5
772B
  8
0
 10
0.0
 20
0.0
 30
0.0
 70
   128
 71
    -4
 72
    10
 73
    -9
  0
VERTEX
  5
772C
  8
0
 10
0.0
 20
0.0
 30
0.0
 70
   128
 71
     4
 72
    -3
 73
   -11
  0
VERTEX
  5
772D
  8
0
 10
0.0
 20
0.0
 30
0.0
 70
   128
 71
    -4
 72
    11
 73
   -10
  0
VERTEX
  5
772E
  8
0
 10
0.0
 20
0.0
 30
0.0
 70
   128
 71
    -3
 72
    12
 73
   -11
  0
VERTEX
  5
772F
  8
0
 10
0.0
 20
0.0
 30
0.0
 70
   128
 71
    -3
 72
     5
 73
   -12
  0
VERTEX
  5
7730
  8
0
 10
0.0
 20
0.0
 30
0.0
 70
   128
 71
     3
 72
    -2
 73
    -5
  0
SEQEND
  5
780D
  8
0
  0
POLYLINE
  5
7731
  8
0
 66
     1
 10
0.0
 20
0.0
 30
0.0
 70
    64
 71
     8
 72
     6
  0
VERTEX
  5
7732
  8
0
 10
91.33974596215556
 20
-145.0
 30
-10.5
 70
   192
  0
VERTEX
  5
7733
  8
0
 10
91.33974596215556
 20
-145.0
 30
-20.5
 70
   192
  0
VERTEX
  5
7734
  8
0
 10
94.99999999999994
 20
-148.6602540378443
 30
-20.5
 70
   192
  0
VERTEX
  5
7735
  8
0
 10
94.99999999999994
 20
-148.6602540378443
 30
-10.5
 70
   192
  0
VERTEX
  5
7736
  8
0
 10
89.99999999999994
 20
-140.0
 30
-10.5
 70
   192
  0
VERTEX
  5
7737
  8
0
 10
89.99999999999997
 20
-140.0
 30
-20.5
 70
   192
  0
VERTEX
  5
7738
  8
0
 10
99.99999999999994
 20
-150.0
 30
-20.5
 70
   192
  0
VERTEX
  5
7739
  8
0
 10
99.99999999999994
 20
-150.0
 30
-10.5
 70
   192
  0
VERTEX
  5
773A
  8
0
 10
0.0
 20
0.0
 30
0.0
 70
   128
 71
     1
 72
     2
 73
    -3
  0
VERTEX
  5
773B
  8
0
 10
0.0
 20
0.0
 30
0.0
 70
   128
 71
    -1
 72
     3
 73
     4
  0
VERTEX
  5
773C
  8
0
 10
0.0
 20
0.0
 30
0.0
 70
   128
 71
     5
 72
     6
 73
    -2
  0
VERTEX
  5
773D
  8
0
 10
0.0
 20
0.0
 30
0.0
 70
   128
 71
    -5
 72
     2
 73
     1
  0
VERTEX
  5
773E
  8
0
 10
0.0
 20
0.0
 30
0.0
 70
   128
 71
     4
 72
     3
 73
    -7
  0
VERTEX
  5
773F
  8
0
 10
0.0
 20
0.0
 30
0.0
 70
   128
 71
    -4
 72
     7
 73
     8
  0
SEQEND
  5
780E
  8
0
  0
POLYLINE
  5
7740
  8
0
 66
     1
 10
0.0
 20
0.0
 30
0.0
 70
    64
 71
     4
 72
     2
  0
VERTEX
  5
7741
  8
0
 10
89.99999999999997
 20
-140.0
 30
-10.5
 70
   192
  0
VERTEX
  5
7742
  8
0
 10
89.99999999999997
 20
-140.0
 30
-20.5
 70
   192
  0
VERTEX
  5
7743
  8
0
 10
90.0
 20
20.0
 30
-20.5
 70
   192
  0
VERTEX
  5
7744
  8
0
 10
90.00000000000001
 20
20.0
 30
-10.5
 70
   192
  0
VERTEX
  5
7745
  8
0
 10
0.0
 20
0.0
 30
0.0
 70
   128
 71
     1
 72
     4
 73
    -3
  0
VERTEX
  5
7746
  8
0
 10
0.0
 20
0.0
 30
0.0
 70
   128
 71
    -1
 72
     3
 73
     2
  0
SEQEND
  5
780F
  8
0
  0
POLYLINE
  5
7747
  8
0
 66
     1
 10
0.0
 20
0.0
 30
0.0
 70
    64
 71
     8
 72
     6
  0
VERTEX
  5
7748
  8
0
 10
94.99999999999999
 20
28.66025403784437
 30
-10.5
 70
   192
  0
VERTEX
  5
7749
  8
0
 10
94.99999999999999
 20
28.66025403784437
 30
-20.5
 70
   192
  0
VERTEX
  5
774A
  8
0
 10
91.3397459621556
 20
24.99999999999999
 30
-20.5
 70
   192
  0
VERTEX
  5
774B
  8
0
 10
91.3397459621556
 20
24.99999999999999
 30
-10.5
 70
   192
  0
VERTEX
  5
774C
  8
0
 10
100.0
 20
29.99999999999999
 30
-10.5
 70
   192
  0
VERTEX
  5
774D
  8
0
 10
100.0
 20
30.0
 30
-20.5
 70
   192
  0
VERTEX
  5
774E
  8
0
 10
90.0
 20
20.0
 30
-20.5
 70
   192
  0
VERTEX
  5
774F
  8
0
 10
90.0
 20
20.0
 30
-10.5
 70
   192
  0
VERTEX
  5
7750
  8
0
 10
0.0
 20
0.0
 30
0.0
 70
   128
 71
     1
 72
     2
 73
    -3
  0
VERTEX
  5
7751
  8
0
 10
0.0
 20
0.0
 30
0.0
 70
   128
 71
    -1
 72
     3
 73
     4
  0
VERTEX
  5
7752
  8
0
 10
0.0
 20
0.0
 30
0.0
 70
   128
 71
     5
 72
     6
 73
    -2
  0
VERTEX
  5
7753
  8
0
 10
0.0
 20
0.0
 30
0.0
 70
   128
 71
    -5
 72
     2
 73
     1
  0
VERTEX
  5
7754
  8
0
 10
0.0
 20
0.0
 30
0.0
 70
   128
 71
     4
 72
     3
 73
    -7
  0
VERTEX
  5
7755
  8
0
 10
0.0
 20
0.0
 30
0.0
 70
   128
 71
    -4
 72
     7
 73
     8
  0
SEQEND
  5
7810
  8
0
  0
POLYLINE
  5
7756
  8
0
 66
     1
 10
0.0
 20
0.0
 30
0.0
 70
    64
 71
     4
 72
     2
  0
VERTEX
  5
7757
  8
0
 10
100.0
 20
30.0
 30
-10.5
 70
   192
  0
VERTEX
  5
7758
  8
0
 10
100.0
 20
30.0
 30
-20.5
 70
   192
  0
VERTEX
  5
7759
  8
0
 10
280.0
 20
30.0
 30
-20.5
 70
   192
  0
VERTEX
  5
775A
  8
0
 10
280.0
 20
30.0
 30
-10.5
 70
   192
  0
VERTEX
  5
775B
  8
0
 10
0.0
 20
0.0
 30
0.0
 70
   128
 71
     1
 72
     4
 73
    -3
  0
VERTEX
  5
775C
  8
0
 10
0.0
 20
0.0
 30
0.0
 70
   128
 71
    -1
 72
     3
 73
     2
  0
SEQEND
  5
7811
  8
0
  0
POLYLINE
  5
775D
  8
0
 66
     1
 10
0.0
 20
0.0
 30
0.0
 70
    64
 71
     8
 72
     6
  0
VERTEX
  5
775E
  8
0
 10
288.6602540378444
 20
25.0
 30
-10.5
 70
   192
  0
VERTEX
  5
775F
  8
0
 10
288.6602540378444
 20
25.0
 30
-20.5
 70
   192
  0
VERTEX
  5
7760
  8
0
 10
285.0
 20
28.66025403784439
 30
-20.5
 70
   192
  0
VERTEX
  5
7761
  8
0
 10
285.0
 20
28.66025403784439
 30
-10.5
 70
   192
  0
VERTEX
  5
7762
  8
0
 10
290.0
 20
20.0
 30
-10.5
 70
   192
  0
VERTEX
  5
7763
  8
0
 10
290.0000000000001
 20
20.0
 30
-20.5
 70
   192
  0
VERTEX
  5
7764
  8
0
 10
280.0
 20
30.00000000000001
 30
-20.5
 70
   192
  0
VERTEX
  5
7765
  8
0
 10
280.0
 20
30.0
 30
-10.5
 70
   192
  0
VERTEX
  5
7766
  8
0
 10
0.0
 20
0.0
 30
0.0
 70
   128
 71
     1
 72
     2
 73
    -3
  0
VERTEX
  5
7767
  8
0
 10
0.0
 20
0.0
 30
0.0
 70
   128
 71
    -1
 72
     3
 73
     4
  0
VERTEX
  5
7768
  8
0
 10
0.0
 20
0.0
 30
0.0
 70
   128
 71
     5
 72
     6
 73
    -2
  0
VERTEX
  5
7769
  8
0
 10
0.0
 20
0.0
 30
0.0
 70
   128
 71
    -5
 72
     2
 73
     1
  0
VERTEX
  5
776A
  8
0
 10
0.0
 20
0.0
 30
0.0
 70
   128
 71
     4
 72
     3
 73
    -7
  0
VERTEX
  5
776B
  8
0
 10
0.0
 20
0.0
 30
0.0
 70
   128
 71
    -4
 72
     7
 73
     8
  0
SEQEND
  5
7812
  8
0
  0
POLYLINE
  5
776C
  8
0
 66
     1
 10
0.0
 20
0.0
 30
0.0
 70
    64
 71
     4
 72
     2
  0
VERTEX
  5
776D
  8
0
 10
290.0000000000001
 20
20.0
 30
-10.5
 70
   192
  0
VERTEX
  5
776E
  8
0
 10
290.0000000000001
 20
20.0
 30
-20.5
 70
   192
  0
VERTEX
  5
776F
  8
0
 10
290.0000000000001
 20
-140.0
 30
-20.5
 70
   192
  0
VERTEX
  5
7770
  8
0
 10
290.0000000000001
 20
-140.0
 30
-10.5
 70
   192
  0
VERTEX
  5
7771
  8
0
 10
0.0
 20
0.0
 30
0.0
 70
   128
 71
     1
 72
     4
 73
    -3
  0
VERTEX
  5
7772
  8
0
 10
0.0
 20
0.0
 30
0.0
 70
   128
 71
    -1
 72
     3
 73
     2
  0
SEQEND
  5
7813
  8
0
  0
POLYLINE
  5
7773
  8
0
 66
     1
 10
0.0
 20
0.0
 30
0.0
 70
    64
 71
    16
 72
    14
  0
VERTEX
  5
7774
  8
0
 10
290.0
 20
-140.0
 30
-20.5
 70
   192
  0
VERTEX
  5
7775
  8
0
 10
288.6602540378444
 20
-145.0
 30
-20.5
 70
   192
  0
VERTEX
  5
7776
  8
0
 10
285.0
 20
-148.6602540378444
 30
-20.5
 70
   192
  0
VERTEX
  5
7777
  8
0
 10
280.0
 20
-150.0
 30
-20.5
 70
   192
  0
VERTEX
  5
7778
  8
0
 10
99.99999999999994
 20
-150.0
 30
-20.5
 70
   192
  0
VERTEX
  5
7779
  8
0
 10
94.99999999999994
 20
-148.6602540378443
 30
-20.5
 70
   192
  0
VERTEX
  5
777A
  8
0
 10
91.33974596215556
 20
-145.0
 30
-20.5
 70
   192
  0
VERTEX
  5
777B
  8
0
 10
89.99999999999994
 20
-140.0
 30
-20.5
 70
   192
  0
VERTEX
  5
777C
  8
0
 10
90.00000000000001
 20
20.0
 30
-20.5
 70
   192
  0
VERTEX
  5
777D
  8
0
 10
91.3397459621556
 20
24.99999999999999
 30
-20.5
 70
   192
  0
VERTEX
  5
777E
  8
0
 10
94.99999999999999
 20
28.66025403784437
 30
-20.5
 70
   192
  0
VERTEX
  5
777F
  8
0
 10
100.0
 20
29.99999999999999
 30
-20.5
 70
   192
  0
VERTEX
  5
7780
  8
0
 10
280.0
 20
30.0
 30
-20.5
 70
   192
  0
VERTEX
  5
7781
  8
0
 10
285.0
 20
28.66025403784439
 30
-20.5
 70
   192
  0
VERTEX
  5
7782
  8
0
 10
288.6602540378444
 20
25.0
 30
-20.5
 70
   192
  0
VERTEX
  5
7783
  8
0
 10
290.0
 20
20.0
 30
-20.5
 70
   192
  0
VERTEX
  5
7784
  8
0
 10
0.0
 20
0.0
 30
0.0
 70
   128
 71
    15
 72
    16
 73
    -1
  0
VERTEX
  5
7785
  8
0
 10
0.0
 20
0.0
 30
0.0
 70
   128
 71
    14
 72
   -15
 73
    -1
  0
VERTEX
  5
7786
  8
0
 10
0.0
 20
0.0
 30
0.0
 70
   128
 71
    13
 72
   -14
 73
    -1
  0
VERTEX
  5
7787
  8
0
 10
0.0
 20
0.0
 30
0.0
 70
   128
 71
    12
 72
   -13
 73
    -1
  0
VERTEX
  5
7788
  8
0
 10
0.0
 20
0.0
 30
0.0
 70
   128
 71
    11
 72
   -12
 73
    -1
  0
VERTEX
  5
7789
  8
0
 10
0.0
 20
0.0
 30
0.0
 70
   128
 71
    10
 72
   -11
 73
    -1
  0
VERTEX
  5
778A
  8
0
 10
0.0
 20
0.0
 30
0.0
 70
   128
 71
     9
 72
   -10
 73
    -1
  0
VERTEX
  5
778B
  8
0
 10
0.0
 20
0.0
 30
0.0
 70
   128
 71
     8
 72
    -9
 73
    -1
  0
VERTEX
  5
778C
  8
0
 10
0.0
 20
0.0
 30
0.0
 70
   128
 71
     7
 72
    -8
 73
    -1
  0
VERTEX
  5
778D
  8
0
 10
0.0
 20
0.0
 30
0.0
 70
   128
 71
     6
 72
    -7
 73
    -1
  0
VERTEX
  5
778E
  8
0
 10
0.0
 20
0.0
 30
0.0
 70
   128
 71
     5
 72
    -6
 73
    -1
  0
VERTEX
  5
778F
  8
0
 10
0.0
 20
0.0
 30
0.0
 70
   128
 71
     4
 72
    -5
 73
    -1
  0
VERTEX
  5
7790
  8
0
 10
0.0
 20
0.0
 30
0.0
 70
   128
 71
     3
 72
    -4
 73
    -1
  0
VERTEX
  5
7791
  8
0
 10
0.0
 20
0.0
 30
0.0
 70
   128
 71
     2
 72
    -3
 73
     1
  0
SEQEND
  5
7814
  8
0
  0
POLYLINE
  5
7792
  8
0
 66
     1
 10
0.0
 20
0.0
 30
0.0
 70
    64
 71
    16
 72
    14
  0
VERTEX
  5
7793
  8
0
 10
280.0
 20
-150.0
 30
-10.5
 70
   192
  0
VERTEX
  5
7794
  8
0
 10
99.99999999999994
 20
-150.0
 30
-10.5
 70
   192
  0
VERTEX
  5
7795
  8
0
 10
94.99999999999994
 20
-148.6602540378443
 30
-10.5
 70
   192
  0
VERTEX
  5
7796
  8
0
 10
91.33974596215556
 20
-145.0
 30
-10.5
 70
   192
  0
VERTEX
  5
7797
  8
0
 10
89.99999999999997
 20
-140.0
 30
-10.5
 70
   192
  0
VERTEX
  5
7798
  8
0
 10
90.0
 20
20.0
 30
-10.5
 70
   192
  0
VERTEX
  5
7799
  8
0
 10
91.3397459621556
 20
24.99999999999999
 30
-10.5
 70
   192
  0
VERTEX
  5
779A
  8
0
 10
94.99999999999999
 20
28.66025403784437
 30
-10.5
 70
   192
  0
VERTEX
  5
779B
  8
0
 10
100.0
 20
30.0
 30
-10.5
 70
   192
  0
VERTEX
  5
779C
  8
0
 10
280.0
 20
30.00000000000001
 30
-10.5
 70
   192
  0
VERTEX
  5
779D
  8
0
 10
285.0
 20
28.66025403784439
 30
-10.5
 70
   192
  0
VERTEX
  5
779E
  8
0
 10
288.6602540378444
 20
25.0
 30
-10.5
 70
   192
  0
VERTEX
  5
779F
  8
0
 10
290.0000000000001
 20
20.0
 30
-10.5
 70
   192
  0
VERTEX
  5
77A0
  8
0
 10
290.0
 20
-140.0
 30
-10.5
 70
   192
  0
VERTEX
  5
77A1
  8
0
 10
288.6602540378444
 20
-145.0
 30
-10.5
 70
   192
  0
VERTEX
  5
77A2
  8
0
 10
285.0
 20
-148.6602540378444
 30
-10.5
 70
   192
  0
VERTEX
  5
77A3
  8
0
 10
0.0
 20
0.0
 30
0.0
 70
   128
 71
     1
 72
    16
 73
   -15
  0
VERTEX
  5
77A4
  8
0
 10
0.0
 20
0.0
 30
0.0
 70
   128
 71
    -1
 72
    15
 73
   -14
  0
VERTEX
  5
77A5
  8
0
 10
0.0
 20
0.0
 30
0.0
 70
   128
 71
    -1
 72
    14
 73
   -13
  0
VERTEX
  5
77A6
  8
0
 10
0.0
 20
0.0
 30
0.0
 70
   128
 71
    -1
 72
    13
 73
   -12
  0
VERTEX
  5
77A7
  8
0
 10
0.0
 20
0.0
 30
0.0
 70
   128
 71
    -1
 72
    12
 73
   -11
  0
VERTEX
  5
77A8
  8
0
 10
0.0
 20
0.0
 30
0.0
 70
   128
 71
    -1
 72
    11
 73
   -10
  0
VERTEX
  5
77A9
  8
0
 10
0.0
 20
0.0
 30
0.0
 70
   128
 71
    -1
 72
    10
 73
    -9
  0
VERTEX
  5
77AA
  8
0
 10
0.0
 20
0.0
 30
0.0
 70
   128
 71
    -1
 72
     9
 73
    -8
  0
VERTEX
  5
77AB
  8
0
 10
0.0
 20
0.0
 30
0.0
 70
   128
 71
    -1
 72
     8
 73
    -7
  0
VERTEX
  5
77AC
  8
0
 10
0.0
 20
0.0
 30
0.0
 70
   128
 71
    -1
 72
     7
 73
    -6
  0
VERTEX
  5
77AD
  8
0
 10
0.0
 20
0.0
 30
0.0
 70
   128
 71
    -1
 72
     6
 73
    -5
  0
VERTEX
  5
77AE
  8
0
 10
0.0
 20
0.0
 30
0.0
 70
   128
 71
    -1
 72
     5
 73
    -4
  0
VERTEX
  5
77AF
  8
0
 10
0.0
 20
0.0
 30
0.0
 70
   128
 71
    -1
 72
     4
 73
    -3
  0
VERTEX
  5
77B0
  8
0
 10
0.0
 20
0.0
 30
0.0
 70
   128
 71
    -1
 72
     3
 73
     2
  0
SEQEND
  5
7815
  8
0
  0
POLYLINE
  5
77B1
  8
0
 66
     1
 10
0.0
 20
0.0
 30
0.0
 70
    64
 71
    10
 72
     8
  0
VERTEX
  5
77B2
  8
0
 10
240.0
 20
-155.0
 30
-18.99999999999999
 70
   192
  0
VERTEX
  5
77B3
  8
0
 10
240.0
 20
-155.0
 30
-12.00000000000001
 70
   192
  0
VERTEX
  5
77B4
  8
0
 10
240.0
 20
-150.0
 30
-12.00000000000001
 70
   192
  0
VERTEX
  5
77B5
  8
0
 10
240.0
 20
-150.0
 30
-18.99999999999999
 70
   192
  0
VERTEX
  5
77B6
  8
0
 10
236.5
 20
-150.0
 30
-15.5
 70
   192
  0
VERTEX
  5
77B7
  8
0
 10
236.5
 20
-155.0
 30
-15.5
 70
   192
  0
VERTEX
  5
77B8
  8
0
 10
237.5251262658471
 20
-150.0
 30
-17.97487373415291
 70
   192
  0
VERTEX
  5
77B9
  8
0
 10
237.5251262658471
 20
-155.0
 30
-17.97487373415291
 70
   192
  0
VERTEX
  5
77BA
  8
0
 10
237.5251262658471
 20
-150.0
 30
-13.02512626584709
 70
   192
  0
VERTEX
  5
77BB
  8
0
 10
237.5251262658471
 20
-155.0
 30
-13.02512626584709
 70
   192
  0
VERTEX
  5
77BC
  8
0
 10
0.0
 20
0.0
 30
0.0
 70
   128
 71
     8
 72
     7
 73
    -4
  0
VERTEX
  5
77BD
  8
0
 10
0.0
 20
0.0
 30
0.0
 70
   128
 71
    -8
 72
     4
 73
     1
  0
VERTEX
  5
77BE
  8
0
 10
0.0
 20
0.0
 30
0.0
 70
   128
 71
     6
 72
     5
 73
    -7
  0
VERTEX
  5
77BF
  8
0
 10
0.0
 20
0.0
 30
0.0
 70
   128
 71
    -6
 72
     7
 73
     8
  0
VERTEX
  5
77C0
  8
0
 10
0.0
 20
0.0
 30
0.0
 70
   128
 71
    10
 72
     9
 73
    -5
  0
VERTEX
  5
77C1
  8
0
 10
0.0
 20
0.0
 30
0.0
 70
   128
 71
   -10
 72
     5
 73
     6
  0
VERTEX
  5
77C2
  8
0
 10
0.0
 20
0.0
 30
0.0
 70
   128
 71
     2
 72
     3
 73
    -9
  0
VERTEX
  5
77C3
  8
0
 10
0.0
 20
0.0
 30
0.0
 70
   128
 71
    -2
 72
     9
 73
    10
  0
SEQEND
  5
7816
  8
0
  0
POLYLINE
  5
77C4
  8
0
 66
     1
 10
0.0
 20
0.0
 30
0.0
 70
    64
 71
     8
 72
     6
  0
VERTEX
  5
77C5
  8
0
 10
240.0
 20
-155.0
 30
-12.00000000000001
 70
   192
  0
VERTEX
  5
77C6
  8
0
 10
237.5251262658471
 20
-155.0
 30
-13.02512626584709
 70
   192
  0
VERTEX
  5
77C7
  8
0
 10
236.5
 20
-155.0
 30
-15.5
 70
   192
  0
VERTEX
  5
77C8
  8
0
 10
237.5251262658471
 20
-155.0
 30
-17.97487373415291
 70
   192
  0
VERTEX
  5
77C9
  8
0
 10
240.0
 20
-155.0
 30
-18.99999999999999
 70
   192
  0
VERTEX
  5
77CA
  8
0
 10
242.4748737341529
 20
-155.0
 30
-17.97487373415291
 70
   192
  0
VERTEX
  5
77CB
  8
0
 10
243.5
 20
-155.0
 30
-15.5
 70
   192
  0
VERTEX
  5
77CC
  8
0
 10
242.4748737341529
 20
-155.0
 30
-13.02512626584709
 70
   192
  0
VERTEX
  5
77CD
  8
0
 10
0.0
 20
0.0
 30
0.0
 70
   128
 71
     7
 72
     8
 73
    -1
  0
VERTEX
  5
77CE
  8
0
 10
0.0
 20
0.0
 30
0.0
 70
   128
 71
     6
 72
    -7
 73
    -1
  0
VERTEX
  5
77CF
  8
0
 10
0.0
 20
0.0
 30
0.0
 70
   128
 71
     5
 72
    -6
 73
    -1
  0
VERTEX
  5
77D0
  8
0
 10
0.0
 20
0.0
 30
0.0
 70
   128
 71
     4
 72
    -5
 73
    -1
  0
VERTEX
  5
77D1
  8
0
 10
0.0
 20
0.0
 30
0.0
 70
   128
 71
     3
 72
    -4
 73
    -1
  0
VERTEX
  5
77D2
  8
0
 10
0.0
 20
0.0
 30
0.0
 70
   128
 71
     2
 72
    -3
 73
     1
  0
SEQEND
  5
7817
  8
0
  0
ENDBLK
  5
780A
  8
0
  0
ENDSEC
  0
SECTION
  2
ENTITIES
  0
INSERT
  5
6F61
  8
0
  2
*X1
 10
0.0
 20
0.0
 30
0.0
  0
INSERT
  5
6F62
  8
0
  2
*X2
 10
0.0
 20
0.0
 30
0.0
  0
INSERT
  5
6F63
  8
0
  2
*X3
 10
0.0
 20
0.0
 30
0.0
  0
INSERT
  5
6F64
  8
0
  2
*X4
 10
0.0
 20
0.0
 30
0.0
  0
ENDSEC
  0
EOF
