  0
SECTION
  2
HEADER
  9
$ACADVER
  1
AC1009
  9
$DWGCODEPAGE
  3
ansi_1250
  9
$INSBASE
 10
0.0
 20
0.0
 30
0.0
  9
$EXTMIN
 10
-25.0
 20
-25.00000000000003
 30
-0.0000000000000013
  9
$EXTMAX
 10
169.0
 20
25.0
 30
193.8000000000002
  9
$LIMMIN
 10
0.0
 20
0.0
  9
$LIMMAX
 10
420.0
 20
297.0
  9
$ORTHOMODE
 70
     0
  9
$REGENMODE
 70
     1
  9
$FILLMODE
 70
     1
  9
$QTEXTMODE
 70
     0
  9
$MIRRTEXT
 70
     0
  9
$DRAGMODE
 70
     2
  9
$LTSCALE
 40
1.0
  9
$OSMODE
 70
   511
  9
$ATTMODE
 70
     1
  9
$TEXTSIZE
 40
2.5
  9
$TRACEWID
 40
1.0
  9
$TEXTSTYLE
  7
STANDARD
  9
$CLAYER
  8
0
  9
$CELTYPE
  6
BYLAYER
  9
$CECOLOR
 62
   256
  9
$DIMSCALE
 40
1.0
  9
$DIMASZ
 40
2.5
  9
$DIMEXO
 40
0.625
  9
$DIMDLI
 40
3.75
  9
$DIMRND
 40
0.0
  9
$DIMDLE
 40
0.0
  9
$DIMEXE
 40
1.25
  9
$DIMTP
 40
0.0
  9
$DIMTM
 40
0.0
  9
$DIMTXT
 40
2.5
  9
$DIMCEN
 40
-2.5
  9
$DIMTSZ
 40
0.0
  9
$DIMTOL
 70
     0
  9
$DIMLIM
 70
     0
  9
$DIMTIH
 70
     0
  9
$DIMTOH
 70
     0
  9
$DIMSE1
 70
     0
  9
$DIMSE2
 70
     0
  9
$DIMTAD
 70
     1
  9
$DIMZIN
 70
     8
  9
$DIMBLK
  1

  9
$DIMASO
 70
     1
  9
$DIMSHO
 70
     1
  9
$DIMPOST
  1

  9
$DIMAPOST
  1

  9
$DIMALT
 70
     0
  9
$DIMALTD
 70
     3
  9
$DIMALTF
 40
0.03937007874016
  9
$DIMLFAC
 40
1.0
  9
$DIMTOFL
 70
     1
  9
$DIMTVP
 40
0.0
  9
$DIMTIX
 70
     0
  9
$DIMSOXD
 70
     0
  9
$DIMSAH
 70
     0
  9
$DIMBLK1
  1

  9
$DIMBLK2
  1

  9
$DIMSTYLE
  2
ISO-25
  9
$DIMCLRD
 70
     0
  9
$DIMCLRE
 70
     0
  9
$DIMCLRT
 70
     0
  9
$DIMTFAC
 40
1.0
  9
$DIMGAP
 40
0.625
  9
$LUNITS
 70
     2
  9
$LUPREC
 70
     3
  9
$SKETCHINC
 40
1.0
  9
$FILLETRAD
 40
10.0
  9
$AUNITS
 70
     0
  9
$AUPREC
 70
     0
  9
$MENU
  1
.
  9
$ELEVATION
 40
0.0
  9
$PELEVATION
 40
0.0
  9
$THICKNESS
 40
0.0
  9
$LIMCHECK
 70
     0
  9
$CHAMFERA
 40
10.0
  9
$CHAMFERB
 40
10.0
  9
$SKPOLY
 70
     0
  9
$TDCREATE
 40
2455022.720692848
  9
$TDUPDATE
 40
2460482.583020972
  9
$TDINDWG
 40
0.0001199537
  9
$TDUSRTIMER
 40
0.0001199537
  9
$USRTIMER
 70
     1
  9
$ANGBASE
 50
0.0
  9
$ANGDIR
 70
     0
  9
$PDMODE
 70
     0
  9
$PDSIZE
 40
0.0
  9
$PLINEWID
 40
0.0
  9
$COORDS
 70
     1
  9
$SPLFRAME
 70
     0
  9
$SPLINETYPE
 70
     6
  9
$SPLINESEGS
 70
     8
  9
$ATTDIA
 70
     0
  9
$ATTREQ
 70
     1
  9
$HANDLING
 70
     1
  9
$HANDSEED
  5
1AEF
  9
$SURFTAB1
 70
     6
  9
$SURFTAB2
 70
     6
  9
$SURFTYPE
 70
     6
  9
$SURFU
 70
     6
  9
$SURFV
 70
     6
  9
$UCSNAME
  2

  9
$UCSORG
 10
0.0
 20
0.0
 30
0.0
  9
$UCSXDIR
 10
1.0
 20
0.0
 30
0.0
  9
$UCSYDIR
 10
0.0
 20
1.0
 30
0.0
  9
$PUCSNAME
  2

  9
$PUCSORG
 10
0.0
 20
0.0
 30
0.0
  9
$PUCSXDIR
 10
1.0
 20
0.0
 30
0.0
  9
$PUCSYDIR
 10
0.0
 20
1.0
 30
0.0
  9
$USERI1
 70
     0
  9
$USERI2
 70
     0
  9
$USERI3
 70
     0
  9
$USERI4
 70
     0
  9
$USERI5
 70
     0
  9
$USERR1
 40
0.0
  9
$USERR2
 40
0.0
  9
$USERR3
 40
0.0
  9
$USERR4
 40
0.0
  9
$USERR5
 40
0.0
  9
$WORLDVIEW
 70
     1
  9
$SHADEDGE
 70
     3
  9
$SHADEDIF
 70
    70
  9
$TILEMODE
 70
     1
  9
$MAXACTVP
 70
    64
  9
$PLIMCHECK
 70
     0
  9
$PEXTMIN
 10
1.000000000000000E+20
 20
1.000000000000000E+20
 30
1.000000000000000E+20
  9
$PEXTMAX
 10
-1.000000000000000E+20
 20
-1.000000000000000E+20
 30
-1.000000000000000E+20
  9
$PLIMMIN
 10
0.0
 20
0.0
  9
$PLIMMAX
 10
0.0
 20
0.0
  9
$UNITMODE
 70
     0
  9
$VISRETAIN
 70
     1
  9
$PLINEGEN
 70
     0
  9
$PSLTSCALE
 70
     1
  0
ENDSEC
  0
SECTION
  2
TABLES
  0
TABLE
  2
VPORT
 70
     1
  0
VPORT
  2
*ACTIVE
 70
     0
 10
0.0
 20
0.0
 11
1.0
 21
1.0
 12
-145.7961664162393
 22
-5.056937235334539
 13
0.0
 23
0.0
 14
10.0
 24
10.0
 15
10.0
 25
10.0
 16
0.5773502691896262
 26
0.5773502691896226
 36
0.5773502691896257
 17
-134.1869158878501
 27
0.0000000000001994
 37
0.0000000000001954
 40
263.0066126621155
 41
1.88293897882939
 42
50.0
 43
0.0
 44
0.0
 50
0.0
 51
359.9999999999999
 71
    16
 72
  1000
 73
     1
 74
     3
 75
     0
 76
     0
 77
     0
 78
     0
  0
ENDTAB
  0
TABLE
  2
LTYPE
 70
     1
  0
LTYPE
  2
CONTINUOUS
 70
     0
  3
Solid line
 72
    65
 73
     0
 40
0.0
  0
ENDTAB
  0
TABLE
  2
LAYER
 70
     1
  0
LAYER
  2
0
 70
     0
 62
     7
  6
CONTINUOUS
  0
ENDTAB
  0
TABLE
  2
STYLE
 70
     2
  0
STYLE
  2
STANDARD
 70
     0
 40
0.0
 41
1.0
 50
0.0
 71
     0
 42
2.5
  3
arial.ttf
  4

  0
STYLE
  2
ANNOTATIVE
 70
     0
 40
0.0
 41
1.0
 50
0.0
 71
     0
 42
2.5
  3
arial.ttf
  4

  0
ENDTAB
  0
TABLE
  2
VIEW
 70
     0
  0
ENDTAB
  0
TABLE
  2
UCS
 70
     0
  0
ENDTAB
  0
TABLE
  2
APPID
 70
     2
  0
APPID
  2
ACAD
 70
     0
  0
APPID
  2
ACADANNOTATIVE
 70
     0
  0
ENDTAB
  0
TABLE
  2
DIMSTYLE
 70
     2
  0
DIMSTYLE
  2
ISO-25
 70
     0
  3

  4

  5

  6

  7

 40
1.0
 41
2.5
 42
0.625
 43
3.75
 44
1.25
 45
0.0
 46
0.0
 47
0.0
 48
0.0
140
2.5
141
-2.5
142
0.0
143
0.03937007874016
144
1.0
145
0.0
146
1.0
147
0.625
 71
     0
 72
     0
 73
     0
 74
     0
 75
     0
 76
     0
 77
     1
 78
     8
170
     0
171
     3
172
     1
173
     0
174
     0
175
     0
176
     0
177
     0
178
     0
  0
DIMSTYLE
  2
ANNOTATIVE
 70
     0
  3

  4

  5

  6

  7

 40
0.0
 41
2.5
 42
0.625
 43
3.75
 44
1.25
 45
0.0
 46
0.0
 47
0.0
 48
0.0
140
2.5
141
-2.5
142
0.0
143
0.03937007874016
144
1.0
145
0.0
146
1.0
147
0.625
 71
     0
 72
     0
 73
     0
 74
     0
 75
     0
 76
     0
 77
     1
 78
     8
170
     0
171
     3
172
     1
173
     0
174
     0
175
     0
176
     0
177
     0
178
     0
  0
ENDTAB
  0
ENDSEC
  0
SECTION
  2
BLOCKS
  0
BLOCK
  8
0
  2
$MODEL_SPACE
 70
     0
 10
0.0
 20
0.0
 30
0.0
  3
$MODEL_SPACE
  1

  0
ENDBLK
  5
21
  8
0
  0
BLOCK
 67
     1
  8
0
  2
$PAPER_SPACE
 70
     0
 10
0.0
 20
0.0
 30
0.0
  3
$PAPER_SPACE
  1

  0
ENDBLK
  5
1D
 67
     1
  8
0
  0
BLOCK
  8
0
  2
*X1
 70
     1
 10
0.0
 20
0.0
 30
0.0
  3
*X1
  1

  0
POLYLINE
  5
DE2
  8
0
 66
     1
 10
0.0
 20
0.0
 30
0.0
 70
    64
 71
     4
 72
     2
  0
VERTEX
  5
DE3
  8
0
 10
-20.5
 20
-25.00000000000001
 30
4.500000000000001
 70
   192
  0
VERTEX
  5
DE4
  8
0
 10
20.5
 20
-25.00000000000001
 30
4.500000000000001
 70
   192
  0
VERTEX
  5
DE5
  8
0
 10
20.5
 20
-25.0
 30
0.0
 70
   192
  0
VERTEX
  5
DE6
  8
0
 10
-20.5
 20
-25.0
 30
0.0
 70
   192
  0
VERTEX
  5
DE7
  8
0
 10
0.0
 20
0.0
 30
0.0
 70
   128
 71
     1
 72
     4
 73
    -3
  0
VERTEX
  5
DE8
  8
0
 10
0.0
 20
0.0
 30
0.0
 70
   128
 71
    -1
 72
     3
 73
     2
  0
SEQEND
  5
1A4C
  8
0
  0
POLYLINE
  5
DE9
  8
0
 66
     1
 10
0.0
 20
0.0
 30
0.0
 70
    64
 71
     8
 72
     6
  0
VERTEX
  5
DEA
  8
0
 10
20.5
 20
-24.7498424163231
 30
4.932658835052042
 70
   192
  0
VERTEX
  5
DEB
  8
0
 10
-20.5
 20
-24.7498424163231
 30
4.932658835052042
 70
   192
  0
VERTEX
  5
DEC
  8
0
 10
-20.5
 20
-24.93265883505205
 30
4.749842416323088
 70
   192
  0
VERTEX
  5
DED
  8
0
 10
20.5
 20
-24.93265883505205
 30
4.749842416323089
 70
   192
  0
VERTEX
  5
DEE
  8
0
 10
20.5
 20
-24.50000000000002
 30
5.000000000000001
 70
   192
  0
VERTEX
  5
DEF
  8
0
 10
-20.5
 20
-24.50000000000002
 30
5.000000000000001
 70
   192
  0
VERTEX
  5
DF0
  8
0
 10
-20.5
 20
-25.00000000000001
 30
4.500000000000001
 70
   192
  0
VERTEX
  5
DF1
  8
0
 10
20.5
 20
-25.00000000000001
 30
4.500000000000001
 70
   192
  0
VERTEX
  5
DF2
  8
0
 10
0.0
 20
0.0
 30
0.0
 70
   128
 71
     1
 72
     2
 73
    -3
  0
VERTEX
  5
DF3
  8
0
 10
0.0
 20
0.0
 30
0.0
 70
   128
 71
    -1
 72
     3
 73
     4
  0
VERTEX
  5
DF4
  8
0
 10
0.0
 20
0.0
 30
0.0
 70
   128
 71
     5
 72
     6
 73
    -2
  0
VERTEX
  5
DF5
  8
0
 10
0.0
 20
0.0
 30
0.0
 70
   128
 71
    -5
 72
     2
 73
     1
  0
VERTEX
  5
DF6
  8
0
 10
0.0
 20
0.0
 30
0.0
 70
   128
 71
     4
 72
     3
 73
    -7
  0
VERTEX
  5
DF7
  8
0
 10
0.0
 20
0.0
 30
0.0
 70
   128
 71
    -4
 72
     7
 73
     8
  0
SEQEND
  5
1A4D
  8
0
  0
POLYLINE
  5
DF8
  8
0
 66
     1
 10
0.0
 20
0.0
 30
0.0
 70
    64
 71
     8
 72
     6
  0
VERTEX
  5
DF9
  8
0
 10
-24.39693012598617
 20
-22.74988038740128
 30
4.500000000000006
 70
   192
  0
VERTEX
  5
DFA
  8
0
 10
-24.39693012598616
 20
-22.74988038740126
 30
0.000000000000006
 70
   192
  0
VERTEX
  5
DFB
  8
0
 10
-22.74988038740126
 20
-24.39693012598617
 30
0.0000000000000003
 70
   192
  0
VERTEX
  5
DFC
  8
0
 10
-22.74988038740126
 20
-24.39693012598618
 30
4.5
 70
   192
  0
VERTEX
  5
DFD
  8
0
 10
-25.0
 20
-20.50000000000001
 30
4.500000000000018
 70
   192
  0
VERTEX
  5
DFE
  8
0
 10
-25.0
 20
-20.5
 30
0.0000000000000139
 70
   192
  0
VERTEX
  5
DFF
  8
0
 10
-20.5
 20
-25.0
 30
0.0
 70
   192
  0
VERTEX
  5
E00
  8
0
 10
-20.5
 20
-25.00000000000001
 30
4.500000000000001
 70
   192
  0
VERTEX
  5
E01
  8
0
 10
0.0
 20
0.0
 30
0.0
 70
   128
 71
     1
 72
     2
 73
    -3
  0
VERTEX
  5
E02
  8
0
 10
0.0
 20
0.0
 30
0.0
 70
   128
 71
    -1
 72
     3
 73
     4
  0
VERTEX
  5
E03
  8
0
 10
0.0
 20
0.0
 30
0.0
 70
   128
 71
     5
 72
     6
 73
    -2
  0
VERTEX
  5
E04
  8
0
 10
0.0
 20
0.0
 30
0.0
 70
   128
 71
    -5
 72
     2
 73
     1
  0
VERTEX
  5
E05
  8
0
 10
0.0
 20
0.0
 30
0.0
 70
   128
 71
     4
 72
     3
 73
    -7
  0
VERTEX
  5
E06
  8
0
 10
0.0
 20
0.0
 30
0.0
 70
   128
 71
    -4
 72
     7
 73
     8
  0
SEQEND
  5
1A4E
  8
0
  0
POLYLINE
  5
E07
  8
0
 66
     1
 10
0.0
 20
0.0
 30
0.0
 70
    64
 71
    16
 72
    14
  0
VERTEX
  5
E08
  8
0
 10
-20.5
 20
25.0
 30
0.0000000000001735
 70
   192
  0
VERTEX
  5
E09
  8
0
 10
-22.74988038740126
 20
24.39693012598617
 30
0.0000000000001732
 70
   192
  0
VERTEX
  5
E0A
  8
0
 10
-24.39693012598617
 20
22.74988038740126
 30
0.0000000000001674
 70
   192
  0
VERTEX
  5
E0B
  8
0
 10
-25.0
 20
20.5
 30
0.0000000000001596
 70
   192
  0
VERTEX
  5
E0C
  8
0
 10
-25.0
 20
-20.5
 30
0.0000000000000139
 70
   192
  0
VERTEX
  5
E0D
  8
0
 10
-24.39693012598616
 20
-22.74988038740126
 30
0.000000000000006
 70
   192
  0
VERTEX
  5
E0E
  8
0
 10
-22.74988038740126
 20
-24.39693012598617
 30
0.0000000000000003
 70
   192
  0
VERTEX
  5
E0F
  8
0
 10
-20.5
 20
-25.0
 30
0.0
 70
   192
  0
VERTEX
  5
E10
  8
0
 10
20.5
 20
-25.0
 30
0.0
 70
   192
  0
VERTEX
  5
E11
  8
0
 10
22.74988038740127
 20
-24.39693012598616
 30
0.0000000000000003
 70
   192
  0
VERTEX
  5
E12
  8
0
 10
24.39693012598618
 20
-22.74988038740125
 30
0.000000000000006
 70
   192
  0
VERTEX
  5
E13
  8
0
 10
25.0
 20
-20.5
 30
0.0000000000000139
 70
   192
  0
VERTEX
  5
E14
  8
0
 10
25.0
 20
20.5
 30
0.0000000000001596
 70
   192
  0
VERTEX
  5
E15
  8
0
 10
24.39693012598618
 20
22.74988038740125
 30
0.0000000000001674
 70
   192
  0
VERTEX
  5
E16
  8
0
 10
22.74988038740126
 20
24.39693012598617
 30
0.0000000000001732
 70
   192
  0
VERTEX
  5
E17
  8
0
 10
20.5
 20
25.0
 30
0.0000000000001735
 70
   192
  0
VERTEX
  5
E18
  8
0
 10
0.0
 20
0.0
 30
0.0
 70
   128
 71
     1
 72
    16
 73
   -15
  0
VERTEX
  5
E19
  8
0
 10
0.0
 20
0.0
 30
0.0
 70
   128
 71
    -1
 72
    15
 73
   -14
  0
VERTEX
  5
E1A
  8
0
 10
0.0
 20
0.0
 30
0.0
 70
   128
 71
    -1
 72
    14
 73
   -13
  0
VERTEX
  5
E1B
  8
0
 10
0.0
 20
0.0
 30
0.0
 70
   128
 71
    -1
 72
    13
 73
   -12
  0
VERTEX
  5
E1C
  8
0
 10
0.0
 20
0.0
 30
0.0
 70
   128
 71
    -1
 72
    12
 73
   -11
  0
VERTEX
  5
E1D
  8
0
 10
0.0
 20
0.0
 30
0.0
 70
   128
 71
    -1
 72
    11
 73
   -10
  0
VERTEX
  5
E1E
  8
0
 10
0.0
 20
0.0
 30
0.0
 70
   128
 71
    -1
 72
    10
 73
    -9
  0
VERTEX
  5
E1F
  8
0
 10
0.0
 20
0.0
 30
0.0
 70
   128
 71
    -1
 72
     9
 73
    -8
  0
VERTEX
  5
E20
  8
0
 10
0.0
 20
0.0
 30
0.0
 70
   128
 71
    -1
 72
     8
 73
    -7
  0
VERTEX
  5
E21
  8
0
 10
0.0
 20
0.0
 30
0.0
 70
   128
 71
    -1
 72
     7
 73
    -6
  0
VERTEX
  5
E22
  8
0
 10
0.0
 20
0.0
 30
0.0
 70
   128
 71
    -1
 72
     6
 73
    -5
  0
VERTEX
  5
E23
  8
0
 10
0.0
 20
0.0
 30
0.0
 70
   128
 71
    -1
 72
     5
 73
    -4
  0
VERTEX
  5
E24
  8
0
 10
0.0
 20
0.0
 30
0.0
 70
   128
 71
    -1
 72
     4
 73
    -3
  0
VERTEX
  5
E25
  8
0
 10
0.0
 20
0.0
 30
0.0
 70
   128
 71
    -1
 72
     3
 73
     2
  0
SEQEND
  5
1A4F
  8
0
  0
POLYLINE
  5
E26
  8
0
 66
     1
 10
0.0
 20
0.0
 30
0.0
 70
    64
 71
     8
 72
     6
  0
VERTEX
  5
E27
  8
0
 10
22.74988038740127
 20
-24.39693012598618
 30
4.500000000000001
 70
   192
  0
VERTEX
  5
E28
  8
0
 10
22.74988038740127
 20
-24.39693012598616
 30
0.0000000000000003
 70
   192
  0
VERTEX
  5
E29
  8
0
 10
24.39693012598618
 20
-22.74988038740125
 30
0.000000000000006
 70
   192
  0
VERTEX
  5
E2A
  8
0
 10
24.39693012598617
 20
-22.74988038740127
 30
4.500000000000004
 70
   192
  0
VERTEX
  5
E2B
  8
0
 10
20.5
 20
-25.00000000000001
 30
4.500000000000001
 70
   192
  0
VERTEX
  5
E2C
  8
0
 10
20.5
 20
-25.0
 30
0.0
 70
   192
  0
VERTEX
  5
E2D
  8
0
 10
25.0
 20
-20.5
 30
0.0000000000000139
 70
   192
  0
VERTEX
  5
E2E
  8
0
 10
25.0
 20
-20.50000000000001
 30
4.500000000000018
 70
   192
  0
VERTEX
  5
E2F
  8
0
 10
0.0
 20
0.0
 30
0.0
 70
   128
 71
     1
 72
     2
 73
    -3
  0
VERTEX
  5
E30
  8
0
 10
0.0
 20
0.0
 30
0.0
 70
   128
 71
    -1
 72
     3
 73
     4
  0
VERTEX
  5
E31
  8
0
 10
0.0
 20
0.0
 30
0.0
 70
   128
 71
     5
 72
     6
 73
    -2
  0
VERTEX
  5
E32
  8
0
 10
0.0
 20
0.0
 30
0.0
 70
   128
 71
    -5
 72
     2
 73
     1
  0
VERTEX
  5
E33
  8
0
 10
0.0
 20
0.0
 30
0.0
 70
   128
 71
     4
 72
     3
 73
    -7
  0
VERTEX
  5
E34
  8
0
 10
0.0
 20
0.0
 30
0.0
 70
   128
 71
    -4
 72
     7
 73
     8
  0
SEQEND
  5
1A50
  8
0
  0
POLYLINE
  5
E35
  8
0
 66
     1
 10
0.0
 20
0.0
 30
0.0
 70
    64
 71
    16
 72
    14
  0
VERTEX
  5
E36
  8
0
 10
-24.5
 20
-20.50000000000002
 30
5.000000000000015
 70
   192
  0
VERTEX
  5
E37
  8
0
 10
-23.96387263126528
 20
-22.50153399905041
 30
5.000000000000009
 70
   192
  0
VERTEX
  5
E38
  8
0
 10
-22.50161039305942
 20
-23.96380324442738
 30
5.000000000000004
 70
   192
  0
VERTEX
  5
E39
  8
0
 10
-20.5
 20
-24.50000000000002
 30
5.000000000000001
 70
   192
  0
VERTEX
  5
E3A
  8
0
 10
20.5
 20
-24.50000000000002
 30
5.000000000000001
 70
   192
  0
VERTEX
  5
E3B
  8
0
 10
22.50153399905038
 20
-23.9638726312653
 30
5.000000000000004
 70
   192
  0
VERTEX
  5
E3C
  8
0
 10
23.96380324442737
 20
-22.50161039305944
 30
5.00000000000001
 70
   192
  0
VERTEX
  5
E3D
  8
0
 10
24.5
 20
-20.50000000000002
 30
5.000000000000015
 70
   192
  0
VERTEX
  5
E3E
  8
0
 10
24.5
 20
20.49999999999998
 30
5.000000000000161
 70
   192
  0
VERTEX
  5
E3F
  8
0
 10
23.96387263126528
 20
22.50153399905037
 30
5.000000000000166
 70
   192
  0
VERTEX
  5
E40
  8
0
 10
22.50161039305942
 20
23.96380324442735
 30
5.000000000000171
 70
   192
  0
VERTEX
  5
E41
  8
0
 10
20.5
 20
24.49999999999998
 30
5.000000000000174
 70
   192
  0
VERTEX
  5
E42
  8
0
 10
-20.5
 20
24.49999999999998
 30
5.000000000000174
 70
   192
  0
VERTEX
  5
E43
  8
0
 10
-22.50153399905038
 20
23.96387263126526
 30
5.000000000000171
 70
   192
  0
VERTEX
  5
E44
  8
0
 10
-23.96380324442737
 20
22.5016103930594
 30
5.000000000000167
 70
   192
  0
VERTEX
  5
E45
  8
0
 10
-24.5
 20
20.49999999999998
 30
5.000000000000161
 70
   192
  0
VERTEX
  5
E46
  8
0
 10
0.0
 20
0.0
 30
0.0
 70
   128
 71
    15
 72
    16
 73
    -1
  0
VERTEX
  5
E47
  8
0
 10
0.0
 20
0.0
 30
0.0
 70
   128
 71
    14
 72
   -15
 73
    -1
  0
VERTEX
  5
E48
  8
0
 10
0.0
 20
0.0
 30
0.0
 70
   128
 71
    13
 72
   -14
 73
    -1
  0
VERTEX
  5
E49
  8
0
 10
0.0
 20
0.0
 30
0.0
 70
   128
 71
    12
 72
   -13
 73
    -1
  0
VERTEX
  5
E4A
  8
0
 10
0.0
 20
0.0
 30
0.0
 70
   128
 71
    11
 72
   -12
 73
    -1
  0
VERTEX
  5
E4B
  8
0
 10
0.0
 20
0.0
 30
0.0
 70
   128
 71
    10
 72
   -11
 73
    -1
  0
VERTEX
  5
E4C
  8
0
 10
0.0
 20
0.0
 30
0.0
 70
   128
 71
     9
 72
   -10
 73
    -1
  0
VERTEX
  5
E4D
  8
0
 10
0.0
 20
0.0
 30
0.0
 70
   128
 71
     8
 72
    -9
 73
    -1
  0
VERTEX
  5
E4E
  8
0
 10
0.0
 20
0.0
 30
0.0
 70
   128
 71
     7
 72
    -8
 73
    -1
  0
VERTEX
  5
E4F
  8
0
 10
0.0
 20
0.0
 30
0.0
 70
   128
 71
     6
 72
    -7
 73
    -1
  0
VERTEX
  5
E50
  8
0
 10
0.0
 20
0.0
 30
0.0
 70
   128
 71
     5
 72
    -6
 73
    -1
  0
VERTEX
  5
E51
  8
0
 10
0.0
 20
0.0
 30
0.0
 70
   128
 71
     4
 72
    -5
 73
    -1
  0
VERTEX
  5
E52
  8
0
 10
0.0
 20
0.0
 30
0.0
 70
   128
 71
     3
 72
    -4
 73
    -1
  0
VERTEX
  5
E53
  8
0
 10
0.0
 20
0.0
 30
0.0
 70
   128
 71
     2
 72
    -3
 73
     1
  0
SEQEND
  5
1A51
  8
0
  0
POLYLINE
  5
E54
  8
0
 66
     1
 10
0.0
 20
0.0
 30
0.0
 70
    64
 71
     4
 72
     2
  0
VERTEX
  5
E55
  8
0
 10
-25.0
 20
20.49999999999999
 30
4.50000000000016
 70
   192
  0
VERTEX
  5
E56
  8
0
 10
-25.0
 20
-20.50000000000001
 30
4.500000000000018
 70
   192
  0
VERTEX
  5
E57
  8
0
 10
-25.0
 20
-20.5
 30
0.0000000000000139
 70
   192
  0
VERTEX
  5
E58
  8
0
 10
-25.0
 20
20.5
 30
0.0000000000001596
 70
   192
  0
VERTEX
  5
E59
  8
0
 10
0.0
 20
0.0
 30
0.0
 70
   128
 71
     1
 72
     4
 73
    -3
  0
VERTEX
  5
E5A
  8
0
 10
0.0
 20
0.0
 30
0.0
 70
   128
 71
    -1
 72
     3
 73
     2
  0
SEQEND
  5
1A52
  8
0
  0
POLYLINE
  5
E5B
  8
0
 66
     1
 10
0.0
 20
0.0
 30
0.0
 70
    64
 71
    12
 72
    10
  0
VERTEX
  5
E5C
  8
0
 10
-24.74984241632308
 20
-20.50000000000002
 30
4.932658835052059
 70
   192
  0
VERTEX
  5
E5D
  8
0
 10
-20.5
 20
-24.93265883505205
 30
4.749842416323088
 70
   192
  0
VERTEX
  5
E5E
  8
0
 10
-20.5
 20
-24.7498424163231
 30
4.932658835052042
 70
   192
  0
VERTEX
  5
E5F
  8
0
 10
-24.93265883505204
 20
-20.50000000000002
 30
4.749842416323106
 70
   192
  0
VERTEX
  5
E60
  8
0
 10
-22.74988038740126
 20
-24.39693012598618
 30
4.5
 70
   192
  0
VERTEX
  5
E61
  8
0
 10
-20.5
 20
-25.00000000000001
 30
4.500000000000001
 70
   192
  0
VERTEX
  5
E62
  8
0
 10
-24.39693012598617
 20
-22.74988038740128
 30
4.500000000000006
 70
   192
  0
VERTEX
  5
E63
  8
0
 10
-25.0
 20
-20.50000000000001
 30
4.500000000000018
 70
   192
  0
VERTEX
  5
E64
  8
0
 10
-22.50161039305942
 20
-23.96380324442738
 30
5.000000000000004
 70
   192
  0
VERTEX
  5
E65
  8
0
 10
-20.5
 20
-24.50000000000002
 30
5.000000000000001
 70
   192
  0
VERTEX
  5
E66
  8
0
 10
-23.96387263126528
 20
-22.50153399905041
 30
5.000000000000009
 70
   192
  0
VERTEX
  5
E67
  8
0
 10
-24.5
 20
-20.50000000000002
 30
5.000000000000015
 70
   192
  0
VERTEX
  5
E68
  8
0
 10
0.0
 20
0.0
 30
0.0
 70
   128
 71
    -1
 72
     2
 73
     3
  0
VERTEX
  5
E69
  8
0
 10
0.0
 20
0.0
 30
0.0
 70
   128
 71
     4
 72
    -2
 73
     1
  0
VERTEX
  5
E6A
  8
0
 10
0.0
 20
0.0
 30
0.0
 70
   128
 71
     5
 72
     6
 73
     2
  0
VERTEX
  5
E6B
  8
0
 10
0.0
 20
0.0
 30
0.0
 70
   128
 71
     2
 72
     7
 73
     5
  0
VERTEX
  5
E6C
  8
0
 10
0.0
 20
0.0
 30
0.0
 70
   128
 71
     8
 72
     7
 73
     2
  0
VERTEX
  5
E6D
  8
0
 10
0.0
 20
0.0
 30
0.0
 70
   128
 71
     8
 72
     2
 73
     4
  0
VERTEX
  5
E6E
  8
0
 10
0.0
 20
0.0
 30
0.0
 70
   128
 71
     9
 72
     3
 73
    10
  0
VERTEX
  5
E6F
  8
0
 10
0.0
 20
0.0
 30
0.0
 70
   128
 71
    11
 72
    12
 73
     1
  0
VERTEX
  5
E70
  8
0
 10
0.0
 20
0.0
 30
0.0
 70
   128
 71
     1
 72
     3
 73
     9
  0
VERTEX
  5
E71
  8
0
 10
0.0
 20
0.0
 30
0.0
 70
   128
 71
     1
 72
     9
 73
    11
  0
SEQEND
  5
1A53
  8
0
  0
POLYLINE
  5
E72
  8
0
 66
     1
 10
0.0
 20
0.0
 30
0.0
 70
    64
 71
     8
 72
     6
  0
VERTEX
  5
E73
  8
0
 10
-22.74988038740126
 20
24.39693012598616
 30
4.500000000000174
 70
   192
  0
VERTEX
  5
E74
  8
0
 10
-22.74988038740126
 20
24.39693012598617
 30
0.0000000000001732
 70
   192
  0
VERTEX
  5
E75
  8
0
 10
-24.39693012598617
 20
22.74988038740126
 30
0.0000000000001674
 70
   192
  0
VERTEX
  5
E76
  8
0
 10
-24.39693012598617
 20
22.74988038740124
 30
4.500000000000167
 70
   192
  0
VERTEX
  5
E77
  8
0
 10
-20.5
 20
24.99999999999999
 30
4.500000000000174
 70
   192
  0
VERTEX
  5
E78
  8
0
 10
-20.5
 20
25.0
 30
0.0000000000001735
 70
   192
  0
VERTEX
  5
E79
  8
0
 10
-25.0
 20
20.5
 30
0.0000000000001596
 70
   192
  0
VERTEX
  5
E7A
  8
0
 10
-25.0
 20
20.49999999999999
 30
4.50000000000016
 70
   192
  0
VERTEX
  5
E7B
  8
0
 10
0.0
 20
0.0
 30
0.0
 70
   128
 71
     1
 72
     2
 73
    -3
  0
VERTEX
  5
E7C
  8
0
 10
0.0
 20
0.0
 30
0.0
 70
   128
 71
    -1
 72
     3
 73
     4
  0
VERTEX
  5
E7D
  8
0
 10
0.0
 20
0.0
 30
0.0
 70
   128
 71
     5
 72
     6
 73
    -2
  0
VERTEX
  5
E7E
  8
0
 10
0.0
 20
0.0
 30
0.0
 70
   128
 71
    -5
 72
     2
 73
     1
  0
VERTEX
  5
E7F
  8
0
 10
0.0
 20
0.0
 30
0.0
 70
   128
 71
     4
 72
     3
 73
    -7
  0
VERTEX
  5
E80
  8
0
 10
0.0
 20
0.0
 30
0.0
 70
   128
 71
    -4
 72
     7
 73
     8
  0
SEQEND
  5
1A54
  8
0
  0
POLYLINE
  5
E81
  8
0
 66
     1
 10
0.0
 20
0.0
 30
0.0
 70
    64
 71
     4
 72
     2
  0
VERTEX
  5
E82
  8
0
 10
20.5
 20
24.99999999999999
 30
4.500000000000174
 70
   192
  0
VERTEX
  5
E83
  8
0
 10
-20.5
 20
24.99999999999999
 30
4.500000000000174
 70
   192
  0
VERTEX
  5
E84
  8
0
 10
-20.5
 20
25.0
 30
0.0000000000001735
 70
   192
  0
VERTEX
  5
E85
  8
0
 10
20.5
 20
25.0
 30
0.0000000000001735
 70
   192
  0
VERTEX
  5
E86
  8
0
 10
0.0
 20
0.0
 30
0.0
 70
   128
 71
     1
 72
     4
 73
    -3
  0
VERTEX
  5
E87
  8
0
 10
0.0
 20
0.0
 30
0.0
 70
   128
 71
    -1
 72
     3
 73
     2
  0
SEQEND
  5
1A55
  8
0
  0
POLYLINE
  5
E88
  8
0
 66
     1
 10
0.0
 20
0.0
 30
0.0
 70
    64
 71
     8
 72
     6
  0
VERTEX
  5
E89
  8
0
 10
24.39693012598617
 20
22.74988038740124
 30
4.500000000000167
 70
   192
  0
VERTEX
  5
E8A
  8
0
 10
24.39693012598618
 20
22.74988038740125
 30
0.0000000000001674
 70
   192
  0
VERTEX
  5
E8B
  8
0
 10
22.74988038740126
 20
24.39693012598617
 30
0.0000000000001732
 70
   192
  0
VERTEX
  5
E8C
  8
0
 10
22.74988038740126
 20
24.39693012598615
 30
4.500000000000173
 70
   192
  0
VERTEX
  5
E8D
  8
0
 10
25.0
 20
20.49999999999999
 30
4.50000000000016
 70
   192
  0
VERTEX
  5
E8E
  8
0
 10
25.0
 20
20.5
 30
0.0000000000001596
 70
   192
  0
VERTEX
  5
E8F
  8
0
 10
20.5
 20
25.0
 30
0.0000000000001735
 70
   192
  0
VERTEX
  5
E90
  8
0
 10
20.5
 20
24.99999999999999
 30
4.500000000000174
 70
   192
  0
VERTEX
  5
E91
  8
0
 10
0.0
 20
0.0
 30
0.0
 70
   128
 71
     1
 72
     2
 73
    -3
  0
VERTEX
  5
E92
  8
0
 10
0.0
 20
0.0
 30
0.0
 70
   128
 71
    -1
 72
     3
 73
     4
  0
VERTEX
  5
E93
  8
0
 10
0.0
 20
0.0
 30
0.0
 70
   128
 71
     5
 72
     6
 73
    -2
  0
VERTEX
  5
E94
  8
0
 10
0.0
 20
0.0
 30
0.0
 70
   128
 71
    -5
 72
     2
 73
     1
  0
VERTEX
  5
E95
  8
0
 10
0.0
 20
0.0
 30
0.0
 70
   128
 71
     4
 72
     3
 73
    -7
  0
VERTEX
  5
E96
  8
0
 10
0.0
 20
0.0
 30
0.0
 70
   128
 71
    -4
 72
     7
 73
     8
  0
SEQEND
  5
1A56
  8
0
  0
POLYLINE
  5
E97
  8
0
 66
     1
 10
0.0
 20
0.0
 30
0.0
 70
    64
 71
     4
 72
     2
  0
VERTEX
  5
E98
  8
0
 10
25.0
 20
-20.50000000000001
 30
4.500000000000018
 70
   192
  0
VERTEX
  5
E99
  8
0
 10
25.0
 20
20.49999999999999
 30
4.50000000000016
 70
   192
  0
VERTEX
  5
E9A
  8
0
 10
25.0
 20
20.5
 30
0.0000000000001596
 70
   192
  0
VERTEX
  5
E9B
  8
0
 10
25.0
 20
-20.5
 30
0.0000000000000139
 70
   192
  0
VERTEX
  5
E9C
  8
0
 10
0.0
 20
0.0
 30
0.0
 70
   128
 71
     1
 72
     4
 73
    -3
  0
VERTEX
  5
E9D
  8
0
 10
0.0
 20
0.0
 30
0.0
 70
   128
 71
    -1
 72
     3
 73
     2
  0
SEQEND
  5
1A57
  8
0
  0
POLYLINE
  5
E9E
  8
0
 66
     1
 10
0.0
 20
0.0
 30
0.0
 70
    64
 71
    12
 72
    10
  0
VERTEX
  5
E9F
  8
0
 10
20.5
 20
-24.7498424163231
 30
4.932658835052042
 70
   192
  0
VERTEX
  5
EA0
  8
0
 10
24.93265883505204
 20
-20.5
 30
4.749842416323105
 70
   192
  0
VERTEX
  5
EA1
  8
0
 10
24.74984241632309
 20
-20.5
 30
4.932658835052057
 70
   192
  0
VERTEX
  5
EA2
  8
0
 10
20.5
 20
-24.93265883505205
 30
4.749842416323089
 70
   192
  0
VERTEX
  5
EA3
  8
0
 10
24.39693012598617
 20
-22.74988038740127
 30
4.500000000000004
 70
   192
  0
VERTEX
  5
EA4
  8
0
 10
25.0
 20
-20.50000000000001
 30
4.500000000000018
 70
   192
  0
VERTEX
  5
EA5
  8
0
 10
22.74988038740127
 20
-24.39693012598618
 30
4.500000000000001
 70
   192
  0
VERTEX
  5
EA6
  8
0
 10
20.5
 20
-25.00000000000001
 30
4.500000000000001
 70
   192
  0
VERTEX
  5
EA7
  8
0
 10
22.50153399905038
 20
-23.9638726312653
 30
5.000000000000004
 70
   192
  0
VERTEX
  5
EA8
  8
0
 10
20.5
 20
-24.50000000000002
 30
5.000000000000001
 70
   192
  0
VERTEX
  5
EA9
  8
0
 10
23.96380324442737
 20
-22.50161039305944
 30
5.00000000000001
 70
   192
  0
VERTEX
  5
EAA
  8
0
 10
24.5
 20
-20.50000000000002
 30
5.000000000000015
 70
   192
  0
VERTEX
  5
EAB
  8
0
 10
0.0
 20
0.0
 30
0.0
 70
   128
 71
    -1
 72
     2
 73
     3
  0
VERTEX
  5
EAC
  8
0
 10
0.0
 20
0.0
 30
0.0
 70
   128
 71
     4
 72
    -2
 73
     1
  0
VERTEX
  5
EAD
  8
0
 10
0.0
 20
0.0
 30
0.0
 70
   128
 71
     5
 72
     6
 73
     2
  0
VERTEX
  5
EAE
  8
0
 10
0.0
 20
0.0
 30
0.0
 70
   128
 71
     2
 72
     7
 73
     5
  0
VERTEX
  5
EAF
  8
0
 10
0.0
 20
0.0
 30
0.0
 70
   128
 71
     8
 72
     7
 73
     2
  0
VERTEX
  5
EB0
  8
0
 10
0.0
 20
0.0
 30
0.0
 70
   128
 71
     8
 72
     2
 73
     4
  0
VERTEX
  5
EB1
  8
0
 10
0.0
 20
0.0
 30
0.0
 70
   128
 71
     9
 72
    10
 73
     1
  0
VERTEX
  5
EB2
  8
0
 10
0.0
 20
0.0
 30
0.0
 70
   128
 71
     1
 72
     3
 73
    11
  0
VERTEX
  5
EB3
  8
0
 10
0.0
 20
0.0
 30
0.0
 70
   128
 71
     1
 72
    11
 73
     9
  0
VERTEX
  5
EB4
  8
0
 10
0.0
 20
0.0
 30
0.0
 70
   128
 71
     3
 72
    12
 73
    11
  0
SEQEND
  5
1A58
  8
0
  0
POLYLINE
  5
EB5
  8
0
 66
     1
 10
0.0
 20
0.0
 30
0.0
 70
    64
 71
     8
 72
     6
  0
VERTEX
  5
EB6
  8
0
 10
-24.74984241632308
 20
-20.50000000000002
 30
4.932658835052059
 70
   192
  0
VERTEX
  5
EB7
  8
0
 10
-24.74984241632309
 20
20.49999999999998
 30
4.932658835052199
 70
   192
  0
VERTEX
  5
EB8
  8
0
 10
-24.93265883505204
 20
20.49999999999998
 30
4.749842416323245
 70
   192
  0
VERTEX
  5
EB9
  8
0
 10
-24.93265883505204
 20
-20.50000000000002
 30
4.749842416323106
 70
   192
  0
VERTEX
  5
EBA
  8
0
 10
-24.5
 20
-20.50000000000002
 30
5.000000000000015
 70
   192
  0
VERTEX
  5
EBB
  8
0
 10
-24.5
 20
20.49999999999998
 30
5.000000000000161
 70
   192
  0
VERTEX
  5
EBC
  8
0
 10
-25.0
 20
20.49999999999999
 30
4.50000000000016
 70
   192
  0
VERTEX
  5
EBD
  8
0
 10
-25.0
 20
-20.50000000000001
 30
4.500000000000018
 70
   192
  0
VERTEX
  5
EBE
  8
0
 10
0.0
 20
0.0
 30
0.0
 70
   128
 71
     1
 72
     2
 73
    -3
  0
VERTEX
  5
EBF
  8
0
 10
0.0
 20
0.0
 30
0.0
 70
   128
 71
    -1
 72
     3
 73
     4
  0
VERTEX
  5
EC0
  8
0
 10
0.0
 20
0.0
 30
0.0
 70
   128
 71
     5
 72
     6
 73
    -2
  0
VERTEX
  5
EC1
  8
0
 10
0.0
 20
0.0
 30
0.0
 70
   128
 71
    -5
 72
     2
 73
     1
  0
VERTEX
  5
EC2
  8
0
 10
0.0
 20
0.0
 30
0.0
 70
   128
 71
     4
 72
     3
 73
    -7
  0
VERTEX
  5
EC3
  8
0
 10
0.0
 20
0.0
 30
0.0
 70
   128
 71
    -4
 72
     7
 73
     8
  0
SEQEND
  5
1A59
  8
0
  0
POLYLINE
  5
EC4
  8
0
 66
     1
 10
0.0
 20
0.0
 30
0.0
 70
    64
 71
    12
 72
    10
  0
VERTEX
  5
EC5
  8
0
 10
-20.49999999999999
 20
24.74984241632307
 30
4.932658835052215
 70
   192
  0
VERTEX
  5
EC6
  8
0
 10
-20.5
 20
24.93265883505202
 30
4.749842416323262
 70
   192
  0
VERTEX
  5
EC7
  8
0
 10
-24.93265883505204
 20
20.49999999999998
 30
4.749842416323245
 70
   192
  0
VERTEX
  5
EC8
  8
0
 10
-24.74984241632309
 20
20.49999999999998
 30
4.932658835052199
 70
   192
  0
VERTEX
  5
EC9
  8
0
 10
-24.39693012598617
 20
22.74988038740124
 30
4.500000000000167
 70
   192
  0
VERTEX
  5
ECA
  8
0
 10
-25.0
 20
20.49999999999999
 30
4.50000000000016
 70
   192
  0
VERTEX
  5
ECB
  8
0
 10
-22.74988038740126
 20
24.39693012598616
 30
4.500000000000174
 70
   192
  0
VERTEX
  5
ECC
  8
0
 10
-20.5
 20
24.99999999999999
 30
4.500000000000174
 70
   192
  0
VERTEX
  5
ECD
  8
0
 10
-23.96380324442737
 20
22.5016103930594
 30
5.000000000000167
 70
   192
  0
VERTEX
  5
ECE
  8
0
 10
-24.5
 20
20.49999999999998
 30
5.000000000000161
 70
   192
  0
VERTEX
  5
ECF
  8
0
 10
-22.50153399905038
 20
23.96387263126526
 30
5.000000000000171
 70
   192
  0
VERTEX
  5
ED0
  8
0
 10
-20.5
 20
24.49999999999998
 30
5.000000000000174
 70
   192
  0
VERTEX
  5
ED1
  8
0
 10
0.0
 20
0.0
 30
0.0
 70
   128
 71
     1
 72
     2
 73
    -3
  0
VERTEX
  5
ED2
  8
0
 10
0.0
 20
0.0
 30
0.0
 70
   128
 71
    -1
 72
     3
 73
     4
  0
VERTEX
  5
ED3
  8
0
 10
0.0
 20
0.0
 30
0.0
 70
   128
 71
     5
 72
     6
 73
     3
  0
VERTEX
  5
ED4
  8
0
 10
0.0
 20
0.0
 30
0.0
 70
   128
 71
     3
 72
     7
 73
     5
  0
VERTEX
  5
ED5
  8
0
 10
0.0
 20
0.0
 30
0.0
 70
   128
 71
     8
 72
     7
 73
     3
  0
VERTEX
  5
ED6
  8
0
 10
0.0
 20
0.0
 30
0.0
 70
   128
 71
     8
 72
     3
 73
     2
  0
VERTEX
  5
ED7
  8
0
 10
0.0
 20
0.0
 30
0.0
 70
   128
 71
     9
 72
     4
 73
    10
  0
VERTEX
  5
ED8
  8
0
 10
0.0
 20
0.0
 30
0.0
 70
   128
 71
    11
 72
    12
 73
     1
  0
VERTEX
  5
ED9
  8
0
 10
0.0
 20
0.0
 30
0.0
 70
   128
 71
     1
 72
     4
 73
     9
  0
VERTEX
  5
EDA
  8
0
 10
0.0
 20
0.0
 30
0.0
 70
   128
 71
     1
 72
     9
 73
    11
  0
SEQEND
  5
1A5A
  8
0
  0
POLYLINE
  5
EDB
  8
0
 66
     1
 10
0.0
 20
0.0
 30
0.0
 70
    64
 71
     8
 72
     6
  0
VERTEX
  5
EDC
  8
0
 10
-20.49999999999999
 20
24.74984241632307
 30
4.932658835052215
 70
   192
  0
VERTEX
  5
EDD
  8
0
 10
20.5
 20
24.74984241632307
 30
4.932658835052216
 70
   192
  0
VERTEX
  5
EDE
  8
0
 10
20.5
 20
24.93265883505202
 30
4.749842416323263
 70
   192
  0
VERTEX
  5
EDF
  8
0
 10
-20.5
 20
24.93265883505202
 30
4.749842416323262
 70
   192
  0
VERTEX
  5
EE0
  8
0
 10
-20.5
 20
24.49999999999998
 30
5.000000000000174
 70
   192
  0
VERTEX
  5
EE1
  8
0
 10
20.5
 20
24.49999999999998
 30
5.000000000000174
 70
   192
  0
VERTEX
  5
EE2
  8
0
 10
20.5
 20
24.99999999999999
 30
4.500000000000174
 70
   192
  0
VERTEX
  5
EE3
  8
0
 10
-20.5
 20
24.99999999999999
 30
4.500000000000174
 70
   192
  0
VERTEX
  5
EE4
  8
0
 10
0.0
 20
0.0
 30
0.0
 70
   128
 71
     1
 72
     2
 73
    -3
  0
VERTEX
  5
EE5
  8
0
 10
0.0
 20
0.0
 30
0.0
 70
   128
 71
    -1
 72
     3
 73
     4
  0
VERTEX
  5
EE6
  8
0
 10
0.0
 20
0.0
 30
0.0
 70
   128
 71
     5
 72
     6
 73
    -2
  0
VERTEX
  5
EE7
  8
0
 10
0.0
 20
0.0
 30
0.0
 70
   128
 71
    -5
 72
     2
 73
     1
  0
VERTEX
  5
EE8
  8
0
 10
0.0
 20
0.0
 30
0.0
 70
   128
 71
     4
 72
     3
 73
    -7
  0
VERTEX
  5
EE9
  8
0
 10
0.0
 20
0.0
 30
0.0
 70
   128
 71
    -4
 72
     7
 73
     8
  0
SEQEND
  5
1A5B
  8
0
  0
POLYLINE
  5
EEA
  8
0
 66
     1
 10
0.0
 20
0.0
 30
0.0
 70
    64
 71
    12
 72
    10
  0
VERTEX
  5
EEB
  8
0
 10
24.74984241632309
 20
20.49999999999998
 30
4.9326588350522
 70
   192
  0
VERTEX
  5
EEC
  8
0
 10
20.5
 20
24.93265883505202
 30
4.749842416323263
 70
   192
  0
VERTEX
  5
EED
  8
0
 10
20.5
 20
24.74984241632307
 30
4.932658835052216
 70
   192
  0
VERTEX
  5
EEE
  8
0
 10
24.93265883505204
 20
20.49999999999999
 30
4.749842416323246
 70
   192
  0
VERTEX
  5
EEF
  8
0
 10
22.74988038740126
 20
24.39693012598615
 30
4.500000000000173
 70
   192
  0
VERTEX
  5
EF0
  8
0
 10
20.5
 20
24.99999999999999
 30
4.500000000000174
 70
   192
  0
VERTEX
  5
EF1
  8
0
 10
24.39693012598617
 20
22.74988038740124
 30
4.500000000000167
 70
   192
  0
VERTEX
  5
EF2
  8
0
 10
25.0
 20
20.49999999999999
 30
4.50000000000016
 70
   192
  0
VERTEX
  5
EF3
  8
0
 10
22.50161039305942
 20
23.96380324442735
 30
5.000000000000171
 70
   192
  0
VERTEX
  5
EF4
  8
0
 10
20.5
 20
24.49999999999998
 30
5.000000000000174
 70
   192
  0
VERTEX
  5
EF5
  8
0
 10
23.96387263126528
 20
22.50153399905037
 30
5.000000000000166
 70
   192
  0
VERTEX
  5
EF6
  8
0
 10
24.5
 20
20.49999999999998
 30
5.000000000000161
 70
   192
  0
VERTEX
  5
EF7
  8
0
 10
0.0
 20
0.0
 30
0.0
 70
   128
 71
    -1
 72
     2
 73
     3
  0
VERTEX
  5
EF8
  8
0
 10
0.0
 20
0.0
 30
0.0
 70
   128
 71
     1
 72
     4
 73
    -2
  0
VERTEX
  5
EF9
  8
0
 10
0.0
 20
0.0
 30
0.0
 70
   128
 71
     5
 72
     6
 73
     2
  0
VERTEX
  5
EFA
  8
0
 10
0.0
 20
0.0
 30
0.0
 70
   128
 71
     2
 72
     7
 73
     5
  0
VERTEX
  5
EFB
  8
0
 10
0.0
 20
0.0
 30
0.0
 70
   128
 71
     8
 72
     7
 73
     2
  0
VERTEX
  5
EFC
  8
0
 10
0.0
 20
0.0
 30
0.0
 70
   128
 71
     8
 72
     2
 73
     4
  0
VERTEX
  5
EFD
  8
0
 10
0.0
 20
0.0
 30
0.0
 70
   128
 71
     9
 72
     3
 73
    10
  0
VERTEX
  5
EFE
  8
0
 10
0.0
 20
0.0
 30
0.0
 70
   128
 71
    11
 72
    12
 73
     1
  0
VERTEX
  5
EFF
  8
0
 10
0.0
 20
0.0
 30
0.0
 70
   128
 71
     1
 72
     3
 73
     9
  0
VERTEX
  5
F00
  8
0
 10
0.0
 20
0.0
 30
0.0
 70
   128
 71
     1
 72
     9
 73
    11
  0
SEQEND
  5
1A5C
  8
0
  0
POLYLINE
  5
F01
  8
0
 66
     1
 10
0.0
 20
0.0
 30
0.0
 70
    64
 71
     8
 72
     6
  0
VERTEX
  5
F02
  8
0
 10
24.74984241632309
 20
20.49999999999998
 30
4.9326588350522
 70
   192
  0
VERTEX
  5
F03
  8
0
 10
24.74984241632309
 20
-20.5
 30
4.932658835052057
 70
   192
  0
VERTEX
  5
F04
  8
0
 10
24.93265883505204
 20
-20.5
 30
4.749842416323105
 70
   192
  0
VERTEX
  5
F05
  8
0
 10
24.93265883505204
 20
20.49999999999999
 30
4.749842416323246
 70
   192
  0
VERTEX
  5
F06
  8
0
 10
24.5
 20
20.49999999999998
 30
5.000000000000161
 70
   192
  0
VERTEX
  5
F07
  8
0
 10
24.5
 20
-20.50000000000002
 30
5.000000000000015
 70
   192
  0
VERTEX
  5
F08
  8
0
 10
25.0
 20
-20.50000000000001
 30
4.500000000000018
 70
   192
  0
VERTEX
  5
F09
  8
0
 10
25.0
 20
20.49999999999999
 30
4.50000000000016
 70
   192
  0
VERTEX
  5
F0A
  8
0
 10
0.0
 20
0.0
 30
0.0
 70
   128
 71
     1
 72
     2
 73
    -3
  0
VERTEX
  5
F0B
  8
0
 10
0.0
 20
0.0
 30
0.0
 70
   128
 71
    -1
 72
     3
 73
     4
  0
VERTEX
  5
F0C
  8
0
 10
0.0
 20
0.0
 30
0.0
 70
   128
 71
     5
 72
     6
 73
    -2
  0
VERTEX
  5
F0D
  8
0
 10
0.0
 20
0.0
 30
0.0
 70
   128
 71
    -5
 72
     2
 73
     1
  0
VERTEX
  5
F0E
  8
0
 10
0.0
 20
0.0
 30
0.0
 70
   128
 71
     4
 72
     3
 73
    -7
  0
VERTEX
  5
F0F
  8
0
 10
0.0
 20
0.0
 30
0.0
 70
   128
 71
    -4
 72
     7
 73
     8
  0
SEQEND
  5
1A5D
  8
0
  0
ENDBLK
  5
1A4B
  8
0
  0
BLOCK
  8
0
  2
*X2
 70
     1
 10
0.0
 20
0.0
 30
0.0
  3
*X2
  1

  0
POLYLINE
  5
F11
  8
0
 66
     1
 10
0.0
 20
0.0
 30
0.0
 70
    64
 71
     4
 72
     2
  0
VERTEX
  5
F12
  8
0
 10
-17.52499999992785
 20
-12.77500000000063
 30
180.734283167375
 70
   192
  0
VERTEX
  5
F13
  8
0
 10
-17.5250000000092
 20
-12.77500000000038
 30
164.7438071031805
 70
   192
  0
VERTEX
  5
F14
  8
0
 10
-17.5250000000092
 20
12.72499999999942
 30
164.7438071031806
 70
   192
  0
VERTEX
  5
F15
  8
0
 10
-17.52499999992765
 20
12.72499999999951
 30
180.7342831673751
 70
   192
  0
VERTEX
  5
F16
  8
0
 10
0.0
 20
0.0
 30
0.0
 70
   128
 71
     1
 72
     4
 73
    -3
  0
VERTEX
  5
F17
  8
0
 10
0.0
 20
0.0
 30
0.0
 70
   128
 71
    -1
 72
     3
 73
     2
  0
SEQEND
  5
1A60
  8
0
  0
POLYLINE
  5
F18
  8
0
 66
     1
 10
0.0
 20
0.0
 30
0.0
 70
    64
 71
     8
 72
     6
  0
VERTEX
  5
F19
  8
0
 10
-17.52499999992785
 20
-12.77500000000063
 30
180.734283167375
 70
   192
  0
VERTEX
  5
F1A
  8
0
 10
-17.5250000000092
 20
-12.77500000000038
 30
164.7438071031805
 70
   192
  0
VERTEX
  5
F1B
  8
0
 10
-16.85183710573527
 20
-15.1425411211695
 30
164.4297593029196
 70
   192
  0
VERTEX
  5
F1C
  8
0
 10
-16.94243962511403
 20
-14.9889362751731
 30
180.7713809532218
 70
   192
  0
VERTEX
  5
F1D
  8
0
 10
-15.33468374283401
 20
-16.63704082508523
 30
163.7222400507849
 70
   192
  0
VERTEX
  5
F1E
  8
0
 10
-15.44350045303571
 20
-16.56985173862386
 30
180.8661914036271
 70
   192
  0
VERTEX
  5
F1F
  8
0
 10
-13.0250000000089
 20
-17.27500000000057
 30
162.645422641481
 70
   192
  0
VERTEX
  5
F20
  8
0
 10
-13.02500000000852
 20
-17.27499999992033
 30
181.0186433570015
 70
   192
  0
VERTEX
  5
F21
  8
0
 10
0.0
 20
0.0
 30
0.0
 70
   128
 71
     1
 72
     2
 73
     3
  0
VERTEX
  5
F22
  8
0
 10
0.0
 20
0.0
 30
0.0
 70
   128
 71
     1
 72
     3
 73
     4
  0
VERTEX
  5
F23
  8
0
 10
0.0
 20
0.0
 30
0.0
 70
   128
 71
     4
 72
     3
 73
     5
  0
VERTEX
  5
F24
  8
0
 10
0.0
 20
0.0
 30
0.0
 70
   128
 71
     4
 72
     5
 73
     6
  0
VERTEX
  5
F25
  8
0
 10
0.0
 20
0.0
 30
0.0
 70
   128
 71
     6
 72
     5
 73
     7
  0
VERTEX
  5
F26
  8
0
 10
0.0
 20
0.0
 30
0.0
 70
   128
 71
     6
 72
     7
 73
     8
  0
SEQEND
  5
1A61
  8
0
  0
POLYLINE
  5
F27
  8
0
 66
     1
 10
0.0
 20
0.0
 30
0.0
 70
    64
 71
     8
 72
     6
  0
VERTEX
  5
F28
  8
0
 10
-17.46629510939868
 20
12.72499999999431
 30
180.969133810575
 70
   192
  0
VERTEX
  5
F29
  8
0
 10
-17.46629510939893
 20
-12.77500000000076
 30
180.9691338106004
 70
   192
  0
VERTEX
  5
F2A
  8
0
 10
-17.29055209616629
 20
-12.77499999999972
 30
181.1578140466746
 70
   192
  0
VERTEX
  5
F2B
  8
0
 10
-17.29055209616982
 20
12.72499999999837
 30
181.1578140466664
 70
   192
  0
VERTEX
  5
F2C
  8
0
 10
-17.52499999992765
 20
12.72499999999951
 30
180.7342831673751
 70
   192
  0
VERTEX
  5
F2D
  8
0
 10
-17.52499999992785
 20
-12.77500000000063
 30
180.734283167375
 70
   192
  0
VERTEX
  5
F2E
  8
0
 10
-17.0604555440813
 20
-12.77500000000063
 30
181.2330244874045
 70
   192
  0
VERTEX
  5
F2F
  8
0
 10
-17.06045554408065
 20
12.72499999999937
 30
181.2330244874091
 70
   192
  0
VERTEX
  5
F30
  8
0
 10
0.0
 20
0.0
 30
0.0
 70
   128
 71
     1
 72
     2
 73
    -3
  0
VERTEX
  5
F31
  8
0
 10
0.0
 20
0.0
 30
0.0
 70
   128
 71
    -1
 72
     3
 73
     4
  0
VERTEX
  5
F32
  8
0
 10
0.0
 20
0.0
 30
0.0
 70
   128
 71
     5
 72
     6
 73
    -2
  0
VERTEX
  5
F33
  8
0
 10
0.0
 20
0.0
 30
0.0
 70
   128
 71
    -5
 72
     2
 73
     1
  0
VERTEX
  5
F34
  8
0
 10
0.0
 20
0.0
 30
0.0
 70
   128
 71
     4
 72
     3
 73
    -7
  0
VERTEX
  5
F35
  8
0
 10
0.0
 20
0.0
 30
0.0
 70
   128
 71
    -4
 72
     7
 73
     8
  0
SEQEND
  5
1A62
  8
0
  0
POLYLINE
  5
F36
  8
0
 66
     1
 10
0.0
 20
0.0
 30
0.0
 70
    64
 71
     8
 72
     6
  0
VERTEX
  5
F37
  8
0
 10
-17.5250000000092
 20
12.72499999999942
 30
164.7438071031806
 70
   192
  0
VERTEX
  5
F38
  8
0
 10
-17.52499999992765
 20
12.72499999999951
 30
180.7342831673751
 70
   192
  0
VERTEX
  5
F39
  8
0
 10
-16.9426600684302
 20
14.93900499507871
 30
180.7713864393662
 70
   192
  0
VERTEX
  5
F3A
  8
0
 10
-16.85183375966675
 20
15.09255966042873
 30
164.42975100179
 70
   192
  0
VERTEX
  5
F3B
  8
0
 10
-15.44313500186394
 20
16.52026212371229
 30
180.8661874948351
 70
   192
  0
VERTEX
  5
F3C
  8
0
 10
-15.33463122737211
 20
16.58706670183946
 30
163.7222287278834
 70
   192
  0
VERTEX
  5
F3D
  8
0
 10
-13.02500000000854
 20
17.22499999991957
 30
181.0186433570001
 70
   192
  0
VERTEX
  5
F3E
  8
0
 10
-13.0250000000106
 20
17.22499999999943
 30
162.6454226414776
 70
   192
  0
VERTEX
  5
F3F
  8
0
 10
0.0
 20
0.0
 30
0.0
 70
   128
 71
     1
 72
     2
 73
     3
  0
VERTEX
  5
F40
  8
0
 10
0.0
 20
0.0
 30
0.0
 70
   128
 71
     1
 72
     3
 73
     4
  0
VERTEX
  5
F41
  8
0
 10
0.0
 20
0.0
 30
0.0
 70
   128
 71
     4
 72
     3
 73
     5
  0
VERTEX
  5
F42
  8
0
 10
0.0
 20
0.0
 30
0.0
 70
   128
 71
     4
 72
     5
 73
     6
  0
VERTEX
  5
F43
  8
0
 10
0.0
 20
0.0
 30
0.0
 70
   128
 71
     6
 72
     7
 73
     8
  0
VERTEX
  5
F44
  8
0
 10
0.0
 20
0.0
 30
0.0
 70
   128
 71
     6
 72
     5
 73
     7
  0
SEQEND
  5
1A63
  8
0
  0
POLYLINE
  5
F45
  8
0
 66
     1
 10
0.0
 20
0.0
 30
0.0
 70
    64
 71
    26
 72
    24
  0
VERTEX
  5
F46
  8
0
 10
-13.0250000000106
 20
17.22499999999943
 30
162.6454226414776
 70
   192
  0
VERTEX
  5
F47
  8
0
 10
-0.2750000000059295
 20
17.22499999999945
 30
156.6999999999876
 70
   192
  0
VERTEX
  5
F48
  8
0
 10
-0.2750000000046405
 20
16.52499999999946
 30
156.6999999999906
 70
   192
  0
VERTEX
  5
F49
  8
0
 10
-13.0250000000089
 20
15.84552312668508
 30
162.6454226414806
 70
   192
  0
VERTEX
  5
F4A
  8
0
 10
-13.86489903932363
 20
15.68443000525715
 30
163.0370739955442
 70
   192
  0
VERTEX
  5
F4B
  8
0
 10
-14.63023042305031
 20
15.3007204626685
 30
163.3939538808024
 70
   192
  0
VERTEX
  5
F4C
  8
0
 10
-15.2865484435683
 20
14.69614145545119
 30
163.6999999999866
 70
   192
  0
VERTEX
  5
F4D
  8
0
 10
-15.68513395898544
 20
14.11255143544565
 30
163.8858634782237
 70
   192
  0
VERTEX
  5
F4E
  8
0
 10
-15.93846820122761
 20
13.44180265553671
 30
164.0039951754542
 70
   192
  0
VERTEX
  5
F4F
  8
0
 10
-16.0250000000006
 20
12.72499999999943
 30
164.0443456158986
 70
   192
  0
VERTEX
  5
F50
  8
0
 10
-16.0250000000006
 20
-12.77500000000057
 30
164.0443456158985
 70
   192
  0
VERTEX
  5
F51
  8
0
 10
-15.93846820122828
 20
-13.49157309920535
 30
164.0039951754543
 70
   192
  0
VERTEX
  5
F52
  8
0
 10
-15.68528458678043
 20
-14.16237861575545
 30
163.885933717119
 70
   192
  0
VERTEX
  5
F53
  8
0
 10
-15.2865484435693
 20
-14.74614145545117
 30
163.6999999999865
 70
   192
  0
VERTEX
  5
F54
  8
0
 10
-14.6429539826962
 20
-15.34266937604501
 30
163.3998869741041
 70
   192
  0
VERTEX
  5
F55
  8
0
 10
-13.86511412673411
 20
-15.73441854275412
 30
163.0371742924522
 70
   192
  0
VERTEX
  5
F56
  8
0
 10
-13.02500000001036
 20
-15.89552312668622
 30
162.6454226414775
 70
   192
  0
VERTEX
  5
F57
  8
0
 10
-0.2750000000060805
 20
-16.57500000000055
 30
156.6999999999875
 70
   192
  0
VERTEX
  5
F58
  8
0
 10
-0.2750000000043615
 20
-17.27500000000055
 30
156.6999999999905
 70
   192
  0
VERTEX
  5
F59
  8
0
 10
-13.0250000000089
 20
-17.27500000000057
 30
162.645422641481
 70
   192
  0
VERTEX
  5
F5A
  8
0
 10
-15.33468374283401
 20
-16.63704082508523
 30
163.7222400507849
 70
   192
  0
VERTEX
  5
F5B
  8
0
 10
-16.85183710573527
 20
-15.1425411211695
 30
164.4297593029196
 70
   192
  0
VERTEX
  5
F5C
  8
0
 10
-17.5250000000092
 20
-12.77500000000038
 30
164.7438071031805
 70
   192
  0
VERTEX
  5
F5D
  8
0
 10
-17.5250000000092
 20
12.72499999999942
 30
164.7438071031806
 70
   192
  0
VERTEX
  5
F5E
  8
0
 10
-16.85183375966675
 20
15.09255966042873
 30
164.42975100179
 70
   192
  0
VERTEX
  5
F5F
  8
0
 10
-15.33463122737211
 20
16.58706670183946
 30
163.7222287278834
 70
   192
  0
VERTEX
  5
F60
  8
0
 10
0.0
 20
0.0
 30
0.0
 70
   128
 71
     2
 72
     3
 73
    -4
  0
VERTEX
  5
F61
  8
0
 10
0.0
 20
0.0
 30
0.0
 70
   128
 71
     1
 72
    -2
 73
    -4
  0
VERTEX
  5
F62
  8
0
 10
0.0
 20
0.0
 30
0.0
 70
   128
 71
     4
 72
    -5
 73
    -1
  0
VERTEX
  5
F63
  8
0
 10
0.0
 20
0.0
 30
0.0
 70
   128
 71
    -6
 72
    26
 73
    -1
  0
VERTEX
  5
F64
  8
0
 10
0.0
 20
0.0
 30
0.0
 70
   128
 71
     5
 72
    -6
 73
    -1
  0
VERTEX
  5
F65
  8
0
 10
0.0
 20
0.0
 30
0.0
 70
   128
 71
    -7
 72
    25
 73
   -26
  0
VERTEX
  5
F66
  8
0
 10
0.0
 20
0.0
 30
0.0
 70
   128
 71
     6
 72
    -7
 73
   -26
  0
VERTEX
  5
F67
  8
0
 10
0.0
 20
0.0
 30
0.0
 70
   128
 71
     7
 72
    -8
 73
   -25
  0
VERTEX
  5
F68
  8
0
 10
0.0
 20
0.0
 30
0.0
 70
   128
 71
    -9
 72
    24
 73
   -25
  0
VERTEX
  5
F69
  8
0
 10
0.0
 20
0.0
 30
0.0
 70
   128
 71
     8
 72
    -9
 73
   -25
  0
VERTEX
  5
F6A
  8
0
 10
0.0
 20
0.0
 30
0.0
 70
   128
 71
     9
 72
   -10
 73
   -24
  0
VERTEX
  5
F6B
  8
0
 10
0.0
 20
0.0
 30
0.0
 70
   128
 71
   -11
 72
    23
 73
   -24
  0
VERTEX
  5
F6C
  8
0
 10
0.0
 20
0.0
 30
0.0
 70
   128
 71
    10
 72
   -11
 73
   -24
  0
VERTEX
  5
F6D
  8
0
 10
0.0
 20
0.0
 30
0.0
 70
   128
 71
    11
 72
   -12
 73
   -23
  0
VERTEX
  5
F6E
  8
0
 10
0.0
 20
0.0
 30
0.0
 70
   128
 71
   -13
 72
    22
 73
   -23
  0
VERTEX
  5
F6F
  8
0
 10
0.0
 20
0.0
 30
0.0
 70
   128
 71
    12
 72
   -13
 73
   -23
  0
VERTEX
  5
F70
  8
0
 10
0.0
 20
0.0
 30
0.0
 70
   128
 71
    13
 72
   -14
 73
   -22
  0
VERTEX
  5
F71
  8
0
 10
0.0
 20
0.0
 30
0.0
 70
   128
 71
   -15
 72
    21
 73
   -22
  0
VERTEX
  5
F72
  8
0
 10
0.0
 20
0.0
 30
0.0
 70
   128
 71
    14
 72
   -15
 73
   -22
  0
VERTEX
  5
F73
  8
0
 10
0.0
 20
0.0
 30
0.0
 70
   128
 71
   -16
 72
    20
 73
   -21
  0
VERTEX
  5
F74
  8
0
 10
0.0
 20
0.0
 30
0.0
 70
   128
 71
    15
 72
   -16
 73
   -21
  0
VERTEX
  5
F75
  8
0
 10
0.0
 20
0.0
 30
0.0
 70
   128
 71
    16
 72
   -17
 73
   -20
  0
VERTEX
  5
F76
  8
0
 10
0.0
 20
0.0
 30
0.0
 70
   128
 71
    18
 72
    19
 73
   -20
  0
VERTEX
  5
F77
  8
0
 10
0.0
 20
0.0
 30
0.0
 70
   128
 71
    17
 72
   -18
 73
   -20
  0
SEQEND
  5
1A64
  8
0
  0
POLYLINE
  5
F78
  8
0
 66
     1
 10
0.0
 20
0.0
 30
0.0
 70
    64
 71
    14
 72
    12
  0
VERTEX
  5
F79
  8
0
 10
22.47499999665975
 20
-17.27500000000034
 30
183.5423400863
 70
   192
  0
VERTEX
  5
F7A
  8
0
 10
-13.02500000000852
 20
-17.27499999992033
 30
181.0186433570015
 70
   192
  0
VERTEX
  5
F7B
  8
0
 10
-13.0250000000089
 20
-17.27500000000057
 30
162.645422641481
 70
   192
  0
VERTEX
  5
F7C
  8
0
 10
-0.2750000000043615
 20
-17.27500000000055
 30
156.6999999999905
 70
   192
  0
VERTEX
  5
F7D
  8
0
 10
12.4749999999985
 20
-17.27500000000055
 30
156.7
 70
   192
  0
VERTEX
  5
F7E
  8
0
 10
12.47500000594294
 20
-17.2749998433225
 30
161.6836411421368
 70
   192
  0
VERTEX
  5
F7F
  8
0
 10
12.47500001093884
 20
-17.27499874657608
 30
166.6672822840941
 70
   192
  0
VERTEX
  5
F80
  8
0
 10
12.47500001403572
 20
-17.2749957696929
 30
171.6509234256926
 70
   192
  0
VERTEX
  5
F81
  8
0
 10
13.44768031634181
 20
-17.27500000000061
 30
175.4357576418846
 70
   192
  0
VERTEX
  5
F82
  8
0
 10
15.98006061542902
 20
-17.27500000000063
 30
178.721914998356
 70
   192
  0
VERTEX
  5
F83
  8
0
 10
20.57399979554
 20
-17.27499999999953
 30
180.6165042033
 70
   192
  0
VERTEX
  5
F84
  8
0
 10
21.20666464582023
 20
-17.27499999999692
 30
180.6504019154759
 70
   192
  0
VERTEX
  5
F85
  8
0
 10
21.84233308292078
 20
-17.27499999998535
 30
180.6560371309864
 70
   192
  0
VERTEX
  5
F86
  8
0
 10
22.4749979501795
 20
-17.27499999996878
 30
180.6899346834
 70
   192
  0
VERTEX
  5
F87
  8
0
 10
0.0
 20
0.0
 30
0.0
 70
   128
 71
     4
 72
     5
 73
    -6
  0
VERTEX
  5
F88
  8
0
 10
0.0
 20
0.0
 30
0.0
 70
   128
 71
    -7
 72
     3
 73
    -4
  0
VERTEX
  5
F89
  8
0
 10
0.0
 20
0.0
 30
0.0
 70
   128
 71
     6
 72
    -7
 73
    -4
  0
VERTEX
  5
F8A
  8
0
 10
0.0
 20
0.0
 30
0.0
 70
   128
 71
    -8
 72
     2
 73
    -3
  0
VERTEX
  5
F8B
  8
0
 10
0.0
 20
0.0
 30
0.0
 70
   128
 71
     7
 72
    -8
 73
    -3
  0
VERTEX
  5
F8C
  8
0
 10
0.0
 20
0.0
 30
0.0
 70
   128
 71
     8
 72
    -9
 73
    -2
  0
VERTEX
  5
F8D
  8
0
 10
0.0
 20
0.0
 30
0.0
 70
   128
 71
     9
 72
   -10
 73
    -2
  0
VERTEX
  5
F8E
  8
0
 10
0.0
 20
0.0
 30
0.0
 70
   128
 71
   -10
 72
     1
 73
    -2
  0
VERTEX
  5
F8F
  8
0
 10
0.0
 20
0.0
 30
0.0
 70
   128
 71
    10
 72
   -11
 73
    -1
  0
VERTEX
  5
F90
  8
0
 10
0.0
 20
0.0
 30
0.0
 70
   128
 71
    11
 72
   -12
 73
    -1
  0
VERTEX
  5
F91
  8
0
 10
0.0
 20
0.0
 30
0.0
 70
   128
 71
    12
 72
   -13
 73
    -1
  0
VERTEX
  5
F92
  8
0
 10
0.0
 20
0.0
 30
0.0
 70
   128
 71
    13
 72
    14
 73
    -1
  0
SEQEND
  5
1A65
  8
0
  0
POLYLINE
  5
F93
  8
0
 66
     1
 10
0.0
 20
0.0
 30
0.0
 70
    64
 71
    22
 72
    20
  0
VERTEX
  5
F94
  8
0
 10
83.78222279845531
 20
-14.1425944884007
 30
188.401935269751
 70
   192
  0
VERTEX
  5
F95
  8
0
 10
63.36253047065077
 20
-15.60457650023872
 30
186.9502983743009
 70
   192
  0
VERTEX
  5
F96
  8
0
 10
42.90941344333673
 20
-16.48229038789659
 30
185.4962853154927
 70
   192
  0
VERTEX
  5
F97
  8
0
 10
22.4395444559343
 20
-16.7750206664307
 30
184.0410813591625
 70
   192
  0
VERTEX
  5
F98
  8
0
 10
-13.06045554408196
 20
-16.77500000000064
 30
181.5173846769805
 70
   192
  0
VERTEX
  5
F99
  8
0
 10
-15.02538965290473
 20
-16.25913923154489
 30
181.3776889112132
 70
   192
  0
VERTEX
  5
F9A
  8
0
 10
-16.53733866610913
 20
-14.75276839163415
 30
181.2702045478638
 70
   192
  0
VERTEX
  5
F9B
  8
0
 10
-17.0604555440813
 20
-12.77500000000063
 30
181.2330244874045
 70
   192
  0
VERTEX
  5
F9C
  8
0
 10
-17.06045554408065
 20
12.72499999999937
 30
181.2330244874091
 70
   192
  0
VERTEX
  5
F9D
  8
0
 10
-16.58520782484295
 20
14.61615712035154
 30
181.2668003292872
 70
   192
  0
VERTEX
  5
F9E
  8
0
 10
-15.06727900244253
 20
16.18445084596419
 30
181.3747137639668
 70
   192
  0
VERTEX
  5
F9F
  8
0
 10
-13.06045554408074
 20
16.72499999999937
 30
181.5173846769636
 70
   192
  0
VERTEX
  5
FA0
  8
0
 10
22.4395444559348
 20
16.72502066647806
 30
184.0410813591557
 70
   192
  0
VERTEX
  5
FA1
  8
0
 10
42.90941344334835
 20
16.43229038783659
 30
185.4962853154848
 70
   192
  0
VERTEX
  5
FA2
  8
0
 10
63.36253047062785
 20
15.55457650006971
 30
186.9502983742908
 70
   192
  0
VERTEX
  5
FA3
  8
0
 10
83.78222279845662
 20
14.09259448843938
 30
188.4019352697321
 70
   192
  0
VERTEX
  5
FA4
  8
0
 10
85.6255190583095
 20
13.45755268861101
 30
188.5329683705157
 70
   192
  0
VERTEX
  5
FA5
  8
0
 10
86.97044166029295
 20
11.9869091934609
 30
188.6285804487749
 70
   192
  0
VERTEX
  5
FA6
  8
0
 10
87.43954445591989
 20
10.10727927076934
 30
188.6619344399891
 70
   192
  0
VERTEX
  5
FA7
  8
0
 10
87.4395444559196
 20
-10.15727927077066
 30
188.6619344400061
 70
   192
  0
VERTEX
  5
FA8
  8
0
 10
87.01226473695073
 20
-11.95616634431804
 30
188.631552894673
 70
   192
  0
VERTEX
  5
FA9
  8
0
 10
85.64017204547086
 20
-13.49711362489312
 30
188.5340134144741
 70
   192
  0
VERTEX
  5
FAA
  8
0
 10
0.0
 20
0.0
 30
0.0
 70
   128
 71
    13
 72
    12
 73
   -11
  0
VERTEX
  5
FAB
  8
0
 10
0.0
 20
0.0
 30
0.0
 70
   128
 71
   -13
 72
    11
 73
   -10
  0
VERTEX
  5
FAC
  8
0
 10
0.0
 20
0.0
 30
0.0
 70
   128
 71
   -13
 72
    10
 73
    -9
  0
VERTEX
  5
FAD
  8
0
 10
0.0
 20
0.0
 30
0.0
 70
   128
 71
   -13
 72
     9
 73
    -8
  0
VERTEX
  5
FAE
  8
0
 10
0.0
 20
0.0
 30
0.0
 70
   128
 71
   -13
 72
     8
 73
    -7
  0
VERTEX
  5
FAF
  8
0
 10
0.0
 20
0.0
 30
0.0
 70
   128
 71
   -13
 72
     7
 73
    -6
  0
VERTEX
  5
FB0
  8
0
 10
0.0
 20
0.0
 30
0.0
 70
   128
 71
   -13
 72
     6
 73
    -5
  0
VERTEX
  5
FB1
  8
0
 10
0.0
 20
0.0
 30
0.0
 70
   128
 71
   -13
 72
     5
 73
    -4
  0
VERTEX
  5
FB2
  8
0
 10
0.0
 20
0.0
 30
0.0
 70
   128
 71
     4
 72
    -3
 73
   -14
  0
VERTEX
  5
FB3
  8
0
 10
0.0
 20
0.0
 30
0.0
 70
   128
 71
    -4
 72
    14
 73
   -13
  0
VERTEX
  5
FB4
  8
0
 10
0.0
 20
0.0
 30
0.0
 70
   128
 71
     3
 72
    -2
 73
   -15
  0
VERTEX
  5
FB5
  8
0
 10
0.0
 20
0.0
 30
0.0
 70
   128
 71
    -3
 72
    15
 73
   -14
  0
VERTEX
  5
FB6
  8
0
 10
0.0
 20
0.0
 30
0.0
 70
   128
 71
     2
 72
     1
 73
   -22
  0
VERTEX
  5
FB7
  8
0
 10
0.0
 20
0.0
 30
0.0
 70
   128
 71
    -2
 72
    22
 73
   -21
  0
VERTEX
  5
FB8
  8
0
 10
0.0
 20
0.0
 30
0.0
 70
   128
 71
    -2
 72
    21
 73
   -20
  0
VERTEX
  5
FB9
  8
0
 10
0.0
 20
0.0
 30
0.0
 70
   128
 71
    -2
 72
    20
 73
   -19
  0
VERTEX
  5
FBA
  8
0
 10
0.0
 20
0.0
 30
0.0
 70
   128
 71
    -2
 72
    19
 73
   -18
  0
VERTEX
  5
FBB
  8
0
 10
0.0
 20
0.0
 30
0.0
 70
   128
 71
    -2
 72
    18
 73
   -17
  0
VERTEX
  5
FBC
  8
0
 10
0.0
 20
0.0
 30
0.0
 70
   128
 71
    -2
 72
    17
 73
   -16
  0
VERTEX
  5
FBD
  8
0
 10
0.0
 20
0.0
 30
0.0
 70
   128
 71
    -2
 72
    16
 73
   -15
  0
SEQEND
  5
1A66
  8
0
  0
POLYLINE
  5
FBE
  8
0
 66
     1
 10
0.0
 20
0.0
 30
0.0
 70
    64
 71
    18
 72
    16
  0
VERTEX
  5
FBF
  8
0
 10
-13.02500000000854
 20
17.22499999991957
 30
181.0186433570001
 70
   192
  0
VERTEX
  5
FC0
  8
0
 10
-13.0250000000106
 20
17.22499999999943
 30
162.6454226414776
 70
   192
  0
VERTEX
  5
FC1
  8
0
 10
-0.2750000000059295
 20
17.22499999999945
 30
156.6999999999876
 70
   192
  0
VERTEX
  5
FC2
  8
0
 10
12.475
 20
17.22499999999945
 30
156.7000000000001
 70
   192
  0
VERTEX
  5
FC3
  8
0
 10
12.47500000594639
 20
17.22499984332133
 30
161.6836411421369
 70
   192
  0
VERTEX
  5
FC4
  8
0
 10
12.4750000109421
 20
17.22499874657453
 30
166.6672822840943
 70
   192
  0
VERTEX
  5
FC5
  8
0
 10
12.47500001403648
 20
17.22499576969041
 30
171.6509234256927
 70
   192
  0
VERTEX
  5
FC6
  8
0
 10
13.43133671358552
 20
17.22499997611801
 30
175.3986990124708
 70
   192
  0
VERTEX
  5
FC7
  8
0
 10
15.96929868107163
 20
17.22499999170959
 30
178.7126935755871
 70
   192
  0
VERTEX
  5
FC8
  8
0
 10
20.57399979534
 20
17.22499999999902
 30
180.6165042033001
 70
   192
  0
VERTEX
  5
FC9
  8
0
 10
21.2066646895342
 20
17.22499999999628
 30
180.6504016749253
 70
   192
  0
VERTEX
  5
FCA
  8
0
 10
21.84233327961343
 20
17.22499999998452
 30
180.6560366557135
 70
   192
  0
VERTEX
  5
FCB
  8
0
 10
22.4749985192225
 20
17.22499999997002
 30
180.6899339734002
 70
   192
  0
VERTEX
  5
FCC
  8
0
 10
22.47499970716035
 20
17.22499999999072
 30
181.6407360110338
 70
   192
  0
VERTEX
  5
FCD
  8
0
 10
22.47499979841177
 20
17.22499999999809
 30
182.591538048669
 70
   192
  0
VERTEX
  5
FCE
  8
0
 10
22.47499999749385
 20
17.22499999999845
 30
183.5423400863076
 70
   192
  0
VERTEX
  5
FCF
  8
0
 10
10.64166666468301
 20
17.22499999999614
 30
182.7011078432139
 70
   192
  0
VERTEX
  5
FD0
  8
0
 10
-1.19166666775597
 20
17.22499999997569
 30
181.8598756001096
 70
   192
  0
VERTEX
  5
FD1
  8
0
 10
0.0
 20
0.0
 30
0.0
 70
   128
 71
     7
 72
     6
 73
    -5
  0
VERTEX
  5
FD2
  8
0
 10
0.0
 20
0.0
 30
0.0
 70
   128
 71
    -7
 72
    -5
 73
   -17
  0
VERTEX
  5
FD3
  8
0
 10
0.0
 20
0.0
 30
0.0
 70
   128
 71
   -17
 72
     8
 73
    -7
  0
VERTEX
  5
FD4
  8
0
 10
0.0
 20
0.0
 30
0.0
 70
   128
 71
   -17
 72
     9
 73
    -8
  0
VERTEX
  5
FD5
  8
0
 10
0.0
 20
0.0
 30
0.0
 70
   128
 71
   -17
 72
   -14
 73
   -10
  0
VERTEX
  5
FD6
  8
0
 10
0.0
 20
0.0
 30
0.0
 70
   128
 71
   -17
 72
    10
 73
    -9
  0
VERTEX
  5
FD7
  8
0
 10
0.0
 20
0.0
 30
0.0
 70
   128
 71
   -14
 72
    11
 73
   -10
  0
VERTEX
  5
FD8
  8
0
 10
0.0
 20
0.0
 30
0.0
 70
   128
 71
   -14
 72
    12
 73
   -11
  0
VERTEX
  5
FD9
  8
0
 10
0.0
 20
0.0
 30
0.0
 70
   128
 71
    14
 72
    13
 73
   -12
  0
VERTEX
  5
FDA
  8
0
 10
0.0
 20
0.0
 30
0.0
 70
   128
 71
   -17
 72
    15
 73
   -14
  0
VERTEX
  5
FDB
  8
0
 10
0.0
 20
0.0
 30
0.0
 70
   128
 71
    17
 72
    16
 73
   -15
  0
VERTEX
  5
FDC
  8
0
 10
0.0
 20
0.0
 30
0.0
 70
   128
 71
     5
 72
     4
 73
    -3
  0
VERTEX
  5
FDD
  8
0
 10
0.0
 20
0.0
 30
0.0
 70
   128
 71
    -3
 72
    18
 73
   -17
  0
VERTEX
  5
FDE
  8
0
 10
0.0
 20
0.0
 30
0.0
 70
   128
 71
    -3
 72
   -17
 73
    -5
  0
VERTEX
  5
FDF
  8
0
 10
0.0
 20
0.0
 30
0.0
 70
   128
 71
     3
 72
     2
 73
    -1
  0
VERTEX
  5
FE0
  8
0
 10
0.0
 20
0.0
 30
0.0
 70
   128
 71
    -3
 72
     1
 73
   -18
  0
SEQEND
  5
1A67
  8
0
  0
POLYLINE
  5
FE1
  8
0
 66
     1
 10
0.0
 20
0.0
 30
0.0
 70
    64
 71
     5
 72
     3
  0
VERTEX
  5
FE2
  8
0
 10
12.475
 20
-15.77500000000057
 30
163.7
 70
   192
  0
VERTEX
  5
FE3
  8
0
 10
-13.025
 20
-15.77499999999942
 30
163.7
 70
   192
  0
VERTEX
  5
FE4
  8
0
 10
-13.02500000001036
 20
-15.89552312668622
 30
162.6454226414775
 70
   192
  0
VERTEX
  5
FE5
  8
0
 10
-0.2750000000060805
 20
-16.57500000000055
 30
156.6999999999875
 70
   192
  0
VERTEX
  5
FE6
  8
0
 10
12.475
 20
-16.57500000000055
 30
156.7
 70
   192
  0
VERTEX
  5
FE7
  8
0
 10
0.0
 20
0.0
 30
0.0
 70
   128
 71
     1
 72
     5
 73
    -4
  0
VERTEX
  5
FE8
  8
0
 10
0.0
 20
0.0
 30
0.0
 70
   128
 71
    -1
 72
     4
 73
    -3
  0
VERTEX
  5
FE9
  8
0
 10
0.0
 20
0.0
 30
0.0
 70
   128
 71
    -1
 72
     3
 73
     2
  0
SEQEND
  5
1A68
  8
0
  0
POLYLINE
  5
FEA
  8
0
 66
     1
 10
0.0
 20
0.0
 30
0.0
 70
    64
 71
     7
 72
     5
  0
VERTEX
  5
FEB
  8
0
 10
-14.6429539826962
 20
-15.34266937604501
 30
163.3998869741041
 70
   192
  0
VERTEX
  5
FEC
  8
0
 10
-14.64192590296971
 20
-15.30172234025771
 30
163.699999999999
 70
   192
  0
VERTEX
  5
FED
  8
0
 10
-13.86737176606706
 20
-15.65409447017372
 30
163.6999999999995
 70
   192
  0
VERTEX
  5
FEE
  8
0
 10
-13.025
 20
-15.77499999999942
 30
163.7
 70
   192
  0
VERTEX
  5
FEF
  8
0
 10
-13.02500000001036
 20
-15.89552312668622
 30
162.6454226414775
 70
   192
  0
VERTEX
  5
FF0
  8
0
 10
-13.86511412673411
 20
-15.73441854275412
 30
163.0371742924522
 70
   192
  0
VERTEX
  5
FF1
  8
0
 10
-15.2865484435693
 20
-14.74614145545117
 30
163.6999999999865
 70
   192
  0
VERTEX
  5
FF2
  8
0
 10
0.0
 20
0.0
 30
0.0
 70
   128
 71
     1
 72
     2
 73
     3
  0
VERTEX
  5
FF3
  8
0
 10
0.0
 20
0.0
 30
0.0
 70
   128
 71
     4
 72
     5
 73
     6
  0
VERTEX
  5
FF4
  8
0
 10
0.0
 20
0.0
 30
0.0
 70
   128
 71
     3
 72
     4
 73
     6
  0
VERTEX
  5
FF5
  8
0
 10
0.0
 20
0.0
 30
0.0
 70
   128
 71
     1
 72
     3
 73
     6
  0
VERTEX
  5
FF6
  8
0
 10
0.0
 20
0.0
 30
0.0
 70
   128
 71
     7
 72
     2
 73
     1
  0
SEQEND
  5
1A69
  8
0
  0
POLYLINE
  5
FF7
  8
0
 66
     1
 10
0.0
 20
0.0
 30
0.0
 70
    64
 71
     4
 72
     2
  0
VERTEX
  5
FF8
  8
0
 10
-16.02499999999885
 20
12.72499999999937
 30
179.3015876453842
 70
   192
  0
VERTEX
  5
FF9
  8
0
 10
-16.0250000000006
 20
12.72499999999943
 30
164.0443456158986
 70
   192
  0
VERTEX
  5
FFA
  8
0
 10
-16.0250000000006
 20
-12.77500000000057
 30
164.0443456158985
 70
   192
  0
VERTEX
  5
FFB
  8
0
 10
-16.02499999999885
 20
-12.77500000000063
 30
179.301587645384
 70
   192
  0
VERTEX
  5
FFC
  8
0
 10
0.0
 20
0.0
 30
0.0
 70
   128
 71
     1
 72
     4
 73
    -3
  0
VERTEX
  5
FFD
  8
0
 10
0.0
 20
0.0
 30
0.0
 70
   128
 71
    -1
 72
     3
 73
     2
  0
SEQEND
  5
1A6A
  8
0
  0
POLYLINE
  5
FFE
  8
0
 66
     1
 10
0.0
 20
0.0
 30
0.0
 70
    64
 71
     7
 72
     5
  0
VERTEX
  5
FFF
  8
0
 10
-14.63023042305031
 20
15.3007204626685
 30
163.3939538808024
 70
   192
  0
VERTEX
  5
1000
  8
0
 10
-14.64192590296946
 20
15.25172234026184
 30
163.6999999999997
 70
   192
  0
VERTEX
  5
1001
  8
0
 10
-15.2865484435683
 20
14.69614145545119
 30
163.6999999999866
 70
   192
  0
VERTEX
  5
1002
  8
0
 10
-13.86737176606682
 20
15.60409447017716
 30
163.7000000000002
 70
   192
  0
VERTEX
  5
1003
  8
0
 10
-13.86489903932363
 20
15.68443000525715
 30
163.0370739955442
 70
   192
  0
VERTEX
  5
1004
  8
0
 10
-13.025
 20
15.72499999999833
 30
163.7000000000002
 70
   192
  0
VERTEX
  5
1005
  8
0
 10
-13.0250000000089
 20
15.84552312668508
 30
162.6454226414806
 70
   192
  0
VERTEX
  5
1006
  8
0
 10
0.0
 20
0.0
 30
0.0
 70
   128
 71
     1
 72
     2
 73
     3
  0
VERTEX
  5
1007
  8
0
 10
0.0
 20
0.0
 30
0.0
 70
   128
 71
     4
 72
     2
 73
     1
  0
VERTEX
  5
1008
  8
0
 10
0.0
 20
0.0
 30
0.0
 70
   128
 71
     5
 72
     4
 73
     1
  0
VERTEX
  5
1009
  8
0
 10
0.0
 20
0.0
 30
0.0
 70
   128
 71
     6
 72
     4
 73
     5
  0
VERTEX
  5
100A
  8
0
 10
0.0
 20
0.0
 30
0.0
 70
   128
 71
     7
 72
     6
 73
     5
  0
SEQEND
  5
1A6B
  8
0
  0
POLYLINE
  5
100B
  8
0
 66
     1
 10
0.0
 20
0.0
 30
0.0
 70
    64
 71
     5
 72
     3
  0
VERTEX
  5
100C
  8
0
 10
-13.025
 20
15.72499999999833
 30
163.7000000000002
 70
   192
  0
VERTEX
  5
100D
  8
0
 10
12.475
 20
15.72499999999942
 30
163.7000000000002
 70
   192
  0
VERTEX
  5
100E
  8
0
 10
12.475
 20
16.52499999999946
 30
156.7000000000001
 70
   192
  0
VERTEX
  5
100F
  8
0
 10
-0.2750000000046405
 20
16.52499999999946
 30
156.6999999999906
 70
   192
  0
VERTEX
  5
1010
  8
0
 10
-13.0250000000089
 20
15.84552312668508
 30
162.6454226414806
 70
   192
  0
VERTEX
  5
1011
  8
0
 10
0.0
 20
0.0
 30
0.0
 70
   128
 71
     1
 72
     5
 73
    -4
  0
VERTEX
  5
1012
  8
0
 10
0.0
 20
0.0
 30
0.0
 70
   128
 71
    -1
 72
     4
 73
    -3
  0
VERTEX
  5
1013
  8
0
 10
0.0
 20
0.0
 30
0.0
 70
   128
 71
    -1
 72
     3
 73
     2
  0
SEQEND
  5
1A6C
  8
0
  0
POLYLINE
  5
1014
  8
0
 66
     1
 10
0.0
 20
0.0
 30
0.0
 70
    64
 71
     8
 72
     6
  0
VERTEX
  5
1015
  8
0
 10
22.44432017617416
 20
-17.02485434023063
 30
183.9739028944501
 70
   192
  0
VERTEX
  5
1016
  8
0
 10
-13.05568030880602
 20
-17.02484241628883
 30
181.4502130340082
 70
   192
  0
VERTEX
  5
1017
  8
0
 10
-13.04271659762248
 20
-17.20765883500952
 30
181.267856830026
 70
   192
  0
VERTEX
  5
1018
  8
0
 10
22.45728382205902
 20
-17.20766229913099
 30
183.7915476090034
 70
   192
  0
VERTEX
  5
1019
  8
0
 10
22.4395444559343
 20
-16.7750206664307
 30
184.0410813591625
 70
   192
  0
VERTEX
  5
101A
  8
0
 10
-13.06045554408196
 20
-16.77500000000064
 30
181.5173846769805
 70
   192
  0
VERTEX
  5
101B
  8
0
 10
-13.02500000000852
 20
-17.27499999992033
 30
181.0186433570015
 70
   192
  0
VERTEX
  5
101C
  8
0
 10
22.47499999665975
 20
-17.27500000000034
 30
183.5423400863
 70
   192
  0
VERTEX
  5
101D
  8
0
 10
0.0
 20
0.0
 30
0.0
 70
   128
 71
     1
 72
     2
 73
     3
  0
VERTEX
  5
101E
  8
0
 10
0.0
 20
0.0
 30
0.0
 70
   128
 71
     1
 72
     3
 73
     4
  0
VERTEX
  5
101F
  8
0
 10
0.0
 20
0.0
 30
0.0
 70
   128
 71
     5
 72
     6
 73
     2
  0
VERTEX
  5
1020
  8
0
 10
0.0
 20
0.0
 30
0.0
 70
   128
 71
     5
 72
     2
 73
     1
  0
VERTEX
  5
1021
  8
0
 10
0.0
 20
0.0
 30
0.0
 70
   128
 71
     4
 72
     3
 73
     7
  0
VERTEX
  5
1022
  8
0
 10
0.0
 20
0.0
 30
0.0
 70
   128
 71
     4
 72
     7
 73
     8
  0
SEQEND
  5
1A6D
  8
0
  0
POLYLINE
  5
1023
  8
0
 66
     1
 10
0.0
 20
0.0
 30
0.0
 70
    64
 71
     8
 72
     6
  0
VERTEX
  5
1024
  8
0
 10
83.86051085057419
 20
-14.64073568105632
 30
184.2610003704
 70
   192
  0
VERTEX
  5
1025
  8
0
 10
67.9686885563031
 20
-15.82938624817335
 30
186.7740290559513
 70
   192
  0
VERTEX
  5
1026
  8
0
 10
63.63815539892359
 20
-16.09167496547161
 30
182.8613067217362
 70
   192
  0
VERTEX
  5
1027
  8
0
 10
83.8605111442
 20
-14.64073565594022
 30
187.9031938714
 70
   192
  0
VERTEX
  5
1028
  8
0
 10
47.50725878030752
 20
-16.83767378379348
 30
185.3204111275846
 70
   192
  0
VERTEX
  5
1029
  8
0
 10
42.74520025975746
 20
-16.98823151221235
 30
182.0837929648149
 70
   192
  0
VERTEX
  5
102A
  8
0
 10
22.47499999665975
 20
-17.27500000000034
 30
183.5423400863
 70
   192
  0
VERTEX
  5
102B
  8
0
 10
22.4749979501795
 20
-17.27499999996878
 30
180.6899346834
 70
   192
  0
VERTEX
  5
102C
  8
0
 10
0.0
 20
0.0
 30
0.0
 70
   128
 71
     1
 72
     2
 73
     3
  0
VERTEX
  5
102D
  8
0
 10
0.0
 20
0.0
 30
0.0
 70
   128
 71
     1
 72
     4
 73
     2
  0
VERTEX
  5
102E
  8
0
 10
0.0
 20
0.0
 30
0.0
 70
   128
 71
     3
 72
     2
 73
     5
  0
VERTEX
  5
102F
  8
0
 10
0.0
 20
0.0
 30
0.0
 70
   128
 71
     3
 72
     5
 73
     6
  0
VERTEX
  5
1030
  8
0
 10
0.0
 20
0.0
 30
0.0
 70
   128
 71
     6
 72
     5
 73
     7
  0
VERTEX
  5
1031
  8
0
 10
0.0
 20
0.0
 30
0.0
 70
   128
 71
     6
 72
     7
 73
     8
  0
SEQEND
  5
1A6E
  8
0
  0
POLYLINE
  5
1032
  8
0
 66
     1
 10
0.0
 20
0.0
 30
0.0
 70
    64
 71
     9
 72
     7
  0
VERTEX
  5
1033
  8
0
 10
20.9501601156988
 20
-13.71552636587824
 30
177.0769588100525
 70
   192
  0
VERTEX
  5
1034
  8
0
 10
20.90210431651402
 20
-15.45626162676002
 30
177.5291404292014
 70
   192
  0
VERTEX
  5
1035
  8
0
 10
20.75795488959213
 20
-16.82027362047619
 30
178.885516190221
 70
   192
  0
VERTEX
  5
1036
  8
0
 10
20.57399979554
 20
-17.27499999999953
 30
180.6165042033
 70
   192
  0
VERTEX
  5
1037
  8
0
 10
15.98006061542902
 20
-17.27500000000063
 30
178.721914998356
 70
   192
  0
VERTEX
  5
1038
  8
0
 10
13.44768031634181
 20
-17.27500000000061
 30
175.4357576418846
 70
   192
  0
VERTEX
  5
1039
  8
0
 10
12.47500001403572
 20
-17.2749957696929
 30
171.6509234256926
 70
   192
  0
VERTEX
  5
103A
  8
0
 10
15.97191524288328
 20
-15.75312209261489
 30
173.2932902264186
 70
   192
  0
VERTEX
  5
103B
  8
0
 10
17.66735991297335
 20
-14.23494685146052
 30
175.2653961656982
 70
   192
  0
VERTEX
  5
103C
  8
0
 10
0.0
 20
0.0
 30
0.0
 70
   128
 71
     6
 72
     7
 73
     8
  0
VERTEX
  5
103D
  8
0
 10
0.0
 20
0.0
 30
0.0
 70
   128
 71
     9
 72
     5
 73
     6
  0
VERTEX
  5
103E
  8
0
 10
0.0
 20
0.0
 30
0.0
 70
   128
 71
     8
 72
     9
 73
     6
  0
VERTEX
  5
103F
  8
0
 10
0.0
 20
0.0
 30
0.0
 70
   128
 71
     9
 72
     1
 73
     2
  0
VERTEX
  5
1040
  8
0
 10
0.0
 20
0.0
 30
0.0
 70
   128
 71
     3
 72
     5
 73
     9
  0
VERTEX
  5
1041
  8
0
 10
0.0
 20
0.0
 30
0.0
 70
   128
 71
     2
 72
     3
 73
     9
  0
VERTEX
  5
1042
  8
0
 10
0.0
 20
0.0
 30
0.0
 70
   128
 71
     3
 72
     4
 73
     5
  0
SEQEND
  5
1A6F
  8
0
  0
POLYLINE
  5
1043
  8
0
 66
     1
 10
0.0
 20
0.0
 30
0.0
 70
    64
 71
    10
 72
     8
  0
VERTEX
  5
1044
  8
0
 10
16.37193012598617
 20
-15.0248803874018
 30
156.7
 70
   192
  0
VERTEX
  5
1045
  8
0
 10
14.77447959968786
 20
-16.64312490807194
 30
172.1395821166321
 70
   192
  0
VERTEX
  5
1046
  8
0
 10
14.72488038740126
 20
-16.67193012598672
 30
156.7
 70
   192
  0
VERTEX
  5
1047
  8
0
 10
16.975
 20
-12.77500000000055
 30
156.7
 70
   192
  0
VERTEX
  5
1048
  8
0
 10
16.38907324716106
 20
-14.99534702685065
 30
172.4827990347441
 70
   192
  0
VERTEX
  5
1049
  8
0
 10
12.47500000594294
 20
-17.2749998433225
 30
161.6836411421368
 70
   192
  0
VERTEX
  5
104A
  8
0
 10
12.4749999999985
 20
-17.27500000000055
 30
156.7
 70
   192
  0
VERTEX
  5
104B
  8
0
 10
12.47500001093884
 20
-17.27499874657608
 30
166.6672822840941
 70
   192
  0
VERTEX
  5
104C
  8
0
 10
16.9750000000007
 20
-12.7750000000006
 30
172.6073952341
 70
   192
  0
VERTEX
  5
104D
  8
0
 10
12.47500001403572
 20
-17.2749957696929
 30
171.6509234256926
 70
   192
  0
VERTEX
  5
104E
  8
0
 10
0.0
 20
0.0
 30
0.0
 70
   128
 71
     1
 72
     2
 73
     3
  0
VERTEX
  5
104F
  8
0
 10
0.0
 20
0.0
 30
0.0
 70
   128
 71
     4
 72
     5
 73
     1
  0
VERTEX
  5
1050
  8
0
 10
0.0
 20
0.0
 30
0.0
 70
   128
 71
     6
 72
     7
 73
     3
  0
VERTEX
  5
1051
  8
0
 10
0.0
 20
0.0
 30
0.0
 70
   128
 71
     3
 72
     8
 73
     6
  0
VERTEX
  5
1052
  8
0
 10
0.0
 20
0.0
 30
0.0
 70
   128
 71
     4
 72
     9
 73
     5
  0
VERTEX
  5
1053
  8
0
 10
0.0
 20
0.0
 30
0.0
 70
   128
 71
     1
 72
     5
 73
     2
  0
VERTEX
  5
1054
  8
0
 10
0.0
 20
0.0
 30
0.0
 70
   128
 71
     3
 72
     2
 73
    10
  0
VERTEX
  5
1055
  8
0
 10
0.0
 20
0.0
 30
0.0
 70
   128
 71
     3
 72
    10
 73
     8
  0
SEQEND
  5
1A70
  8
0
  0
POLYLINE
  5
1056
  8
0
 66
     1
 10
0.0
 20
0.0
 30
0.0
 70
    64
 71
    20
 72
    18
  0
VERTEX
  5
1057
  8
0
 10
12.475
 20
-16.57500000000055
 30
156.7
 70
   192
  0
VERTEX
  5
1058
  8
0
 10
-0.2750000000060805
 20
-16.57500000000055
 30
156.6999999999875
 70
   192
  0
VERTEX
  5
1059
  8
0
 10
-0.2750000000043615
 20
-17.27500000000055
 30
156.6999999999905
 70
   192
  0
VERTEX
  5
105A
  8
0
 10
12.4749999999985
 20
-17.27500000000055
 30
156.7
 70
   192
  0
VERTEX
  5
105B
  8
0
 10
14.72488038740126
 20
-16.67193012598672
 30
156.7
 70
   192
  0
VERTEX
  5
105C
  8
0
 10
16.37193012598617
 20
-15.0248803874018
 30
156.7
 70
   192
  0
VERTEX
  5
105D
  8
0
 10
16.975
 20
-12.77500000000055
 30
156.7
 70
   192
  0
VERTEX
  5
105E
  8
0
 10
16.975
 20
12.72499999999946
 30
156.7000000000001
 70
   192
  0
VERTEX
  5
105F
  8
0
 10
16.37193012598617
 20
14.97488038740071
 30
156.7000000000002
 70
   192
  0
VERTEX
  5
1060
  8
0
 10
14.72488038740126
 20
16.62193012598562
 30
156.7000000000002
 70
   192
  0
VERTEX
  5
1061
  8
0
 10
12.475
 20
17.22499999999945
 30
156.7000000000001
 70
   192
  0
VERTEX
  5
1062
  8
0
 10
-0.2750000000059295
 20
17.22499999999945
 30
156.6999999999876
 70
   192
  0
VERTEX
  5
1063
  8
0
 10
-0.2750000000046405
 20
16.52499999999946
 30
156.6999999999906
 70
   192
  0
VERTEX
  5
1064
  8
0
 10
12.475
 20
16.52499999999946
 30
156.7000000000001
 70
   192
  0
VERTEX
  5
1065
  8
0
 10
14.37489899380547
 20
16.0157409952766
 30
156.7000000000002
 70
   192
  0
VERTEX
  5
1066
  8
0
 10
15.76574099527715
 20
14.62489899380493
 30
156.7000000000001
 70
   192
  0
VERTEX
  5
1067
  8
0
 10
16.275
 20
12.72499999999946
 30
156.7000000000001
 70
   192
  0
VERTEX
  5
1068
  8
0
 10
16.275
 20
-12.77500000000055
 30
156.7
 70
   192
  0
VERTEX
  5
1069
  8
0
 10
15.76574099527715
 20
-14.67489899380601
 30
156.7000000000001
 70
   192
  0
VERTEX
  5
106A
  8
0
 10
14.37489899380547
 20
-16.06574099527769
 30
156.7000000000001
 70
   192
  0
VERTEX
  5
106B
  8
0
 10
0.0
 20
0.0
 30
0.0
 70
   128
 71
    14
 72
    13
 73
   -12
  0
VERTEX
  5
106C
  8
0
 10
0.0
 20
0.0
 30
0.0
 70
   128
 71
   -14
 72
    12
 73
   -11
  0
VERTEX
  5
106D
  8
0
 10
0.0
 20
0.0
 30
0.0
 70
   128
 71
    11
 72
   -10
 73
   -15
  0
VERTEX
  5
106E
  8
0
 10
0.0
 20
0.0
 30
0.0
 70
   128
 71
   -11
 72
    15
 73
   -14
  0
VERTEX
  5
106F
  8
0
 10
0.0
 20
0.0
 30
0.0
 70
   128
 71
    10
 72
    -9
 73
   -16
  0
VERTEX
  5
1070
  8
0
 10
0.0
 20
0.0
 30
0.0
 70
   128
 71
   -10
 72
    16
 73
   -15
  0
VERTEX
  5
1071
  8
0
 10
0.0
 20
0.0
 30
0.0
 70
   128
 71
    -9
 72
    17
 73
   -16
  0
VERTEX
  5
1072
  8
0
 10
0.0
 20
0.0
 30
0.0
 70
   128
 71
   -17
 72
     9
 73
    -8
  0
VERTEX
  5
1073
  8
0
 10
0.0
 20
0.0
 30
0.0
 70
   128
 71
     8
 72
    -7
 73
   -18
  0
VERTEX
  5
1074
  8
0
 10
0.0
 20
0.0
 30
0.0
 70
   128
 71
    -8
 72
    18
 73
   -17
  0
VERTEX
  5
1075
  8
0
 10
0.0
 20
0.0
 30
0.0
 70
   128
 71
     7
 72
    -6
 73
   -18
  0
VERTEX
  5
1076
  8
0
 10
0.0
 20
0.0
 30
0.0
 70
   128
 71
    -6
 72
    19
 73
   -18
  0
VERTEX
  5
1077
  8
0
 10
0.0
 20
0.0
 30
0.0
 70
   128
 71
     6
 72
    -5
 73
   -20
  0
VERTEX
  5
1078
  8
0
 10
0.0
 20
0.0
 30
0.0
 70
   128
 71
    -6
 72
    20
 73
   -19
  0
VERTEX
  5
1079
  8
0
 10
0.0
 20
0.0
 30
0.0
 70
   128
 71
     5
 72
    -4
 73
    -1
  0
VERTEX
  5
107A
  8
0
 10
0.0
 20
0.0
 30
0.0
 70
   128
 71
    -5
 72
     1
 73
   -20
  0
VERTEX
  5
107B
  8
0
 10
0.0
 20
0.0
 30
0.0
 70
   128
 71
     4
 72
     3
 73
    -2
  0
VERTEX
  5
107C
  8
0
 10
0.0
 20
0.0
 30
0.0
 70
   128
 71
    -4
 72
     2
 73
    -1
  0
SEQEND
  5
1A71
  8
0
  0
POLYLINE
  5
107D
  8
0
 66
     1
 10
0.0
 20
0.0
 30
0.0
 70
    64
 71
    12
 72
    10
  0
VERTEX
  5
107E
  8
0
 10
83.78222279845531
 20
-14.1425944884007
 30
188.401935269751
 70
   192
  0
VERTEX
  5
107F
  8
0
 10
63.36253047065077
 20
-15.60457650023872
 30
186.9502983743009
 70
   192
  0
VERTEX
  5
1080
  8
0
 10
42.90941344333673
 20
-16.48229038789659
 30
185.4962853154927
 70
   192
  0
VERTEX
  5
1081
  8
0
 10
22.4395444559343
 20
-16.7750206664307
 30
184.0410813591625
 70
   192
  0
VERTEX
  5
1082
  8
0
 10
22.44432017617416
 20
-17.02485434023063
 30
183.9739028944501
 70
   192
  0
VERTEX
  5
1083
  8
0
 10
22.45728382205902
 20
-17.20766229913099
 30
183.7915476090034
 70
   192
  0
VERTEX
  5
1084
  8
0
 10
22.47499999665975
 20
-17.27500000000034
 30
183.5423400863
 70
   192
  0
VERTEX
  5
1085
  8
0
 10
47.50725878030752
 20
-16.83767378379348
 30
185.3204111275846
 70
   192
  0
VERTEX
  5
1086
  8
0
 10
67.9686885563031
 20
-15.82938624817335
 30
186.7740290559513
 70
   192
  0
VERTEX
  5
1087
  8
0
 10
83.8605111442
 20
-14.64073565594022
 30
187.9031938714
 70
   192
  0
VERTEX
  5
1088
  8
0
 10
83.83773123326
 20
-14.57813242723346
 30
188.1479110560835
 70
   192
  0
VERTEX
  5
1089
  8
0
 10
83.807696895893
 20
-14.3870273887102
 30
188.3392475665971
 70
   192
  0
VERTEX
  5
108A
  8
0
 10
0.0
 20
0.0
 30
0.0
 70
   128
 71
     6
 72
     7
 73
     8
  0
VERTEX
  5
108B
  8
0
 10
0.0
 20
0.0
 30
0.0
 70
   128
 71
     9
 72
    11
 73
     6
  0
VERTEX
  5
108C
  8
0
 10
0.0
 20
0.0
 30
0.0
 70
   128
 71
     8
 72
     9
 73
     6
  0
VERTEX
  5
108D
  8
0
 10
0.0
 20
0.0
 30
0.0
 70
   128
 71
     9
 72
    10
 73
    11
  0
VERTEX
  5
108E
  8
0
 10
0.0
 20
0.0
 30
0.0
 70
   128
 71
    12
 72
     5
 73
     6
  0
VERTEX
  5
108F
  8
0
 10
0.0
 20
0.0
 30
0.0
 70
   128
 71
    11
 72
    12
 73
     6
  0
VERTEX
  5
1090
  8
0
 10
0.0
 20
0.0
 30
0.0
 70
   128
 71
    12
 72
     1
 73
     2
  0
VERTEX
  5
1091
  8
0
 10
0.0
 20
0.0
 30
0.0
 70
   128
 71
     3
 72
     5
 73
    12
  0
VERTEX
  5
1092
  8
0
 10
0.0
 20
0.0
 30
0.0
 70
   128
 71
     2
 72
     3
 73
    12
  0
VERTEX
  5
1093
  8
0
 10
0.0
 20
0.0
 30
0.0
 70
   128
 71
     3
 72
     4
 73
     5
  0
SEQEND
  5
1A72
  8
0
  0
POLYLINE
  5
1094
  8
0
 66
     1
 10
0.0
 20
0.0
 30
0.0
 70
    64
 71
    12
 72
    10
  0
VERTEX
  5
1095
  8
0
 10
83.8605111442
 20
-14.64073565594022
 30
187.9031938714
 70
   192
  0
VERTEX
  5
1096
  8
0
 10
85.94328751347135
 20
-13.91694171760255
 30
188.0348069129243
 70
   192
  0
VERTEX
  5
1097
  8
0
 10
87.43229666001383
 20
-12.2944049212824
 30
188.1288991185571
 70
   192
  0
VERTEX
  5
1098
  8
0
 10
87.975
 20
-10.15727927077066
 30
188.1631931199001
 70
   192
  0
VERTEX
  5
1099
  8
0
 10
87.90553600670526
 20
-10.15727927076931
 30
188.4171164253248
 70
   192
  0
VERTEX
  5
109A
  8
0
 10
87.69775431238956
 20
-10.1572792707701
 30
188.6106512904877
 70
   192
  0
VERTEX
  5
109B
  8
0
 10
87.4395444559196
 20
-10.15727927077066
 30
188.6619344400061
 70
   192
  0
VERTEX
  5
109C
  8
0
 10
87.01226473695073
 20
-11.95616634431804
 30
188.631552894673
 70
   192
  0
VERTEX
  5
109D
  8
0
 10
85.64017204547086
 20
-13.49711362489312
 30
188.5340134144741
 70
   192
  0
VERTEX
  5
109E
  8
0
 10
83.78222279845531
 20
-14.1425944884007
 30
188.401935269751
 70
   192
  0
VERTEX
  5
109F
  8
0
 10
83.807696895893
 20
-14.3870273887102
 30
188.3392475665971
 70
   192
  0
VERTEX
  5
10A0
  8
0
 10
83.83773123326
 20
-14.57813242723346
 30
188.1479110560835
 70
   192
  0
VERTEX
  5
10A1
  8
0
 10
0.0
 20
0.0
 30
0.0
 70
   128
 71
     6
 72
     7
 73
     8
  0
VERTEX
  5
10A2
  8
0
 10
0.0
 20
0.0
 30
0.0
 70
   128
 71
     9
 72
    11
 73
     6
  0
VERTEX
  5
10A3
  8
0
 10
0.0
 20
0.0
 30
0.0
 70
   128
 71
     8
 72
     9
 73
     6
  0
VERTEX
  5
10A4
  8
0
 10
0.0
 20
0.0
 30
0.0
 70
   128
 71
     9
 72
    10
 73
    11
  0
VERTEX
  5
10A5
  8
0
 10
0.0
 20
0.0
 30
0.0
 70
   128
 71
    12
 72
     5
 73
     6
  0
VERTEX
  5
10A6
  8
0
 10
0.0
 20
0.0
 30
0.0
 70
   128
 71
    11
 72
    12
 73
     6
  0
VERTEX
  5
10A7
  8
0
 10
0.0
 20
0.0
 30
0.0
 70
   128
 71
    12
 72
     1
 73
     2
  0
VERTEX
  5
10A8
  8
0
 10
0.0
 20
0.0
 30
0.0
 70
   128
 71
     3
 72
     5
 73
    12
  0
VERTEX
  5
10A9
  8
0
 10
0.0
 20
0.0
 30
0.0
 70
   128
 71
     2
 72
     3
 73
    12
  0
VERTEX
  5
10AA
  8
0
 10
0.0
 20
0.0
 30
0.0
 70
   128
 71
     3
 72
     4
 73
     5
  0
SEQEND
  5
1A73
  8
0
  0
POLYLINE
  5
10AB
  8
0
 66
     1
 10
0.0
 20
0.0
 30
0.0
 70
    64
 71
     8
 72
     6
  0
VERTEX
  5
10AC
  8
0
 10
87.70407473626486
 20
10.10727927076935
 30
188.6071141966497
 70
   192
  0
VERTEX
  5
10AD
  8
0
 10
87.69775431238956
 20
-10.1572792707701
 30
188.6106512904877
 70
   192
  0
VERTEX
  5
10AE
  8
0
 10
87.90553600670526
 20
-10.15727927076931
 30
188.4171164253248
 70
   192
  0
VERTEX
  5
10AF
  8
0
 10
87.90155962887383
 20
10.10727927076935
 30
188.4231701192544
 70
   192
  0
VERTEX
  5
10B0
  8
0
 10
87.43954445591989
 20
10.10727927076934
 30
188.6619344399891
 70
   192
  0
VERTEX
  5
10B1
  8
0
 10
87.4395444559196
 20
-10.15727927077066
 30
188.6619344400061
 70
   192
  0
VERTEX
  5
10B2
  8
0
 10
87.975
 20
-10.15727927077066
 30
188.1631931199001
 70
   192
  0
VERTEX
  5
10B3
  8
0
 10
87.975
 20
10.10727927076934
 30
188.1631931199001
 70
   192
  0
VERTEX
  5
10B4
  8
0
 10
0.0
 20
0.0
 30
0.0
 70
   128
 71
     1
 72
     2
 73
    -3
  0
VERTEX
  5
10B5
  8
0
 10
0.0
 20
0.0
 30
0.0
 70
   128
 71
    -1
 72
     3
 73
     4
  0
VERTEX
  5
10B6
  8
0
 10
0.0
 20
0.0
 30
0.0
 70
   128
 71
     5
 72
     6
 73
     2
  0
VERTEX
  5
10B7
  8
0
 10
0.0
 20
0.0
 30
0.0
 70
   128
 71
     5
 72
     2
 73
     1
  0
VERTEX
  5
10B8
  8
0
 10
0.0
 20
0.0
 30
0.0
 70
   128
 71
     4
 72
     3
 73
     7
  0
VERTEX
  5
10B9
  8
0
 10
0.0
 20
0.0
 30
0.0
 70
   128
 71
     4
 72
     7
 73
     8
  0
SEQEND
  5
1A74
  8
0
  0
POLYLINE
  5
10BA
  8
0
 66
     1
 10
0.0
 20
0.0
 30
0.0
 70
    64
 71
    12
 72
    10
  0
VERTEX
  5
10BB
  8
0
 10
87.975
 20
10.10727927076934
 30
188.1631931199001
 70
   192
  0
VERTEX
  5
10BC
  8
0
 10
87.43229666070994
 20
12.24440491990062
 30
188.1288990700889
 70
   192
  0
VERTEX
  5
10BD
  8
0
 10
85.94328751568541
 20
13.86694171613407
 30
188.0348068650178
 70
   192
  0
VERTEX
  5
10BE
  8
0
 10
83.86051114419949
 20
14.59073565593766
 30
187.9031938714001
 70
   192
  0
VERTEX
  5
10BF
  8
0
 10
83.83772263373312
 20
14.52800167045195
 30
188.1478738690821
 70
   192
  0
VERTEX
  5
10C0
  8
0
 10
83.80770301116468
 20
14.33699024489492
 30
188.3391166187042
 70
   192
  0
VERTEX
  5
10C1
  8
0
 10
83.78222279845662
 20
14.09259448843938
 30
188.4019352697321
 70
   192
  0
VERTEX
  5
10C2
  8
0
 10
85.6255190583095
 20
13.45755268861101
 30
188.5329683705157
 70
   192
  0
VERTEX
  5
10C3
  8
0
 10
86.97044166029295
 20
11.9869091934609
 30
188.6285804487749
 70
   192
  0
VERTEX
  5
10C4
  8
0
 10
87.43954445591989
 20
10.10727927076934
 30
188.6619344399891
 70
   192
  0
VERTEX
  5
10C5
  8
0
 10
87.70407473626486
 20
10.10727927076935
 30
188.6071141966497
 70
   192
  0
VERTEX
  5
10C6
  8
0
 10
87.90155962887383
 20
10.10727927076935
 30
188.4231701192544
 70
   192
  0
VERTEX
  5
10C7
  8
0
 10
0.0
 20
0.0
 30
0.0
 70
   128
 71
     6
 72
     7
 73
     8
  0
VERTEX
  5
10C8
  8
0
 10
0.0
 20
0.0
 30
0.0
 70
   128
 71
     9
 72
    11
 73
     6
  0
VERTEX
  5
10C9
  8
0
 10
0.0
 20
0.0
 30
0.0
 70
   128
 71
     8
 72
     9
 73
     6
  0
VERTEX
  5
10CA
  8
0
 10
0.0
 20
0.0
 30
0.0
 70
   128
 71
     9
 72
    10
 73
    11
  0
VERTEX
  5
10CB
  8
0
 10
0.0
 20
0.0
 30
0.0
 70
   128
 71
    12
 72
     5
 73
     6
  0
VERTEX
  5
10CC
  8
0
 10
0.0
 20
0.0
 30
0.0
 70
   128
 71
    11
 72
    12
 73
     6
  0
VERTEX
  5
10CD
  8
0
 10
0.0
 20
0.0
 30
0.0
 70
   128
 71
    12
 72
     1
 73
     2
  0
VERTEX
  5
10CE
  8
0
 10
0.0
 20
0.0
 30
0.0
 70
   128
 71
     3
 72
     5
 73
    12
  0
VERTEX
  5
10CF
  8
0
 10
0.0
 20
0.0
 30
0.0
 70
   128
 71
     2
 72
     3
 73
    12
  0
VERTEX
  5
10D0
  8
0
 10
0.0
 20
0.0
 30
0.0
 70
   128
 71
     3
 72
     4
 73
     5
  0
SEQEND
  5
1A75
  8
0
  0
POLYLINE
  5
10D1
  8
0
 66
     1
 10
0.0
 20
0.0
 30
0.0
 70
    64
 71
    12
 72
    10
  0
VERTEX
  5
10D2
  8
0
 10
83.86051114419949
 20
14.59073565593766
 30
187.9031938714001
 70
   192
  0
VERTEX
  5
10D3
  8
0
 10
63.4265606750414
 20
16.05373852327508
 30
186.4515570178884
 70
   192
  0
VERTEX
  5
10D4
  8
0
 10
42.9591621659098
 20
16.9320652998972
 30
184.9975440010035
 70
   192
  0
VERTEX
  5
10D5
  8
0
 10
22.47499999749385
 20
17.22499999999845
 30
183.5423400863076
 70
   192
  0
VERTEX
  5
10D6
  8
0
 10
22.45766124919395
 20
17.16113406491624
 30
183.7862384713333
 70
   192
  0
VERTEX
  5
10D7
  8
0
 10
22.44407408096809
 20
16.96953463848256
 30
183.9773646341949
 70
   192
  0
VERTEX
  5
10D8
  8
0
 10
22.4395444559348
 20
16.72502066647806
 30
184.0410813591556
 70
   192
  0
VERTEX
  5
10D9
  8
0
 10
42.90941344334835
 20
16.43229038783659
 30
185.4962853154848
 70
   192
  0
VERTEX
  5
10DA
  8
0
 10
63.36253047062785
 20
15.55457650006971
 30
186.9502983742908
 70
   192
  0
VERTEX
  5
10DB
  8
0
 10
83.78222279845662
 20
14.09259448843939
 30
188.4019352697321
 70
   192
  0
VERTEX
  5
10DC
  8
0
 10
83.80770301116468
 20
14.33699024489492
 30
188.3391166187042
 70
   192
  0
VERTEX
  5
10DD
  8
0
 10
83.83772263373312
 20
14.52800167045195
 30
188.1478738690821
 70
   192
  0
VERTEX
  5
10DE
  8
0
 10
0.0
 20
0.0
 30
0.0
 70
   128
 71
     6
 72
     7
 73
     8
  0
VERTEX
  5
10DF
  8
0
 10
0.0
 20
0.0
 30
0.0
 70
   128
 71
     9
 72
    11
 73
     6
  0
VERTEX
  5
10E0
  8
0
 10
0.0
 20
0.0
 30
0.0
 70
   128
 71
     8
 72
     9
 73
     6
  0
VERTEX
  5
10E1
  8
0
 10
0.0
 20
0.0
 30
0.0
 70
   128
 71
     9
 72
    10
 73
    11
  0
VERTEX
  5
10E2
  8
0
 10
0.0
 20
0.0
 30
0.0
 70
   128
 71
    12
 72
     5
 73
     6
  0
VERTEX
  5
10E3
  8
0
 10
0.0
 20
0.0
 30
0.0
 70
   128
 71
    11
 72
    12
 73
     6
  0
VERTEX
  5
10E4
  8
0
 10
0.0
 20
0.0
 30
0.0
 70
   128
 71
    12
 72
     1
 73
     2
  0
VERTEX
  5
10E5
  8
0
 10
0.0
 20
0.0
 30
0.0
 70
   128
 71
     3
 72
     5
 73
    12
  0
VERTEX
  5
10E6
  8
0
 10
0.0
 20
0.0
 30
0.0
 70
   128
 71
     2
 72
     3
 73
    12
  0
VERTEX
  5
10E7
  8
0
 10
0.0
 20
0.0
 30
0.0
 70
   128
 71
     3
 72
     4
 73
     5
  0
SEQEND
  5
1A76
  8
0
  0
POLYLINE
  5
10E8
  8
0
 66
     1
 10
0.0
 20
0.0
 30
0.0
 70
    64
 71
    10
 72
     8
  0
VERTEX
  5
10E9
  8
0
 10
-1.19166666775597
 20
17.22499999997569
 30
181.8598756001096
 70
   192
  0
VERTEX
  5
10EA
  8
0
 10
-13.02500000000854
 20
17.22499999991957
 30
181.0186433570001
 70
   192
  0
VERTEX
  5
10EB
  8
0
 10
-13.04271659762188
 20
17.15765883500227
 30
181.2678568300184
 70
   192
  0
VERTEX
  5
10EC
  8
0
 10
10.64166666468301
 20
17.22499999999614
 30
182.7011078432139
 70
   192
  0
VERTEX
  5
10ED
  8
0
 10
22.45766124919395
 20
17.16113406491624
 30
183.7862384713333
 70
   192
  0
VERTEX
  5
10EE
  8
0
 10
-13.06045554408074
 20
16.72499999999937
 30
181.5173846769636
 70
   192
  0
VERTEX
  5
10EF
  8
0
 10
22.4395444559348
 20
16.72502066647806
 30
184.0410813591556
 70
   192
  0
VERTEX
  5
10F0
  8
0
 10
22.44407408096809
 20
16.96953463848256
 30
183.9773646341949
 70
   192
  0
VERTEX
  5
10F1
  8
0
 10
-13.0556803088049
 20
16.97484241628235
 30
181.4502130339933
 70
   192
  0
VERTEX
  5
10F2
  8
0
 10
22.47499999749385
 20
17.22499999999845
 30
183.5423400863076
 70
   192
  0
VERTEX
  5
10F3
  8
0
 10
0.0
 20
0.0
 30
0.0
 70
   128
 71
     1
 72
     2
 73
    -3
  0
VERTEX
  5
10F4
  8
0
 10
0.0
 20
0.0
 30
0.0
 70
   128
 71
     3
 72
     4
 73
    -1
  0
VERTEX
  5
10F5
  8
0
 10
0.0
 20
0.0
 30
0.0
 70
   128
 71
     3
 72
     5
 73
     4
  0
VERTEX
  5
10F6
  8
0
 10
0.0
 20
0.0
 30
0.0
 70
   128
 71
     6
 72
     7
 73
     8
  0
VERTEX
  5
10F7
  8
0
 10
0.0
 20
0.0
 30
0.0
 70
   128
 71
     6
 72
     8
 73
     9
  0
VERTEX
  5
10F8
  8
0
 10
0.0
 20
0.0
 30
0.0
 70
   128
 71
     9
 72
     8
 73
     5
  0
VERTEX
  5
10F9
  8
0
 10
0.0
 20
0.0
 30
0.0
 70
   128
 71
     9
 72
     5
 73
     3
  0
VERTEX
  5
10FA
  8
0
 10
0.0
 20
0.0
 30
0.0
 70
   128
 71
     5
 72
    10
 73
     4
  0
SEQEND
  5
1A77
  8
0
  0
POLYLINE
  5
10FB
  8
0
 66
     1
 10
0.0
 20
0.0
 30
0.0
 70
    64
 71
    12
 72
    10
  0
VERTEX
  5
10FC
  8
0
 10
-17.06045554408065
 20
12.72499999999937
 30
181.2330244874091
 70
   192
  0
VERTEX
  5
10FD
  8
0
 10
-16.58520782484295
 20
14.61615712035154
 30
181.2668003292872
 70
   192
  0
VERTEX
  5
10FE
  8
0
 10
-15.06727900244253
 20
16.18445084596419
 30
181.3747137639668
 70
   192
  0
VERTEX
  5
10FF
  8
0
 10
-13.06045554408074
 20
16.72499999999937
 30
181.5173846769636
 70
   192
  0
VERTEX
  5
1100
  8
0
 10
-13.0556803088049
 20
16.97484241628235
 30
181.4502130339933
 70
   192
  0
VERTEX
  5
1101
  8
0
 10
-13.04271659762188
 20
17.15765883500227
 30
181.2678568300184
 70
   192
  0
VERTEX
  5
1102
  8
0
 10
-13.02500000000854
 20
17.22499999991957
 30
181.0186433570001
 70
   192
  0
VERTEX
  5
1103
  8
0
 10
-15.44313500186394
 20
16.52026212371229
 30
180.8661874948351
 70
   192
  0
VERTEX
  5
1104
  8
0
 10
-16.9426600684302
 20
14.93900499507871
 30
180.7713864393662
 70
   192
  0
VERTEX
  5
1105
  8
0
 10
-17.52499999992765
 20
12.72499999999951
 30
180.7342831673751
 70
   192
  0
VERTEX
  5
1106
  8
0
 10
-17.46629510939868
 20
12.72499999999431
 30
180.969133810575
 70
   192
  0
VERTEX
  5
1107
  8
0
 10
-17.29055209616982
 20
12.72499999999837
 30
181.1578140466664
 70
   192
  0
VERTEX
  5
1108
  8
0
 10
0.0
 20
0.0
 30
0.0
 70
   128
 71
     6
 72
     7
 73
     8
  0
VERTEX
  5
1109
  8
0
 10
0.0
 20
0.0
 30
0.0
 70
   128
 71
     9
 72
    11
 73
     6
  0
VERTEX
  5
110A
  8
0
 10
0.0
 20
0.0
 30
0.0
 70
   128
 71
     8
 72
     9
 73
     6
  0
VERTEX
  5
110B
  8
0
 10
0.0
 20
0.0
 30
0.0
 70
   128
 71
     9
 72
    10
 73
    11
  0
VERTEX
  5
110C
  8
0
 10
0.0
 20
0.0
 30
0.0
 70
   128
 71
    12
 72
     5
 73
     6
  0
VERTEX
  5
110D
  8
0
 10
0.0
 20
0.0
 30
0.0
 70
   128
 71
    11
 72
    12
 73
     6
  0
VERTEX
  5
110E
  8
0
 10
0.0
 20
0.0
 30
0.0
 70
   128
 71
    12
 72
     1
 73
     2
  0
VERTEX
  5
110F
  8
0
 10
0.0
 20
0.0
 30
0.0
 70
   128
 71
     3
 72
     5
 73
    12
  0
VERTEX
  5
1110
  8
0
 10
0.0
 20
0.0
 30
0.0
 70
   128
 71
     2
 72
     3
 73
    12
  0
VERTEX
  5
1111
  8
0
 10
0.0
 20
0.0
 30
0.0
 70
   128
 71
     3
 72
     4
 73
     5
  0
SEQEND
  5
1A78
  8
0
  0
POLYLINE
  5
1112
  8
0
 66
     1
 10
0.0
 20
0.0
 30
0.0
 70
    64
 71
    12
 72
    10
  0
VERTEX
  5
1113
  8
0
 10
-13.06045554408196
 20
-16.77500000000064
 30
181.5173846769805
 70
   192
  0
VERTEX
  5
1114
  8
0
 10
-15.02538965290473
 20
-16.25913923154489
 30
181.3776889112132
 70
   192
  0
VERTEX
  5
1115
  8
0
 10
-16.53733866610913
 20
-14.75276839163415
 30
181.2702045478638
 70
   192
  0
VERTEX
  5
1116
  8
0
 10
-17.0604555440813
 20
-12.77500000000063
 30
181.2330244874045
 70
   192
  0
VERTEX
  5
1117
  8
0
 10
-17.29055209616629
 20
-12.77499999999972
 30
181.1578140466746
 70
   192
  0
VERTEX
  5
1118
  8
0
 10
-17.46629510939893
 20
-12.77500000000076
 30
180.9691338106004
 70
   192
  0
VERTEX
  5
1119
  8
0
 10
-17.52499999992785
 20
-12.77500000000063
 30
180.734283167375
 70
   192
  0
VERTEX
  5
111A
  8
0
 10
-16.94243962511403
 20
-14.9889362751731
 30
180.7713809532218
 70
   192
  0
VERTEX
  5
111B
  8
0
 10
-15.44350045303571
 20
-16.56985173862386
 30
180.8661914036271
 70
   192
  0
VERTEX
  5
111C
  8
0
 10
-13.02500000000852
 20
-17.27499999992033
 30
181.0186433570015
 70
   192
  0
VERTEX
  5
111D
  8
0
 10
-13.04271659762248
 20
-17.20765883500952
 30
181.267856830026
 70
   192
  0
VERTEX
  5
111E
  8
0
 10
-13.05568030880602
 20
-17.02484241628883
 30
181.4502130340082
 70
   192
  0
VERTEX
  5
111F
  8
0
 10
0.0
 20
0.0
 30
0.0
 70
   128
 71
     6
 72
     7
 73
     8
  0
VERTEX
  5
1120
  8
0
 10
0.0
 20
0.0
 30
0.0
 70
   128
 71
     9
 72
    11
 73
     6
  0
VERTEX
  5
1121
  8
0
 10
0.0
 20
0.0
 30
0.0
 70
   128
 71
     8
 72
     9
 73
     6
  0
VERTEX
  5
1122
  8
0
 10
0.0
 20
0.0
 30
0.0
 70
   128
 71
     9
 72
    10
 73
    11
  0
VERTEX
  5
1123
  8
0
 10
0.0
 20
0.0
 30
0.0
 70
   128
 71
    12
 72
     5
 73
     6
  0
VERTEX
  5
1124
  8
0
 10
0.0
 20
0.0
 30
0.0
 70
   128
 71
    11
 72
    12
 73
     6
  0
VERTEX
  5
1125
  8
0
 10
0.0
 20
0.0
 30
0.0
 70
   128
 71
    12
 72
     1
 73
     2
  0
VERTEX
  5
1126
  8
0
 10
0.0
 20
0.0
 30
0.0
 70
   128
 71
     3
 72
     5
 73
    12
  0
VERTEX
  5
1127
  8
0
 10
0.0
 20
0.0
 30
0.0
 70
   128
 71
     2
 72
     3
 73
    12
  0
VERTEX
  5
1128
  8
0
 10
0.0
 20
0.0
 30
0.0
 70
   128
 71
     3
 72
     4
 73
     5
  0
SEQEND
  5
1A79
  8
0
  0
POLYLINE
  5
1129
  8
0
 66
     1
 10
0.0
 20
0.0
 30
0.0
 70
    64
 71
    10
 72
     8
  0
VERTEX
  5
112A
  8
0
 10
42.74554165105603
 20
16.9382233904857
 30
182.0838079552698
 70
   192
  0
VERTEX
  5
112B
  8
0
 10
22.4749985192225
 20
17.22499999997002
 30
180.6899339734002
 70
   192
  0
VERTEX
  5
112C
  8
0
 10
22.47499970716035
 20
17.22499999999072
 30
181.6407360110338
 70
   192
  0
VERTEX
  5
112D
  8
0
 10
22.47499979841177
 20
17.22499999999809
 30
182.591538048669
 70
   192
  0
VERTEX
  5
112E
  8
0
 10
22.47499999749385
 20
17.22499999999845
 30
183.5423400863076
 70
   192
  0
VERTEX
  5
112F
  8
0
 10
42.9591621659098
 20
16.9320652998972
 30
184.9975440010035
 70
   192
  0
VERTEX
  5
1130
  8
0
 10
63.4265606750414
 20
16.05373852327508
 30
186.4515570178884
 70
   192
  0
VERTEX
  5
1131
  8
0
 10
63.63849668693826
 20
16.04165384142059
 30
182.8613217760283
 70
   192
  0
VERTEX
  5
1132
  8
0
 10
83.86051114419949
 20
14.59073565593766
 30
187.9031938714001
 70
   192
  0
VERTEX
  5
1133
  8
0
 10
83.86051086290219
 20
14.59073567999546
 30
184.2610002676001
 70
   192
  0
VERTEX
  5
1134
  8
0
 10
0.0
 20
0.0
 30
0.0
 70
   128
 71
     1
 72
     2
 73
     3
  0
VERTEX
  5
1135
  8
0
 10
0.0
 20
0.0
 30
0.0
 70
   128
 71
     4
 72
     5
 73
     6
  0
VERTEX
  5
1136
  8
0
 10
0.0
 20
0.0
 30
0.0
 70
   128
 71
     4
 72
     6
 73
     1
  0
VERTEX
  5
1137
  8
0
 10
0.0
 20
0.0
 30
0.0
 70
   128
 71
     1
 72
     3
 73
     4
  0
VERTEX
  5
1138
  8
0
 10
0.0
 20
0.0
 30
0.0
 70
   128
 71
     1
 72
     6
 73
     7
  0
VERTEX
  5
1139
  8
0
 10
0.0
 20
0.0
 30
0.0
 70
   128
 71
     1
 72
     7
 73
     8
  0
VERTEX
  5
113A
  8
0
 10
0.0
 20
0.0
 30
0.0
 70
   128
 71
     8
 72
     7
 73
     9
  0
VERTEX
  5
113B
  8
0
 10
0.0
 20
0.0
 30
0.0
 70
   128
 71
     8
 72
     9
 73
    10
  0
SEQEND
  5
1A7A
  8
0
  0
POLYLINE
  5
113C
  8
0
 66
     1
 10
0.0
 20
0.0
 30
0.0
 70
    64
 71
     9
 72
     7
  0
VERTEX
  5
113D
  8
0
 10
12.47500001403648
 20
17.22499576969041
 30
171.6509234256927
 70
   192
  0
VERTEX
  5
113E
  8
0
 10
13.43133671358552
 20
17.22499997611801
 30
175.3986990124708
 70
   192
  0
VERTEX
  5
113F
  8
0
 10
15.96929868107163
 20
17.22499999170959
 30
178.7126935755871
 70
   192
  0
VERTEX
  5
1140
  8
0
 10
20.57399979534
 20
17.22499999999902
 30
180.6165042033001
 70
   192
  0
VERTEX
  5
1141
  8
0
 10
20.75795987647207
 20
16.77027374542726
 30
178.8855167239295
 70
   192
  0
VERTEX
  5
1142
  8
0
 10
20.90210822894889
 20
15.40626159916144
 30
177.5291409723185
 70
   192
  0
VERTEX
  5
1143
  8
0
 10
20.9501601156418
 20
13.66552636486702
 30
177.0769588095247
 70
   192
  0
VERTEX
  5
1144
  8
0
 10
17.77089612072838
 20
14.14398137988038
 30
175.3827055167719
 70
   192
  0
VERTEX
  5
1145
  8
0
 10
15.6275040558173
 20
16.02087266957565
 30
173.0533111585465
 70
   192
  0
VERTEX
  5
1146
  8
0
 10
0.0
 20
0.0
 30
0.0
 70
   128
 71
     3
 72
     4
 73
     5
  0
VERTEX
  5
1147
  8
0
 10
0.0
 20
0.0
 30
0.0
 70
   128
 71
     6
 72
     8
 73
     3
  0
VERTEX
  5
1148
  8
0
 10
0.0
 20
0.0
 30
0.0
 70
   128
 71
     5
 72
     6
 73
     3
  0
VERTEX
  5
1149
  8
0
 10
0.0
 20
0.0
 30
0.0
 70
   128
 71
     6
 72
     7
 73
     8
  0
VERTEX
  5
114A
  8
0
 10
0.0
 20
0.0
 30
0.0
 70
   128
 71
     9
 72
     2
 73
     3
  0
VERTEX
  5
114B
  8
0
 10
0.0
 20
0.0
 30
0.0
 70
   128
 71
     8
 72
     9
 73
     3
  0
VERTEX
  5
114C
  8
0
 10
0.0
 20
0.0
 30
0.0
 70
   128
 71
     9
 72
     1
 73
     2
  0
SEQEND
  5
1A7B
  8
0
  0
POLYLINE
  5
114D
  8
0
 66
     1
 10
0.0
 20
0.0
 30
0.0
 70
    64
 71
    10
 72
     8
  0
VERTEX
  5
114E
  8
0
 10
14.72488038740126
 20
16.62193012598562
 30
156.7000000000002
 70
   192
  0
VERTEX
  5
114F
  8
0
 10
12.475
 20
17.22499999999945
 30
156.7000000000001
 70
   192
  0
VERTEX
  5
1150
  8
0
 10
12.47500000594639
 20
17.22499984332133
 30
161.6836411421369
 70
   192
  0
VERTEX
  5
1151
  8
0
 10
16.975
 20
12.7249999999994
 30
172.6073952341002
 70
   192
  0
VERTEX
  5
1152
  8
0
 10
16.975
 20
12.72499999999946
 30
156.7000000000001
 70
   192
  0
VERTEX
  5
1153
  8
0
 10
16.39127653406171
 20
14.94147734098474
 30
172.4832645626033
 70
   192
  0
VERTEX
  5
1154
  8
0
 10
16.37193012598617
 20
14.97488038740071
 30
156.7000000000002
 70
   192
  0
VERTEX
  5
1155
  8
0
 10
14.77114466448029
 20
16.59509567310873
 30
172.1388792364233
 70
   192
  0
VERTEX
  5
1156
  8
0
 10
12.4750000109421
 20
17.22499874657453
 30
166.6672822840943
 70
   192
  0
VERTEX
  5
1157
  8
0
 10
12.47500001403648
 20
17.22499576969041
 30
171.6509234256927
 70
   192
  0
VERTEX
  5
1158
  8
0
 10
0.0
 20
0.0
 30
0.0
 70
   128
 71
     1
 72
     2
 73
     3
  0
VERTEX
  5
1159
  8
0
 10
0.0
 20
0.0
 30
0.0
 70
   128
 71
     4
 72
     5
 73
     6
  0
VERTEX
  5
115A
  8
0
 10
0.0
 20
0.0
 30
0.0
 70
   128
 71
     6
 72
     5
 73
     7
  0
VERTEX
  5
115B
  8
0
 10
0.0
 20
0.0
 30
0.0
 70
   128
 71
     6
 72
     7
 73
     8
  0
VERTEX
  5
115C
  8
0
 10
0.0
 20
0.0
 30
0.0
 70
   128
 71
     9
 72
    10
 73
     8
  0
VERTEX
  5
115D
  8
0
 10
0.0
 20
0.0
 30
0.0
 70
   128
 71
     8
 72
     7
 73
     1
  0
VERTEX
  5
115E
  8
0
 10
0.0
 20
0.0
 30
0.0
 70
   128
 71
     8
 72
     1
 73
     3
  0
VERTEX
  5
115F
  8
0
 10
0.0
 20
0.0
 30
0.0
 70
   128
 71
     8
 72
     3
 73
     9
  0
SEQEND
  5
1A7C
  8
0
  0
POLYLINE
  5
1160
  8
0
 66
     1
 10
0.0
 20
0.0
 30
0.0
 70
    64
 71
     4
 72
     2
  0
VERTEX
  5
1161
  8
0
 10
-13.025
 20
-15.77499999999942
 30
163.7
 70
   192
  0
VERTEX
  5
1162
  8
0
 10
12.475
 20
-15.77500000000057
 30
163.7
 70
   192
  0
VERTEX
  5
1163
  8
0
 10
12.4750000000005
 20
-15.77500000000063
 30
181.327653996093
 70
   192
  0
VERTEX
  5
1164
  8
0
 10
-13.0249999999984
 20
-15.77500000000063
 30
179.5148577875775
 70
   192
  0
VERTEX
  5
1165
  8
0
 10
0.0
 20
0.0
 30
0.0
 70
   128
 71
     1
 72
     4
 73
    -3
  0
VERTEX
  5
1166
  8
0
 10
0.0
 20
0.0
 30
0.0
 70
   128
 71
    -1
 72
     3
 73
     2
  0
SEQEND
  5
1A7D
  8
0
  0
POLYLINE
  5
1167
  8
0
 66
     1
 10
0.0
 20
0.0
 30
0.0
 70
    64
 71
     8
 72
     6
  0
VERTEX
  5
1168
  8
0
 10
14.37489899380547
 20
-16.06574099527769
 30
156.7000000000001
 70
   192
  0
VERTEX
  5
1169
  8
0
 10
13.9749202582675
 20
-15.37295341732469
 30
163.7000000000001
 70
   192
  0
VERTEX
  5
116A
  8
0
 10
15.07295341732411
 20
-14.27492025826808
 30
163.7
 70
   192
  0
VERTEX
  5
116B
  8
0
 10
15.475
 20
-12.77500000000057
 30
163.7
 70
   192
  0
VERTEX
  5
116C
  8
0
 10
16.275
 20
-12.77500000000055
 30
156.7
 70
   192
  0
VERTEX
  5
116D
  8
0
 10
15.76574099527715
 20
-14.67489899380601
 30
156.7000000000001
 70
   192
  0
VERTEX
  5
116E
  8
0
 10
12.475
 20
-15.77500000000057
 30
163.7
 70
   192
  0
VERTEX
  5
116F
  8
0
 10
12.475
 20
-16.57500000000055
 30
156.7
 70
   192
  0
VERTEX
  5
1170
  8
0
 10
0.0
 20
0.0
 30
0.0
 70
   128
 71
     1
 72
     2
 73
    -3
  0
VERTEX
  5
1171
  8
0
 10
0.0
 20
0.0
 30
0.0
 70
   128
 71
     3
 72
     4
 73
    -5
  0
VERTEX
  5
1172
  8
0
 10
0.0
 20
0.0
 30
0.0
 70
   128
 71
     6
 72
    -3
 73
     5
  0
VERTEX
  5
1173
  8
0
 10
0.0
 20
0.0
 30
0.0
 70
   128
 71
    -1
 72
     3
 73
     6
  0
VERTEX
  5
1174
  8
0
 10
0.0
 20
0.0
 30
0.0
 70
   128
 71
     7
 72
     2
 73
    -1
  0
VERTEX
  5
1175
  8
0
 10
0.0
 20
0.0
 30
0.0
 70
   128
 71
     8
 72
    -7
 73
     1
  0
SEQEND
  5
1A7E
  8
0
  0
POLYLINE
  5
1176
  8
0
 66
     1
 10
0.0
 20
0.0
 30
0.0
 70
    64
 71
    11
 72
     9
  0
VERTEX
  5
1177
  8
0
 10
-16.02499999999885
 20
12.72499999999937
 30
179.3015876453842
 70
   192
  0
VERTEX
  5
1178
  8
0
 10
-16.0250000000006
 20
12.72499999999943
 30
164.0443456158986
 70
   192
  0
VERTEX
  5
1179
  8
0
 10
-15.93846820122761
 20
13.44180265553671
 30
164.0039951754542
 70
   192
  0
VERTEX
  5
117A
  8
0
 10
-15.68513395898544
 20
14.11255143544565
 30
163.8858634782237
 70
   192
  0
VERTEX
  5
117B
  8
0
 10
-15.2865484435683
 20
14.69614145545119
 30
163.6999999999866
 70
   192
  0
VERTEX
  5
117C
  8
0
 10
-15.59051902072855
 20
14.28060943571822
 30
179.3324749187605
 70
   192
  0
VERTEX
  5
117D
  8
0
 10
-14.64192590296946
 20
15.25172234026184
 30
163.6999999999997
 70
   192
  0
VERTEX
  5
117E
  8
0
 10
-13.86737176606682
 20
15.60409447017716
 30
163.7000000000002
 70
   192
  0
VERTEX
  5
117F
  8
0
 10
-14.57918566329698
 20
15.29139928730783
 30
179.4043706550708
 70
   192
  0
VERTEX
  5
1180
  8
0
 10
-13.025
 20
15.72499999999833
 30
163.7000000000002
 70
   192
  0
VERTEX
  5
1181
  8
0
 10
-13.02499999999804
 20
15.72499999999937
 30
179.5148577875727
 70
   192
  0
VERTEX
  5
1182
  8
0
 10
0.0
 20
0.0
 30
0.0
 70
   128
 71
     1
 72
     2
 73
     3
  0
VERTEX
  5
1183
  8
0
 10
0.0
 20
0.0
 30
0.0
 70
   128
 71
     4
 72
     5
 73
     6
  0
VERTEX
  5
1184
  8
0
 10
0.0
 20
0.0
 30
0.0
 70
   128
 71
     6
 72
     1
 73
     3
  0
VERTEX
  5
1185
  8
0
 10
0.0
 20
0.0
 30
0.0
 70
   128
 71
     4
 72
     6
 73
     3
  0
VERTEX
  5
1186
  8
0
 10
0.0
 20
0.0
 30
0.0
 70
   128
 71
     6
 72
     5
 73
     7
  0
VERTEX
  5
1187
  8
0
 10
0.0
 20
0.0
 30
0.0
 70
   128
 71
     8
 72
     9
 73
     6
  0
VERTEX
  5
1188
  8
0
 10
0.0
 20
0.0
 30
0.0
 70
   128
 71
     7
 72
     8
 73
     6
  0
VERTEX
  5
1189
  8
0
 10
0.0
 20
0.0
 30
0.0
 70
   128
 71
    10
 72
    11
 73
     9
  0
VERTEX
  5
118A
  8
0
 10
0.0
 20
0.0
 30
0.0
 70
   128
 71
     8
 72
    10
 73
     9
  0
SEQEND
  5
1A7F
  8
0
  0
POLYLINE
  5
118B
  8
0
 66
     1
 10
0.0
 20
0.0
 30
0.0
 70
    64
 71
    16
 72
    14
  0
VERTEX
  5
118C
  8
0
 10
12.47500000000086
 20
15.72499999999937
 30
181.3276539960881
 70
   192
  0
VERTEX
  5
118D
  8
0
 10
14.02888518128678
 20
15.29157884174701
 30
181.4381197672451
 70
   192
  0
VERTEX
  5
118E
  8
0
 10
15.04038007599688
 20
14.28086901256825
 30
181.5100269872481
 70
   192
  0
VERTEX
  5
118F
  8
0
 10
15.47500000000135
 20
12.72499999999937
 30
181.5409241382816
 70
   192
  0
VERTEX
  5
1190
  8
0
 10
15.47500000000135
 20
-12.77500000000063
 30
181.5409241382815
 70
   192
  0
VERTEX
  5
1191
  8
0
 10
15.04051902074126
 20
-14.33060943571428
 30
181.5100368648365
 70
   192
  0
VERTEX
  5
1192
  8
0
 10
14.02918566328776
 20
-15.34139928731775
 30
181.4381411285247
 70
   192
  0
VERTEX
  5
1193
  8
0
 10
12.4750000000005
 20
-15.77500000000063
 30
181.327653996093
 70
   192
  0
VERTEX
  5
1194
  8
0
 10
-13.0249999999984
 20
-15.77500000000063
 30
179.5148577875775
 70
   192
  0
VERTEX
  5
1195
  8
0
 10
-14.57888518127983
 20
-15.341578841749
 30
179.4043920163516
 70
   192
  0
VERTEX
  5
1196
  8
0
 10
-15.59038007599146
 20
-14.33086901257418
 30
179.3324847963484
 70
   192
  0
VERTEX
  5
1197
  8
0
 10
-16.02499999999885
 20
-12.77500000000063
 30
179.301587645384
 70
   192
  0
VERTEX
  5
1198
  8
0
 10
-16.02499999999885
 20
12.72499999999937
 30
179.3015876453842
 70
   192
  0
VERTEX
  5
1199
  8
0
 10
-15.59051902072855
 20
14.28060943571822
 30
179.3324749187605
 70
   192
  0
VERTEX
  5
119A
  8
0
 10
-14.57918566329698
 20
15.29139928730783
 30
179.4043706550708
 70
   192
  0
VERTEX
  5
119B
  8
0
 10
-13.02499999999804
 20
15.72499999999937
 30
179.5148577875727
 70
   192
  0
VERTEX
  5
119C
  8
0
 10
0.0
 20
0.0
 30
0.0
 70
   128
 71
    15
 72
    16
 73
    -1
  0
VERTEX
  5
119D
  8
0
 10
0.0
 20
0.0
 30
0.0
 70
   128
 71
    14
 72
   -15
 73
    -1
  0
VERTEX
  5
119E
  8
0
 10
0.0
 20
0.0
 30
0.0
 70
   128
 71
    13
 72
   -14
 73
    -1
  0
VERTEX
  5
119F
  8
0
 10
0.0
 20
0.0
 30
0.0
 70
   128
 71
    12
 72
   -13
 73
    -1
  0
VERTEX
  5
11A0
  8
0
 10
0.0
 20
0.0
 30
0.0
 70
   128
 71
    11
 72
   -12
 73
    -1
  0
VERTEX
  5
11A1
  8
0
 10
0.0
 20
0.0
 30
0.0
 70
   128
 71
    10
 72
   -11
 73
    -1
  0
VERTEX
  5
11A2
  8
0
 10
0.0
 20
0.0
 30
0.0
 70
   128
 71
     9
 72
   -10
 73
    -1
  0
VERTEX
  5
11A3
  8
0
 10
0.0
 20
0.0
 30
0.0
 70
   128
 71
     8
 72
    -9
 73
    -1
  0
VERTEX
  5
11A4
  8
0
 10
0.0
 20
0.0
 30
0.0
 70
   128
 71
     7
 72
    -8
 73
    -1
  0
VERTEX
  5
11A5
  8
0
 10
0.0
 20
0.0
 30
0.0
 70
   128
 71
     6
 72
    -7
 73
    -1
  0
VERTEX
  5
11A6
  8
0
 10
0.0
 20
0.0
 30
0.0
 70
   128
 71
     5
 72
    -6
 73
    -1
  0
VERTEX
  5
11A7
  8
0
 10
0.0
 20
0.0
 30
0.0
 70
   128
 71
     4
 72
    -5
 73
    -1
  0
VERTEX
  5
11A8
  8
0
 10
0.0
 20
0.0
 30
0.0
 70
   128
 71
     3
 72
    -4
 73
    -1
  0
VERTEX
  5
11A9
  8
0
 10
0.0
 20
0.0
 30
0.0
 70
   128
 71
     2
 72
    -3
 73
     1
  0
SEQEND
  5
1A80
  8
0
  0
POLYLINE
  5
11AA
  8
0
 66
     1
 10
0.0
 20
0.0
 30
0.0
 70
    64
 71
    11
 72
     9
  0
VERTEX
  5
11AB
  8
0
 10
-13.0249999999984
 20
-15.77500000000063
 30
179.5148577875775
 70
   192
  0
VERTEX
  5
11AC
  8
0
 10
-13.025
 20
-15.77499999999942
 30
163.7
 70
   192
  0
VERTEX
  5
11AD
  8
0
 10
-13.86737176606706
 20
-15.65409447017372
 30
163.6999999999995
 70
   192
  0
VERTEX
  5
11AE
  8
0
 10
-15.68528458678043
 20
-14.16237861575545
 30
163.885933717119
 70
   192
  0
VERTEX
  5
11AF
  8
0
 10
-15.59038007599146
 20
-14.33086901257418
 30
179.3324847963484
 70
   192
  0
VERTEX
  5
11B0
  8
0
 10
-14.64192590296971
 20
-15.30172234025771
 30
163.699999999999
 70
   192
  0
VERTEX
  5
11B1
  8
0
 10
-15.2865484435693
 20
-14.74614145545117
 30
163.6999999999865
 70
   192
  0
VERTEX
  5
11B2
  8
0
 10
-14.57888518127983
 20
-15.341578841749
 30
179.4043920163516
 70
   192
  0
VERTEX
  5
11B3
  8
0
 10
-15.93846820122828
 20
-13.49157309920535
 30
164.0039951754543
 70
   192
  0
VERTEX
  5
11B4
  8
0
 10
-16.02499999999885
 20
-12.77500000000063
 30
179.301587645384
 70
   192
  0
VERTEX
  5
11B5
  8
0
 10
-16.0250000000006
 20
-12.77500000000057
 30
164.0443456158985
 70
   192
  0
VERTEX
  5
11B6
  8
0
 10
0.0
 20
0.0
 30
0.0
 70
   128
 71
     1
 72
     2
 73
     3
  0
VERTEX
  5
11B7
  8
0
 10
0.0
 20
0.0
 30
0.0
 70
   128
 71
     4
 72
     5
 73
     6
  0
VERTEX
  5
11B8
  8
0
 10
0.0
 20
0.0
 30
0.0
 70
   128
 71
     7
 72
     4
 73
     6
  0
VERTEX
  5
11B9
  8
0
 10
0.0
 20
0.0
 30
0.0
 70
   128
 71
     6
 72
     8
 73
     3
  0
VERTEX
  5
11BA
  8
0
 10
0.0
 20
0.0
 30
0.0
 70
   128
 71
     8
 72
     1
 73
     3
  0
VERTEX
  5
11BB
  8
0
 10
0.0
 20
0.0
 30
0.0
 70
   128
 71
     5
 72
     8
 73
     6
  0
VERTEX
  5
11BC
  8
0
 10
0.0
 20
0.0
 30
0.0
 70
   128
 71
     5
 72
     4
 73
     9
  0
VERTEX
  5
11BD
  8
0
 10
0.0
 20
0.0
 30
0.0
 70
   128
 71
    10
 72
     5
 73
     9
  0
VERTEX
  5
11BE
  8
0
 10
0.0
 20
0.0
 30
0.0
 70
   128
 71
     9
 72
    11
 73
    10
  0
SEQEND
  5
1A81
  8
0
  0
POLYLINE
  5
11BF
  8
0
 66
     1
 10
0.0
 20
0.0
 30
0.0
 70
    64
 71
     4
 72
     2
  0
VERTEX
  5
11C0
  8
0
 10
12.475
 20
15.72499999999942
 30
163.7000000000002
 70
   192
  0
VERTEX
  5
11C1
  8
0
 10
-13.025
 20
15.72499999999833
 30
163.7000000000002
 70
   192
  0
VERTEX
  5
11C2
  8
0
 10
-13.02499999999804
 20
15.72499999999937
 30
179.5148577875727
 70
   192
  0
VERTEX
  5
11C3
  8
0
 10
12.47500000000086
 20
15.72499999999937
 30
181.3276539960881
 70
   192
  0
VERTEX
  5
11C4
  8
0
 10
0.0
 20
0.0
 30
0.0
 70
   128
 71
     1
 72
     4
 73
    -3
  0
VERTEX
  5
11C5
  8
0
 10
0.0
 20
0.0
 30
0.0
 70
   128
 71
    -1
 72
     3
 73
     2
  0
SEQEND
  5
1A82
  8
0
  0
POLYLINE
  5
11C6
  8
0
 66
     1
 10
0.0
 20
0.0
 30
0.0
 70
    64
 71
     8
 72
     6
  0
VERTEX
  5
11C7
  8
0
 10
15.76574099527715
 20
14.62489899380493
 30
156.7000000000001
 70
   192
  0
VERTEX
  5
11C8
  8
0
 10
15.07295341732411
 20
14.22492025826694
 30
163.7000000000002
 70
   192
  0
VERTEX
  5
11C9
  8
0
 10
13.97492025826751
 20
15.32295341732354
 30
163.7000000000001
 70
   192
  0
VERTEX
  5
11CA
  8
0
 10
12.475
 20
15.72499999999942
 30
163.7000000000002
 70
   192
  0
VERTEX
  5
11CB
  8
0
 10
12.475
 20
16.52499999999946
 30
156.7000000000001
 70
   192
  0
VERTEX
  5
11CC
  8
0
 10
14.37489899380547
 20
16.0157409952766
 30
156.7000000000002
 70
   192
  0
VERTEX
  5
11CD
  8
0
 10
15.475
 20
12.72499999999943
 30
163.7000000000002
 70
   192
  0
VERTEX
  5
11CE
  8
0
 10
16.275
 20
12.72499999999946
 30
156.7000000000001
 70
   192
  0
VERTEX
  5
11CF
  8
0
 10
0.0
 20
0.0
 30
0.0
 70
   128
 71
     1
 72
     2
 73
    -3
  0
VERTEX
  5
11D0
  8
0
 10
0.0
 20
0.0
 30
0.0
 70
   128
 71
     3
 72
     4
 73
    -5
  0
VERTEX
  5
11D1
  8
0
 10
0.0
 20
0.0
 30
0.0
 70
   128
 71
     6
 72
    -3
 73
     5
  0
VERTEX
  5
11D2
  8
0
 10
0.0
 20
0.0
 30
0.0
 70
   128
 71
    -1
 72
     3
 73
     6
  0
VERTEX
  5
11D3
  8
0
 10
0.0
 20
0.0
 30
0.0
 70
   128
 71
     7
 72
     2
 73
    -1
  0
VERTEX
  5
11D4
  8
0
 10
0.0
 20
0.0
 30
0.0
 70
   128
 71
     8
 72
    -7
 73
     1
  0
SEQEND
  5
1A83
  8
0
  0
POLYLINE
  5
11D5
  8
0
 66
     1
 10
0.0
 20
0.0
 30
0.0
 70
    64
 71
     8
 72
     6
  0
VERTEX
  5
11D6
  8
0
 10
87.9749999998876
 20
-10.15727927077065
 30
184.6496783242001
 70
   192
  0
VERTEX
  5
11D7
  8
0
 10
87.975
 20
-10.15727927077066
 30
188.1631931199001
 70
   192
  0
VERTEX
  5
11D8
  8
0
 10
87.43229666001383
 20
-12.2944049212824
 30
188.1288991185571
 70
   192
  0
VERTEX
  5
11D9
  8
0
 10
87.45196434838168
 20
-12.26252412787217
 30
184.5999386556147
 70
   192
  0
VERTEX
  5
11DA
  8
0
 10
85.94328751347135
 20
-13.91694171760255
 30
188.0348069129243
 70
   192
  0
VERTEX
  5
11DB
  8
0
 10
86.06925064982042
 20
-13.83421583971154
 30
184.4693078962224
 70
   192
  0
VERTEX
  5
11DC
  8
0
 10
83.8605111442
 20
-14.64073565594022
 30
187.9031938714
 70
   192
  0
VERTEX
  5
11DD
  8
0
 10
83.86051085057419
 20
-14.64073568105632
 30
184.2610003704
 70
   192
  0
VERTEX
  5
11DE
  8
0
 10
0.0
 20
0.0
 30
0.0
 70
   128
 71
     1
 72
     2
 73
     3
  0
VERTEX
  5
11DF
  8
0
 10
0.0
 20
0.0
 30
0.0
 70
   128
 71
     1
 72
     3
 73
     4
  0
VERTEX
  5
11E0
  8
0
 10
0.0
 20
0.0
 30
0.0
 70
   128
 71
     4
 72
     3
 73
     5
  0
VERTEX
  5
11E1
  8
0
 10
0.0
 20
0.0
 30
0.0
 70
   128
 71
     4
 72
     5
 73
     6
  0
VERTEX
  5
11E2
  8
0
 10
0.0
 20
0.0
 30
0.0
 70
   128
 71
     6
 72
     5
 73
     7
  0
VERTEX
  5
11E3
  8
0
 10
0.0
 20
0.0
 30
0.0
 70
   128
 71
     6
 72
     7
 73
     8
  0
SEQEND
  5
1A84
  8
0
  0
POLYLINE
  5
11E4
  8
0
 66
     1
 10
0.0
 20
0.0
 30
0.0
 70
    64
 71
    12
 72
    10
  0
VERTEX
  5
11E5
  8
0
 10
83.86051085057419
 20
-14.64073568105632
 30
184.2610003704
 70
   192
  0
VERTEX
  5
11E6
  8
0
 10
63.63815539892359
 20
-16.09167496547161
 30
182.8613067217362
 70
   192
  0
VERTEX
  5
11E7
  8
0
 10
42.74520025975746
 20
-16.98823151221235
 30
182.0837929648149
 70
   192
  0
VERTEX
  5
11E8
  8
0
 10
22.4749979501795
 20
-17.27499999996878
 30
180.6899346834
 70
   192
  0
VERTEX
  5
11E9
  8
0
 10
22.65232306875047
 20
-16.83577087847179
 30
179.0213794287662
 70
   192
  0
VERTEX
  5
11EA
  8
0
 10
22.79123095939701
 20
-15.52134026031761
 30
177.7143142327612
 70
   192
  0
VERTEX
  5
11EB
  8
0
 10
22.837647820049
 20
-13.84338889885062
 30
177.277550973427
 70
   192
  0
VERTEX
  5
11EC
  8
0
 10
43.14324265105086
 20
-14.31228665186822
 30
179.435520870443
 70
   192
  0
VERTEX
  5
11ED
  8
0
 10
63.51164859577345
 20
-14.84444406652481
 30
181.6001659962442
 70
   192
  0
VERTEX
  5
11EE
  8
0
 10
83.8705159632704
 20
-14.14256940581068
 30
183.7637974131015
 70
   192
  0
VERTEX
  5
11EF
  8
0
 10
83.88443385328165
 20
-14.38495332844937
 30
183.8289451657205
 70
   192
  0
VERTEX
  5
11F0
  8
0
 10
83.88060771741192
 20
-14.575460726249
 30
184.0190842447657
 70
   192
  0
VERTEX
  5
11F1
  8
0
 10
0.0
 20
0.0
 30
0.0
 70
   128
 71
     6
 72
     7
 73
     8
  0
VERTEX
  5
11F2
  8
0
 10
0.0
 20
0.0
 30
0.0
 70
   128
 71
     9
 72
    11
 73
     6
  0
VERTEX
  5
11F3
  8
0
 10
0.0
 20
0.0
 30
0.0
 70
   128
 71
     8
 72
     9
 73
     6
  0
VERTEX
  5
11F4
  8
0
 10
0.0
 20
0.0
 30
0.0
 70
   128
 71
     9
 72
    10
 73
    11
  0
VERTEX
  5
11F5
  8
0
 10
0.0
 20
0.0
 30
0.0
 70
   128
 71
    12
 72
     5
 73
     6
  0
VERTEX
  5
11F6
  8
0
 10
0.0
 20
0.0
 30
0.0
 70
   128
 71
    11
 72
    12
 73
     6
  0
VERTEX
  5
11F7
  8
0
 10
0.0
 20
0.0
 30
0.0
 70
   128
 71
    12
 72
     1
 73
     2
  0
VERTEX
  5
11F8
  8
0
 10
0.0
 20
0.0
 30
0.0
 70
   128
 71
     3
 72
     5
 73
    12
  0
VERTEX
  5
11F9
  8
0
 10
0.0
 20
0.0
 30
0.0
 70
   128
 71
     2
 72
     3
 73
    12
  0
VERTEX
  5
11FA
  8
0
 10
0.0
 20
0.0
 30
0.0
 70
   128
 71
     3
 72
     4
 73
     5
  0
SEQEND
  5
1A85
  8
0
  0
POLYLINE
  5
11FB
  8
0
 66
     1
 10
0.0
 20
0.0
 30
0.0
 70
    64
 71
    12
 72
    10
  0
VERTEX
  5
11FC
  8
0
 10
22.4749979501795
 20
-17.27499999996878
 30
180.6899346834
 70
   192
  0
VERTEX
  5
11FD
  8
0
 10
21.84233308292078
 20
-17.27499999998535
 30
180.6560371309864
 70
   192
  0
VERTEX
  5
11FE
  8
0
 10
21.20666464582023
 20
-17.27499999999692
 30
180.6504019154759
 70
   192
  0
VERTEX
  5
11FF
  8
0
 10
20.57399979554
 20
-17.27499999999953
 30
180.6165042033
 70
   192
  0
VERTEX
  5
1200
  8
0
 10
20.75795488959213
 20
-16.82027362047619
 30
178.885516190221
 70
   192
  0
VERTEX
  5
1201
  8
0
 10
20.90210431651402
 20
-15.45626162676002
 30
177.5291404292014
 70
   192
  0
VERTEX
  5
1202
  8
0
 10
20.9501601156988
 20
-13.71552636587824
 30
177.0769588100525
 70
   192
  0
VERTEX
  5
1203
  8
0
 10
21.57932268086089
 20
-13.7486729862675
 30
177.1438228923944
 70
   192
  0
VERTEX
  5
1204
  8
0
 10
22.20848524956856
 20
-13.81024167371451
 30
177.2106869412609
 70
   192
  0
VERTEX
  5
1205
  8
0
 10
22.837647820049
 20
-13.84338889885062
 30
177.277550973427
 70
   192
  0
VERTEX
  5
1206
  8
0
 10
22.79123095939701
 20
-15.52134026031761
 30
177.7143142327612
 70
   192
  0
VERTEX
  5
1207
  8
0
 10
22.65232306875047
 20
-16.83577087847179
 30
179.0213794287662
 70
   192
  0
VERTEX
  5
1208
  8
0
 10
0.0
 20
0.0
 30
0.0
 70
   128
 71
     6
 72
     7
 73
     8
  0
VERTEX
  5
1209
  8
0
 10
0.0
 20
0.0
 30
0.0
 70
   128
 71
     9
 72
    11
 73
     6
  0
VERTEX
  5
120A
  8
0
 10
0.0
 20
0.0
 30
0.0
 70
   128
 71
     8
 72
     9
 73
     6
  0
VERTEX
  5
120B
  8
0
 10
0.0
 20
0.0
 30
0.0
 70
   128
 71
     9
 72
    10
 73
    11
  0
VERTEX
  5
120C
  8
0
 10
0.0
 20
0.0
 30
0.0
 70
   128
 71
    12
 72
     5
 73
     6
  0
VERTEX
  5
120D
  8
0
 10
0.0
 20
0.0
 30
0.0
 70
   128
 71
    11
 72
    12
 73
     6
  0
VERTEX
  5
120E
  8
0
 10
0.0
 20
0.0
 30
0.0
 70
   128
 71
    12
 72
     1
 73
     2
  0
VERTEX
  5
120F
  8
0
 10
0.0
 20
0.0
 30
0.0
 70
   128
 71
     3
 72
     5
 73
    12
  0
VERTEX
  5
1210
  8
0
 10
0.0
 20
0.0
 30
0.0
 70
   128
 71
     2
 72
     3
 73
    12
  0
VERTEX
  5
1211
  8
0
 10
0.0
 20
0.0
 30
0.0
 70
   128
 71
     3
 72
     4
 73
     5
  0
SEQEND
  5
1A86
  8
0
  0
POLYLINE
  5
1212
  8
0
 66
     1
 10
0.0
 20
0.0
 30
0.0
 70
    64
 71
     4
 72
     2
  0
VERTEX
  5
1213
  8
0
 10
16.9750000000007
 20
-12.7750000000006
 30
172.6073952341
 70
   192
  0
VERTEX
  5
1214
  8
0
 10
16.975
 20
12.7249999999994
 30
172.6073952341002
 70
   192
  0
VERTEX
  5
1215
  8
0
 10
16.975
 20
12.72499999999946
 30
156.7000000000001
 70
   192
  0
VERTEX
  5
1216
  8
0
 10
16.975
 20
-12.77500000000055
 30
156.7
 70
   192
  0
VERTEX
  5
1217
  8
0
 10
0.0
 20
0.0
 30
0.0
 70
   128
 71
     1
 72
     4
 73
    -3
  0
VERTEX
  5
1218
  8
0
 10
0.0
 20
0.0
 30
0.0
 70
   128
 71
    -1
 72
     3
 73
     2
  0
SEQEND
  5
1A87
  8
0
  0
POLYLINE
  5
1219
  8
0
 66
     1
 10
0.0
 20
0.0
 30
0.0
 70
    64
 71
     4
 72
     2
  0
VERTEX
  5
121A
  8
0
 10
15.475
 20
12.72499999999943
 30
163.7000000000002
 70
   192
  0
VERTEX
  5
121B
  8
0
 10
15.475
 20
-12.77500000000057
 30
163.7
 70
   192
  0
VERTEX
  5
121C
  8
0
 10
16.275
 20
-12.77500000000055
 30
156.7
 70
   192
  0
VERTEX
  5
121D
  8
0
 10
16.275
 20
12.72499999999946
 30
156.7000000000001
 70
   192
  0
VERTEX
  5
121E
  8
0
 10
0.0
 20
0.0
 30
0.0
 70
   128
 71
     1
 72
     4
 73
    -3
  0
VERTEX
  5
121F
  8
0
 10
0.0
 20
0.0
 30
0.0
 70
   128
 71
    -1
 72
     3
 73
     2
  0
SEQEND
  5
1A88
  8
0
  0
POLYLINE
  5
1220
  8
0
 66
     1
 10
0.0
 20
0.0
 30
0.0
 70
    64
 71
     4
 72
     2
  0
VERTEX
  5
1221
  8
0
 10
87.975
 20
-10.15727927077066
 30
188.1631931199001
 70
   192
  0
VERTEX
  5
1222
  8
0
 10
87.975
 20
10.10727927076934
 30
188.1631931199001
 70
   192
  0
VERTEX
  5
1223
  8
0
 10
87.9749999998875
 20
10.10727927076936
 30
184.6496783242001
 70
   192
  0
VERTEX
  5
1224
  8
0
 10
87.9749999998876
 20
-10.15727927077065
 30
184.6496783242001
 70
   192
  0
VERTEX
  5
1225
  8
0
 10
0.0
 20
0.0
 30
0.0
 70
   128
 71
     1
 72
     4
 73
    -3
  0
VERTEX
  5
1226
  8
0
 10
0.0
 20
0.0
 30
0.0
 70
   128
 71
    -1
 72
     3
 73
     2
  0
SEQEND
  5
1A89
  8
0
  0
POLYLINE
  5
1227
  8
0
 66
     1
 10
0.0
 20
0.0
 30
0.0
 70
    64
 71
    12
 72
    10
  0
VERTEX
  5
1228
  8
0
 10
22.4749985192225
 20
17.22499999997002
 30
180.6899339734002
 70
   192
  0
VERTEX
  5
1229
  8
0
 10
42.74554165105603
 20
16.9382233904857
 30
182.0838079552698
 70
   192
  0
VERTEX
  5
122A
  8
0
 10
63.63849668693826
 20
16.04165384142059
 30
182.8613217760283
 70
   192
  0
VERTEX
  5
122B
  8
0
 10
83.86051086290219
 20
14.59073567999546
 30
184.2610002676001
 70
   192
  0
VERTEX
  5
122C
  8
0
 10
83.88060767695028
 20
14.52546114064007
 30
184.0190849734416
 70
   192
  0
VERTEX
  5
122D
  8
0
 10
83.88443389481733
 20
14.33495489172079
 30
183.8289460518869
 70
   192
  0
VERTEX
  5
122E
  8
0
 10
83.8705161683522
 20
14.09257179591942
 30
183.7637974348801
 70
   192
  0
VERTEX
  5
122F
  8
0
 10
63.51164893881046
 20
14.79445011160883
 30
181.6001660326591
 70
   192
  0
VERTEX
  5
1230
  8
0
 10
43.14324301413458
 20
14.26229950366594
 30
179.4355209089223
 70
   192
  0
VERTEX
  5
1231
  8
0
 10
22.8376478200539
 20
13.79340543855938
 30
177.2775509733636
 70
   192
  0
VERTEX
  5
1232
  8
0
 10
22.7912303276837
 20
15.47135106383883
 30
177.7143201769329
 70
   192
  0
VERTEX
  5
1233
  8
0
 10
22.6523225375983
 20
16.78577373525275
 30
179.0213844266378
 70
   192
  0
VERTEX
  5
1234
  8
0
 10
0.0
 20
0.0
 30
0.0
 70
   128
 71
     6
 72
     7
 73
     8
  0
VERTEX
  5
1235
  8
0
 10
0.0
 20
0.0
 30
0.0
 70
   128
 71
     9
 72
    11
 73
     6
  0
VERTEX
  5
1236
  8
0
 10
0.0
 20
0.0
 30
0.0
 70
   128
 71
     8
 72
     9
 73
     6
  0
VERTEX
  5
1237
  8
0
 10
0.0
 20
0.0
 30
0.0
 70
   128
 71
     9
 72
    10
 73
    11
  0
VERTEX
  5
1238
  8
0
 10
0.0
 20
0.0
 30
0.0
 70
   128
 71
    12
 72
     5
 73
     6
  0
VERTEX
  5
1239
  8
0
 10
0.0
 20
0.0
 30
0.0
 70
   128
 71
    11
 72
    12
 73
     6
  0
VERTEX
  5
123A
  8
0
 10
0.0
 20
0.0
 30
0.0
 70
   128
 71
    12
 72
     1
 73
     2
  0
VERTEX
  5
123B
  8
0
 10
0.0
 20
0.0
 30
0.0
 70
   128
 71
     3
 72
     5
 73
    12
  0
VERTEX
  5
123C
  8
0
 10
0.0
 20
0.0
 30
0.0
 70
   128
 71
     2
 72
     3
 73
    12
  0
VERTEX
  5
123D
  8
0
 10
0.0
 20
0.0
 30
0.0
 70
   128
 71
     3
 72
     4
 73
     5
  0
SEQEND
  5
1A8A
  8
0
  0
POLYLINE
  5
123E
  8
0
 66
     1
 10
0.0
 20
0.0
 30
0.0
 70
    64
 71
     8
 72
     6
  0
VERTEX
  5
123F
  8
0
 10
83.86051086290219
 20
14.59073567999546
 30
184.2610002676001
 70
   192
  0
VERTEX
  5
1240
  8
0
 10
83.86051114419949
 20
14.59073565593766
 30
187.9031938714001
 70
   192
  0
VERTEX
  5
1241
  8
0
 10
85.94328751568541
 20
13.86694171613407
 30
188.0348068650178
 70
   192
  0
VERTEX
  5
1242
  8
0
 10
86.0689667649333
 20
13.78447890732205
 30
184.4693108343411
 70
   192
  0
VERTEX
  5
1243
  8
0
 10
87.43229666070994
 20
12.24440491990062
 30
188.1288990700889
 70
   192
  0
VERTEX
  5
1244
  8
0
 10
87.45202263766583
 20
12.21279440287222
 30
184.5999184697257
 70
   192
  0
VERTEX
  5
1245
  8
0
 10
87.975
 20
10.10727927076934
 30
188.1631931199001
 70
   192
  0
VERTEX
  5
1246
  8
0
 10
87.9749999998875
 20
10.10727927076936
 30
184.6496783242001
 70
   192
  0
VERTEX
  5
1247
  8
0
 10
0.0
 20
0.0
 30
0.0
 70
   128
 71
     1
 72
     2
 73
     3
  0
VERTEX
  5
1248
  8
0
 10
0.0
 20
0.0
 30
0.0
 70
   128
 71
     1
 72
     3
 73
     4
  0
VERTEX
  5
1249
  8
0
 10
0.0
 20
0.0
 30
0.0
 70
   128
 71
     4
 72
     3
 73
     5
  0
VERTEX
  5
124A
  8
0
 10
0.0
 20
0.0
 30
0.0
 70
   128
 71
     4
 72
     5
 73
     6
  0
VERTEX
  5
124B
  8
0
 10
0.0
 20
0.0
 30
0.0
 70
   128
 71
     6
 72
     5
 73
     7
  0
VERTEX
  5
124C
  8
0
 10
0.0
 20
0.0
 30
0.0
 70
   128
 71
     6
 72
     7
 73
     8
  0
SEQEND
  5
1A8B
  8
0
  0
POLYLINE
  5
124D
  8
0
 66
     1
 10
0.0
 20
0.0
 30
0.0
 70
    64
 71
    12
 72
    10
  0
VERTEX
  5
124E
  8
0
 10
20.57399979534
 20
17.22499999999902
 30
180.6165042033001
 70
   192
  0
VERTEX
  5
124F
  8
0
 10
21.2066646895342
 20
17.22499999999628
 30
180.6504016749253
 70
   192
  0
VERTEX
  5
1250
  8
0
 10
21.84233327961343
 20
17.22499999998452
 30
180.6560366557135
 70
   192
  0
VERTEX
  5
1251
  8
0
 10
22.4749985192225
 20
17.22499999997002
 30
180.6899339734002
 70
   192
  0
VERTEX
  5
1252
  8
0
 10
22.6523225375983
 20
16.78577373525275
 30
179.0213844266378
 70
   192
  0
VERTEX
  5
1253
  8
0
 10
22.7912303276837
 20
15.47135106383883
 30
177.7143201769329
 70
   192
  0
VERTEX
  5
1254
  8
0
 10
22.8376478200539
 20
13.79340543855938
 30
177.2775509733636
 70
   192
  0
VERTEX
  5
1255
  8
0
 10
22.20848524953589
 20
13.76025274553099
 30
177.2106869412029
 70
   192
  0
VERTEX
  5
1256
  8
0
 10
21.57932268080365
 20
13.69867859016725
 30
177.1438228922144
 70
   192
  0
VERTEX
  5
1257
  8
0
 10
20.9501601156418
 20
13.66552636486702
 30
177.0769588095247
 70
   192
  0
VERTEX
  5
1258
  8
0
 10
20.90210822894889
 20
15.40626159916144
 30
177.5291409723185
 70
   192
  0
VERTEX
  5
1259
  8
0
 10
20.75795987647207
 20
16.77027374542726
 30
178.8855167239295
 70
   192
  0
VERTEX
  5
125A
  8
0
 10
0.0
 20
0.0
 30
0.0
 70
   128
 71
     6
 72
     7
 73
     8
  0
VERTEX
  5
125B
  8
0
 10
0.0
 20
0.0
 30
0.0
 70
   128
 71
     9
 72
    11
 73
     6
  0
VERTEX
  5
125C
  8
0
 10
0.0
 20
0.0
 30
0.0
 70
   128
 71
     8
 72
     9
 73
     6
  0
VERTEX
  5
125D
  8
0
 10
0.0
 20
0.0
 30
0.0
 70
   128
 71
     9
 72
    10
 73
    11
  0
VERTEX
  5
125E
  8
0
 10
0.0
 20
0.0
 30
0.0
 70
   128
 71
    12
 72
     5
 73
     6
  0
VERTEX
  5
125F
  8
0
 10
0.0
 20
0.0
 30
0.0
 70
   128
 71
    11
 72
    12
 73
     6
  0
VERTEX
  5
1260
  8
0
 10
0.0
 20
0.0
 30
0.0
 70
   128
 71
    12
 72
     1
 73
     2
  0
VERTEX
  5
1261
  8
0
 10
0.0
 20
0.0
 30
0.0
 70
   128
 71
     3
 72
     5
 73
    12
  0
VERTEX
  5
1262
  8
0
 10
0.0
 20
0.0
 30
0.0
 70
   128
 71
     2
 72
     3
 73
    12
  0
VERTEX
  5
1263
  8
0
 10
0.0
 20
0.0
 30
0.0
 70
   128
 71
     3
 72
     4
 73
     5
  0
SEQEND
  5
1A8C
  8
0
  0
POLYLINE
  5
1264
  8
0
 66
     1
 10
0.0
 20
0.0
 30
0.0
 70
    64
 71
     8
 72
     6
  0
VERTEX
  5
1265
  8
0
 10
15.04051902074126
 20
-14.33060943571428
 30
181.5100368648365
 70
   192
  0
VERTEX
  5
1266
  8
0
 10
15.47500000000135
 20
-12.77500000000063
 30
181.5409241382815
 70
   192
  0
VERTEX
  5
1267
  8
0
 10
15.475
 20
-12.77500000000057
 30
163.7
 70
   192
  0
VERTEX
  5
1268
  8
0
 10
15.07295341732411
 20
-14.27492025826808
 30
163.7
 70
   192
  0
VERTEX
  5
1269
  8
0
 10
14.02918566328776
 20
-15.34139928731775
 30
181.4381411285247
 70
   192
  0
VERTEX
  5
126A
  8
0
 10
13.9749202582675
 20
-15.37295341732469
 30
163.7000000000001
 70
   192
  0
VERTEX
  5
126B
  8
0
 10
12.4750000000005
 20
-15.77500000000063
 30
181.327653996093
 70
   192
  0
VERTEX
  5
126C
  8
0
 10
12.475
 20
-15.77500000000057
 30
163.7
 70
   192
  0
VERTEX
  5
126D
  8
0
 10
0.0
 20
0.0
 30
0.0
 70
   128
 71
     1
 72
     2
 73
     3
  0
VERTEX
  5
126E
  8
0
 10
0.0
 20
0.0
 30
0.0
 70
   128
 71
     4
 72
     1
 73
     3
  0
VERTEX
  5
126F
  8
0
 10
0.0
 20
0.0
 30
0.0
 70
   128
 71
     5
 72
     1
 73
     4
  0
VERTEX
  5
1270
  8
0
 10
0.0
 20
0.0
 30
0.0
 70
   128
 71
     6
 72
     5
 73
     4
  0
VERTEX
  5
1271
  8
0
 10
0.0
 20
0.0
 30
0.0
 70
   128
 71
     7
 72
     5
 73
     6
  0
VERTEX
  5
1272
  8
0
 10
0.0
 20
0.0
 30
0.0
 70
   128
 71
     8
 72
     7
 73
     6
  0
SEQEND
  5
1A8D
  8
0
  0
POLYLINE
  5
1273
  8
0
 66
     1
 10
0.0
 20
0.0
 30
0.0
 70
    64
 71
     4
 72
     2
  0
VERTEX
  5
1274
  8
0
 10
15.475
 20
-12.77500000000057
 30
163.7
 70
   192
  0
VERTEX
  5
1275
  8
0
 10
15.475
 20
12.72499999999943
 30
163.7000000000002
 70
   192
  0
VERTEX
  5
1276
  8
0
 10
15.47500000000135
 20
12.72499999999937
 30
181.5409241382816
 70
   192
  0
VERTEX
  5
1277
  8
0
 10
15.47500000000135
 20
-12.77500000000063
 30
181.5409241382815
 70
   192
  0
VERTEX
  5
1278
  8
0
 10
0.0
 20
0.0
 30
0.0
 70
   128
 71
     1
 72
     4
 73
    -3
  0
VERTEX
  5
1279
  8
0
 10
0.0
 20
0.0
 30
0.0
 70
   128
 71
    -1
 72
     3
 73
     2
  0
SEQEND
  5
1A8E
  8
0
  0
POLYLINE
  5
127A
  8
0
 66
     1
 10
0.0
 20
0.0
 30
0.0
 70
    64
 71
     8
 72
     6
  0
VERTEX
  5
127B
  8
0
 10
13.97492025826751
 20
15.32295341732354
 30
163.7000000000001
 70
   192
  0
VERTEX
  5
127C
  8
0
 10
15.07295341732411
 20
14.22492025826694
 30
163.7000000000002
 70
   192
  0
VERTEX
  5
127D
  8
0
 10
14.02888518128678
 20
15.29157884174701
 30
181.4381197672451
 70
   192
  0
VERTEX
  5
127E
  8
0
 10
12.47500000000086
 20
15.72499999999937
 30
181.3276539960881
 70
   192
  0
VERTEX
  5
127F
  8
0
 10
12.475
 20
15.72499999999942
 30
163.7000000000002
 70
   192
  0
VERTEX
  5
1280
  8
0
 10
15.04038007599688
 20
14.28086901256825
 30
181.5100269872481
 70
   192
  0
VERTEX
  5
1281
  8
0
 10
15.47500000000135
 20
12.72499999999937
 30
181.5409241382816
 70
   192
  0
VERTEX
  5
1282
  8
0
 10
15.475
 20
12.72499999999943
 30
163.7000000000002
 70
   192
  0
VERTEX
  5
1283
  8
0
 10
0.0
 20
0.0
 30
0.0
 70
   128
 71
     1
 72
     2
 73
     3
  0
VERTEX
  5
1284
  8
0
 10
0.0
 20
0.0
 30
0.0
 70
   128
 71
     3
 72
     4
 73
     5
  0
VERTEX
  5
1285
  8
0
 10
0.0
 20
0.0
 30
0.0
 70
   128
 71
     1
 72
     3
 73
     5
  0
VERTEX
  5
1286
  8
0
 10
0.0
 20
0.0
 30
0.0
 70
   128
 71
     2
 72
     6
 73
     3
  0
VERTEX
  5
1287
  8
0
 10
0.0
 20
0.0
 30
0.0
 70
   128
 71
     7
 72
     6
 73
     2
  0
VERTEX
  5
1288
  8
0
 10
0.0
 20
0.0
 30
0.0
 70
   128
 71
     8
 72
     7
 73
     2
  0
SEQEND
  5
1A8F
  8
0
  0
POLYLINE
  5
1289
  8
0
 66
     1
 10
0.0
 20
0.0
 30
0.0
 70
    64
 71
    28
 72
    26
  0
VERTEX
  5
128A
  8
0
 10
22.8376478200539
 20
13.79340543855938
 30
177.2775509733636
 70
   192
  0
VERTEX
  5
128B
  8
0
 10
22.20848524953589
 20
13.76025274553099
 30
177.2106869412029
 70
   192
  0
VERTEX
  5
128C
  8
0
 10
21.57932268080365
 20
13.69867859016725
 30
177.1438228922144
 70
   192
  0
VERTEX
  5
128D
  8
0
 10
20.9501601156418
 20
13.66552636486702
 30
177.0769588095247
 70
   192
  0
VERTEX
  5
128E
  8
0
 10
20.97780977143128
 20
13.35286873746641
 30
177.0798972752918
 70
   192
  0
VERTEX
  5
128F
  8
0
 10
20.9942849001932
 20
13.03924777845901
 30
177.0816482061541
 70
   192
  0
VERTEX
  5
1290
  8
0
 10
20.9994421000523
 20
12.72499999999938
 30
177.0821963111786
 70
   192
  0
VERTEX
  5
1291
  8
0
 10
20.99944210001802
 20
4.224999999999383
 30
177.0821963115011
 70
   192
  0
VERTEX
  5
1292
  8
0
 10
20.99944210001786
 20
-4.275000000000617
 30
177.0821963115024
 70
   192
  0
VERTEX
  5
1293
  8
0
 10
20.9994421000517
 20
-12.77500000000062
 30
177.082196311184
 70
   192
  0
VERTEX
  5
1294
  8
0
 10
20.99428490025189
 20
-13.08924777879375
 30
177.0816482061852
 70
   192
  0
VERTEX
  5
1295
  8
0
 10
20.9778097715132
 20
-13.40286873813818
 30
177.0798972754583
 70
   192
  0
VERTEX
  5
1296
  8
0
 10
20.9501601156988
 20
-13.71552636587824
 30
177.0769588100525
 70
   192
  0
VERTEX
  5
1297
  8
0
 10
21.57932268086089
 20
-13.7486729862675
 30
177.1438228923944
 70
   192
  0
VERTEX
  5
1298
  8
0
 10
22.20848524956856
 20
-13.81024167371451
 30
177.2106869412609
 70
   192
  0
VERTEX
  5
1299
  8
0
 10
22.837647820049
 20
-13.84338889885062
 30
177.277550973427
 70
   192
  0
VERTEX
  5
129A
  8
0
 10
43.14324265105086
 20
-14.31228665186822
 30
179.435520870443
 70
   192
  0
VERTEX
  5
129B
  8
0
 10
63.51164859577345
 20
-14.84444406652481
 30
181.6001659962442
 70
   192
  0
VERTEX
  5
129C
  8
0
 10
83.8705159632704
 20
-14.14256940581068
 30
183.7637974131015
 70
   192
  0
VERTEX
  5
129D
  8
0
 10
85.71563772391298
 20
-13.50634759371661
 30
183.9598939411865
 70
   192
  0
VERTEX
  5
129E
  8
0
 10
87.05968338509142
 20
-12.03514543860647
 30
184.1027306226985
 70
   192
  0
VERTEX
  5
129F
  8
0
 10
87.5278397665819
 20
-10.15727927077064
 30
184.1524782045751
 70
   192
  0
VERTEX
  5
12A0
  8
0
 10
87.5278397665807
 20
10.10727927076936
 30
184.1524782045936
 70
   192
  0
VERTEX
  5
12A1
  8
0
 10
87.10248356445224
 20
11.90234709275016
 30
184.1072799551499
 70
   192
  0
VERTEX
  5
12A2
  8
0
 10
85.73018985604759
 20
13.44572348584543
 30
183.961437318943
 70
   192
  0
VERTEX
  5
12A3
  8
0
 10
83.8705161683522
 20
14.09257179591942
 30
183.7637974348801
 70
   192
  0
VERTEX
  5
12A4
  8
0
 10
63.51164893881046
 20
14.79445011160883
 30
181.6001660326591
 70
   192
  0
VERTEX
  5
12A5
  8
0
 10
43.14324301413458
 20
14.26229950366594
 30
179.4355209089223
 70
   192
  0
VERTEX
  5
12A6
  8
0
 10
0.0
 20
0.0
 30
0.0
 70
   128
 71
    27
 72
    26
 73
   -25
  0
VERTEX
  5
12A7
  8
0
 10
0.0
 20
0.0
 30
0.0
 70
   128
 71
   -27
 72
    25
 73
   -24
  0
VERTEX
  5
12A8
  8
0
 10
0.0
 20
0.0
 30
0.0
 70
   128
 71
   -27
 72
    24
 73
   -23
  0
VERTEX
  5
12A9
  8
0
 10
0.0
 20
0.0
 30
0.0
 70
   128
 71
   -27
 72
    23
 73
   -22
  0
VERTEX
  5
12AA
  8
0
 10
0.0
 20
0.0
 30
0.0
 70
   128
 71
   -27
 72
    22
 73
   -21
  0
VERTEX
  5
12AB
  8
0
 10
0.0
 20
0.0
 30
0.0
 70
   128
 71
   -27
 72
    21
 73
   -20
  0
VERTEX
  5
12AC
  8
0
 10
0.0
 20
0.0
 30
0.0
 70
   128
 71
   -27
 72
    20
 73
   -19
  0
VERTEX
  5
12AD
  8
0
 10
0.0
 20
0.0
 30
0.0
 70
   128
 71
   -27
 72
    19
 73
   -18
  0
VERTEX
  5
12AE
  8
0
 10
0.0
 20
0.0
 30
0.0
 70
   128
 71
    18
 72
   -17
 73
   -28
  0
VERTEX
  5
12AF
  8
0
 10
0.0
 20
0.0
 30
0.0
 70
   128
 71
   -18
 72
    28
 73
   -27
  0
VERTEX
  5
12B0
  8
0
 10
0.0
 20
0.0
 30
0.0
 70
   128
 71
    17
 72
   -16
 73
    -1
  0
VERTEX
  5
12B1
  8
0
 10
0.0
 20
0.0
 30
0.0
 70
   128
 71
   -17
 72
     1
 73
   -28
  0
VERTEX
  5
12B2
  8
0
 10
0.0
 20
0.0
 30
0.0
 70
   128
 71
     2
 72
    -1
 73
    -5
  0
VERTEX
  5
12B3
  8
0
 10
0.0
 20
0.0
 30
0.0
 70
   128
 71
    -5
 72
     3
 73
    -2
  0
VERTEX
  5
12B4
  8
0
 10
0.0
 20
0.0
 30
0.0
 70
   128
 71
     5
 72
     4
 73
    -3
  0
VERTEX
  5
12B5
  8
0
 10
0.0
 20
0.0
 30
0.0
 70
   128
 71
    -1
 72
     6
 73
    -5
  0
VERTEX
  5
12B6
  8
0
 10
0.0
 20
0.0
 30
0.0
 70
   128
 71
    -1
 72
     7
 73
    -6
  0
VERTEX
  5
12B7
  8
0
 10
0.0
 20
0.0
 30
0.0
 70
   128
 71
    -1
 72
     8
 73
    -7
  0
VERTEX
  5
12B8
  8
0
 10
0.0
 20
0.0
 30
0.0
 70
   128
 71
    -1
 72
     9
 73
    -8
  0
VERTEX
  5
12B9
  8
0
 10
0.0
 20
0.0
 30
0.0
 70
   128
 71
    -1
 72
   -14
 73
    -9
  0
VERTEX
  5
12BA
  8
0
 10
0.0
 20
0.0
 30
0.0
 70
   128
 71
   -14
 72
    10
 73
    -9
  0
VERTEX
  5
12BB
  8
0
 10
0.0
 20
0.0
 30
0.0
 70
   128
 71
   -14
 72
    11
 73
   -10
  0
VERTEX
  5
12BC
  8
0
 10
0.0
 20
0.0
 30
0.0
 70
   128
 71
   -14
 72
    12
 73
   -11
  0
VERTEX
  5
12BD
  8
0
 10
0.0
 20
0.0
 30
0.0
 70
   128
 71
    14
 72
    13
 73
   -12
  0
VERTEX
  5
12BE
  8
0
 10
0.0
 20
0.0
 30
0.0
 70
   128
 71
    -1
 72
    15
 73
   -14
  0
VERTEX
  5
12BF
  8
0
 10
0.0
 20
0.0
 30
0.0
 70
   128
 71
    -1
 72
    16
 73
   -15
  0
SEQEND
  5
1A90
  8
0
  0
POLYLINE
  5
12C0
  8
0
 66
     1
 10
0.0
 20
0.0
 30
0.0
 70
    64
 71
    10
 72
     8
  0
VERTEX
  5
12C1
  8
0
 10
17.4797253565424
 20
12.72499999999994
 30
174.6780206426329
 70
   192
  0
VERTEX
  5
12C2
  8
0
 10
18.99375074319482
 20
12.72499999999963
 30
176.3614748172539
 70
   192
  0
VERTEX
  5
12C3
  8
0
 10
18.99375074318315
 20
-12.77499999999661
 30
176.3614748172671
 70
   192
  0
VERTEX
  5
12C4
  8
0
 10
17.4797253565333
 20
-12.77499999999577
 30
174.6780206425797
 70
   192
  0
VERTEX
  5
12C5
  8
0
 10
20.99944210001786
 20
-4.275000000000617
 30
177.0821963115024
 70
   192
  0
VERTEX
  5
12C6
  8
0
 10
20.9994421000517
 20
-12.77500000000062
 30
177.082196311184
 70
   192
  0
VERTEX
  5
12C7
  8
0
 10
20.9994421000523
 20
12.72499999999938
 30
177.0821963111786
 70
   192
  0
VERTEX
  5
12C8
  8
0
 10
20.99944210001802
 20
4.224999999999383
 30
177.0821963115011
 70
   192
  0
VERTEX
  5
12C9
  8
0
 10
16.975
 20
12.7249999999994
 30
172.6073952341002
 70
   192
  0
VERTEX
  5
12CA
  8
0
 10
16.9750000000007
 20
-12.7750000000006
 30
172.6073952341
 70
   192
  0
VERTEX
  5
12CB
  8
0
 10
0.0
 20
0.0
 30
0.0
 70
   128
 71
     1
 72
     2
 73
    -3
  0
VERTEX
  5
12CC
  8
0
 10
0.0
 20
0.0
 30
0.0
 70
   128
 71
     4
 72
    -1
 73
     3
  0
VERTEX
  5
12CD
  8
0
 10
0.0
 20
0.0
 30
0.0
 70
   128
 71
     5
 72
     6
 73
    -3
  0
VERTEX
  5
12CE
  8
0
 10
0.0
 20
0.0
 30
0.0
 70
   128
 71
     2
 72
     7
 73
    -8
  0
VERTEX
  5
12CF
  8
0
 10
0.0
 20
0.0
 30
0.0
 70
   128
 71
    -5
 72
     3
 73
    -2
  0
VERTEX
  5
12D0
  8
0
 10
0.0
 20
0.0
 30
0.0
 70
   128
 71
     8
 72
    -5
 73
    -2
  0
VERTEX
  5
12D1
  8
0
 10
0.0
 20
0.0
 30
0.0
 70
   128
 71
     9
 72
     1
 73
    -4
  0
VERTEX
  5
12D2
  8
0
 10
0.0
 20
0.0
 30
0.0
 70
   128
 71
    10
 72
    -9
 73
     4
  0
SEQEND
  5
1A91
  8
0
  0
POLYLINE
  5
12D3
  8
0
 66
     1
 10
0.0
 20
0.0
 30
0.0
 70
    64
 71
     8
 72
     6
  0
VERTEX
  5
12D4
  8
0
 10
87.91629301962921
 20
10.10727927076936
 30
184.4152246407356
 70
   192
  0
VERTEX
  5
12D5
  8
0
 10
87.91629301962885
 20
-10.15727927077065
 30
184.4152246407349
 70
   192
  0
VERTEX
  5
12D6
  8
0
 10
87.7547764393036
 20
-10.15727927077064
 30
184.23563339567
 70
   192
  0
VERTEX
  5
12D7
  8
0
 10
87.75477643930478
 20
10.10727927076936
 30
184.2356333956716
 70
   192
  0
VERTEX
  5
12D8
  8
0
 10
87.9749999998875
 20
10.10727927076936
 30
184.6496783242001
 70
   192
  0
VERTEX
  5
12D9
  8
0
 10
87.9749999998876
 20
-10.15727927077065
 30
184.6496783242001
 70
   192
  0
VERTEX
  5
12DA
  8
0
 10
87.5278397665819
 20
-10.15727927077064
 30
184.1524782045751
 70
   192
  0
VERTEX
  5
12DB
  8
0
 10
87.5278397665807
 20
10.10727927076936
 30
184.1524782045936
 70
   192
  0
VERTEX
  5
12DC
  8
0
 10
0.0
 20
0.0
 30
0.0
 70
   128
 71
     1
 72
     2
 73
    -3
  0
VERTEX
  5
12DD
  8
0
 10
0.0
 20
0.0
 30
0.0
 70
   128
 71
    -1
 72
     3
 73
     4
  0
VERTEX
  5
12DE
  8
0
 10
0.0
 20
0.0
 30
0.0
 70
   128
 71
     5
 72
     6
 73
    -2
  0
VERTEX
  5
12DF
  8
0
 10
0.0
 20
0.0
 30
0.0
 70
   128
 71
    -5
 72
     2
 73
     1
  0
VERTEX
  5
12E0
  8
0
 10
0.0
 20
0.0
 30
0.0
 70
   128
 71
     4
 72
     3
 73
    -7
  0
VERTEX
  5
12E1
  8
0
 10
0.0
 20
0.0
 30
0.0
 70
   128
 71
    -4
 72
     7
 73
     8
  0
SEQEND
  5
1A92
  8
0
  0
POLYLINE
  5
12E2
  8
0
 66
     1
 10
0.0
 20
0.0
 30
0.0
 70
    64
 71
    12
 72
    10
  0
VERTEX
  5
12E3
  8
0
 10
83.86051086290219
 20
14.59073567999546
 30
184.2610002676001
 70
   192
  0
VERTEX
  5
12E4
  8
0
 10
86.0689667649333
 20
13.78447890732205
 30
184.4693108343411
 70
   192
  0
VERTEX
  5
12E5
  8
0
 10
87.45202263766583
 20
12.21279440287222
 30
184.5999184697257
 70
   192
  0
VERTEX
  5
12E6
  8
0
 10
87.9749999998875
 20
10.10727927076936
 30
184.6496783242001
 70
   192
  0
VERTEX
  5
12E7
  8
0
 10
87.91629301962921
 20
10.10727927076936
 30
184.4152246407356
 70
   192
  0
VERTEX
  5
12E8
  8
0
 10
87.75477643930478
 20
10.10727927076936
 30
184.2356333956716
 70
   192
  0
VERTEX
  5
12E9
  8
0
 10
87.5278397665807
 20
10.10727927076936
 30
184.1524782045936
 70
   192
  0
VERTEX
  5
12EA
  8
0
 10
87.10248356445224
 20
11.90234709275016
 30
184.1072799551499
 70
   192
  0
VERTEX
  5
12EB
  8
0
 10
85.73018985604759
 20
13.44572348584543
 30
183.961437318943
 70
   192
  0
VERTEX
  5
12EC
  8
0
 10
83.8705161683522
 20
14.09257179591942
 30
183.7637974348801
 70
   192
  0
VERTEX
  5
12ED
  8
0
 10
83.88443389481733
 20
14.33495489172079
 30
183.8289460518869
 70
   192
  0
VERTEX
  5
12EE
  8
0
 10
83.88060767695028
 20
14.52546114064007
 30
184.0190849734416
 70
   192
  0
VERTEX
  5
12EF
  8
0
 10
0.0
 20
0.0
 30
0.0
 70
   128
 71
     6
 72
     7
 73
     8
  0
VERTEX
  5
12F0
  8
0
 10
0.0
 20
0.0
 30
0.0
 70
   128
 71
     9
 72
    11
 73
     6
  0
VERTEX
  5
12F1
  8
0
 10
0.0
 20
0.0
 30
0.0
 70
   128
 71
     8
 72
     9
 73
     6
  0
VERTEX
  5
12F2
  8
0
 10
0.0
 20
0.0
 30
0.0
 70
   128
 71
     9
 72
    10
 73
    11
  0
VERTEX
  5
12F3
  8
0
 10
0.0
 20
0.0
 30
0.0
 70
   128
 71
    12
 72
     5
 73
     6
  0
VERTEX
  5
12F4
  8
0
 10
0.0
 20
0.0
 30
0.0
 70
   128
 71
    11
 72
    12
 73
     6
  0
VERTEX
  5
12F5
  8
0
 10
0.0
 20
0.0
 30
0.0
 70
   128
 71
    12
 72
     1
 73
     2
  0
VERTEX
  5
12F6
  8
0
 10
0.0
 20
0.0
 30
0.0
 70
   128
 71
     3
 72
     5
 73
    12
  0
VERTEX
  5
12F7
  8
0
 10
0.0
 20
0.0
 30
0.0
 70
   128
 71
     2
 72
     3
 73
    12
  0
VERTEX
  5
12F8
  8
0
 10
0.0
 20
0.0
 30
0.0
 70
   128
 71
     3
 72
     4
 73
     5
  0
SEQEND
  5
1A93
  8
0
  0
POLYLINE
  5
12F9
  8
0
 66
     1
 10
0.0
 20
0.0
 30
0.0
 70
    64
 71
    12
 72
    10
  0
VERTEX
  5
12FA
  8
0
 10
87.9749999998876
 20
-10.15727927077065
 30
184.6496783242001
 70
   192
  0
VERTEX
  5
12FB
  8
0
 10
87.45196434838168
 20
-12.26252412787217
 30
184.5999386556147
 70
   192
  0
VERTEX
  5
12FC
  8
0
 10
86.06925064982042
 20
-13.83421583971154
 30
184.4693078962224
 70
   192
  0
VERTEX
  5
12FD
  8
0
 10
83.86051085057419
 20
-14.64073568105632
 30
184.2610003704
 70
   192
  0
VERTEX
  5
12FE
  8
0
 10
83.88060771741192
 20
-14.575460726249
 30
184.0190842447657
 70
   192
  0
VERTEX
  5
12FF
  8
0
 10
83.88443385328165
 20
-14.38495332844937
 30
183.8289451657205
 70
   192
  0
VERTEX
  5
1300
  8
0
 10
83.8705159632704
 20
-14.14256940581068
 30
183.7637974131015
 70
   192
  0
VERTEX
  5
1301
  8
0
 10
85.71563772391298
 20
-13.50634759371661
 30
183.9598939411865
 70
   192
  0
VERTEX
  5
1302
  8
0
 10
87.05968338509142
 20
-12.03514543860647
 30
184.1027306226985
 70
   192
  0
VERTEX
  5
1303
  8
0
 10
87.5278397665819
 20
-10.15727927077064
 30
184.1524782045751
 70
   192
  0
VERTEX
  5
1304
  8
0
 10
87.7547764393036
 20
-10.15727927077064
 30
184.23563339567
 70
   192
  0
VERTEX
  5
1305
  8
0
 10
87.91629301962885
 20
-10.15727927077065
 30
184.4152246407349
 70
   192
  0
VERTEX
  5
1306
  8
0
 10
0.0
 20
0.0
 30
0.0
 70
   128
 71
     6
 72
     7
 73
     8
  0
VERTEX
  5
1307
  8
0
 10
0.0
 20
0.0
 30
0.0
 70
   128
 71
     9
 72
    11
 73
     6
  0
VERTEX
  5
1308
  8
0
 10
0.0
 20
0.0
 30
0.0
 70
   128
 71
     8
 72
     9
 73
     6
  0
VERTEX
  5
1309
  8
0
 10
0.0
 20
0.0
 30
0.0
 70
   128
 71
     9
 72
    10
 73
    11
  0
VERTEX
  5
130A
  8
0
 10
0.0
 20
0.0
 30
0.0
 70
   128
 71
    12
 72
     5
 73
     6
  0
VERTEX
  5
130B
  8
0
 10
0.0
 20
0.0
 30
0.0
 70
   128
 71
    11
 72
    12
 73
     6
  0
VERTEX
  5
130C
  8
0
 10
0.0
 20
0.0
 30
0.0
 70
   128
 71
    12
 72
     1
 73
     2
  0
VERTEX
  5
130D
  8
0
 10
0.0
 20
0.0
 30
0.0
 70
   128
 71
     3
 72
     5
 73
    12
  0
VERTEX
  5
130E
  8
0
 10
0.0
 20
0.0
 30
0.0
 70
   128
 71
     2
 72
     3
 73
    12
  0
VERTEX
  5
130F
  8
0
 10
0.0
 20
0.0
 30
0.0
 70
   128
 71
     3
 72
     4
 73
     5
  0
SEQEND
  5
1A94
  8
0
  0
POLYLINE
  5
1310
  8
0
 66
     1
 10
0.0
 20
0.0
 30
0.0
 70
    64
 71
    12
 72
    10
  0
VERTEX
  5
1311
  8
0
 10
16.9750000000007
 20
-12.7750000000006
 30
172.6073952341
 70
   192
  0
VERTEX
  5
1312
  8
0
 10
17.4797253565333
 20
-12.77499999999577
 30
174.6780206425797
 70
   192
  0
VERTEX
  5
1313
  8
0
 10
18.99375074318315
 20
-12.77499999999661
 30
176.3614748172671
 70
   192
  0
VERTEX
  5
1314
  8
0
 10
20.9994421000517
 20
-12.77500000000062
 30
177.082196311184
 70
   192
  0
VERTEX
  5
1315
  8
0
 10
20.99428490025189
 20
-13.08924777879375
 30
177.0816482061852
 70
   192
  0
VERTEX
  5
1316
  8
0
 10
20.9778097715132
 20
-13.40286873813818
 30
177.0798972754583
 70
   192
  0
VERTEX
  5
1317
  8
0
 10
20.9501601156988
 20
-13.71552636587824
 30
177.0769588100525
 70
   192
  0
VERTEX
  5
1318
  8
0
 10
17.66735991297335
 20
-14.23494685146052
 30
175.2653961656982
 70
   192
  0
VERTEX
  5
1319
  8
0
 10
15.97191524288328
 20
-15.75312209261489
 30
173.2932902264186
 70
   192
  0
VERTEX
  5
131A
  8
0
 10
12.47500001403572
 20
-17.2749957696929
 30
171.6509234256926
 70
   192
  0
VERTEX
  5
131B
  8
0
 10
14.77447959968786
 20
-16.64312490807194
 30
172.1395821166321
 70
   192
  0
VERTEX
  5
131C
  8
0
 10
16.38907324716106
 20
-14.99534702685065
 30
172.4827990347441
 70
   192
  0
VERTEX
  5
131D
  8
0
 10
0.0
 20
0.0
 30
0.0
 70
   128
 71
     9
 72
    10
 73
    11
  0
VERTEX
  5
131E
  8
0
 10
0.0
 20
0.0
 30
0.0
 70
   128
 71
    11
 72
    12
 73
     9
  0
VERTEX
  5
131F
  8
0
 10
0.0
 20
0.0
 30
0.0
 70
   128
 71
     8
 72
     2
 73
     3
  0
VERTEX
  5
1320
  8
0
 10
0.0
 20
0.0
 30
0.0
 70
   128
 71
     4
 72
     5
 73
     8
  0
VERTEX
  5
1321
  8
0
 10
0.0
 20
0.0
 30
0.0
 70
   128
 71
     3
 72
     4
 73
     8
  0
VERTEX
  5
1322
  8
0
 10
0.0
 20
0.0
 30
0.0
 70
   128
 71
     5
 72
     6
 73
     8
  0
VERTEX
  5
1323
  8
0
 10
0.0
 20
0.0
 30
0.0
 70
   128
 71
     6
 72
     7
 73
     8
  0
VERTEX
  5
1324
  8
0
 10
0.0
 20
0.0
 30
0.0
 70
   128
 71
    12
 72
     1
 73
     2
  0
VERTEX
  5
1325
  8
0
 10
0.0
 20
0.0
 30
0.0
 70
   128
 71
     9
 72
    12
 73
     2
  0
VERTEX
  5
1326
  8
0
 10
0.0
 20
0.0
 30
0.0
 70
   128
 71
     8
 72
     9
 73
     2
  0
SEQEND
  5
1A95
  8
0
  0
POLYLINE
  5
1327
  8
0
 66
     1
 10
0.0
 20
0.0
 30
0.0
 70
    64
 71
    12
 72
    10
  0
VERTEX
  5
1328
  8
0
 10
20.9994421000523
 20
12.72499999999938
 30
177.0821963111786
 70
   192
  0
VERTEX
  5
1329
  8
0
 10
18.99375074319482
 20
12.72499999999963
 30
176.3614748172539
 70
   192
  0
VERTEX
  5
132A
  8
0
 10
17.4797253565424
 20
12.72499999999994
 30
174.6780206426329
 70
   192
  0
VERTEX
  5
132B
  8
0
 10
16.975
 20
12.7249999999994
 30
172.6073952341002
 70
   192
  0
VERTEX
  5
132C
  8
0
 10
16.39127653406171
 20
14.94147734098474
 30
172.4832645626033
 70
   192
  0
VERTEX
  5
132D
  8
0
 10
14.77114466448029
 20
16.59509567310873
 30
172.1388792364233
 70
   192
  0
VERTEX
  5
132E
  8
0
 10
12.47500001403648
 20
17.22499576969041
 30
171.6509234256927
 70
   192
  0
VERTEX
  5
132F
  8
0
 10
15.6275040558173
 20
16.02087266957565
 30
173.0533111585465
 70
   192
  0
VERTEX
  5
1330
  8
0
 10
17.77089612072838
 20
14.14398137988038
 30
175.3827055167719
 70
   192
  0
VERTEX
  5
1331
  8
0
 10
20.9501601156418
 20
13.66552636486702
 30
177.0769588095247
 70
   192
  0
VERTEX
  5
1332
  8
0
 10
20.97780977143128
 20
13.35286873746641
 30
177.0798972752918
 70
   192
  0
VERTEX
  5
1333
  8
0
 10
20.9942849001932
 20
13.03924777845901
 30
177.0816482061541
 70
   192
  0
VERTEX
  5
1334
  8
0
 10
0.0
 20
0.0
 30
0.0
 70
   128
 71
     6
 72
     7
 73
     8
  0
VERTEX
  5
1335
  8
0
 10
0.0
 20
0.0
 30
0.0
 70
   128
 71
     9
 72
     4
 73
     5
  0
VERTEX
  5
1336
  8
0
 10
0.0
 20
0.0
 30
0.0
 70
   128
 71
     8
 72
     9
 73
     5
  0
VERTEX
  5
1337
  8
0
 10
0.0
 20
0.0
 30
0.0
 70
   128
 71
     5
 72
     6
 73
     8
  0
VERTEX
  5
1338
  8
0
 10
0.0
 20
0.0
 30
0.0
 70
   128
 71
    10
 72
    11
 73
     4
  0
VERTEX
  5
1339
  8
0
 10
0.0
 20
0.0
 30
0.0
 70
   128
 71
     9
 72
    10
 73
     4
  0
VERTEX
  5
133A
  8
0
 10
0.0
 20
0.0
 30
0.0
 70
   128
 71
    11
 72
    12
 73
     4
  0
VERTEX
  5
133B
  8
0
 10
0.0
 20
0.0
 30
0.0
 70
   128
 71
    12
 72
     1
 73
     2
  0
VERTEX
  5
133C
  8
0
 10
0.0
 20
0.0
 30
0.0
 70
   128
 71
     2
 72
     3
 73
    12
  0
VERTEX
  5
133D
  8
0
 10
0.0
 20
0.0
 30
0.0
 70
   128
 71
     3
 72
     4
 73
    12
  0
SEQEND
  5
1A96
  8
0
  0
ENDBLK
  5
1A5F
  8
0
  0
BLOCK
  8
0
  2
*X3
 70
     1
 10
0.0
 20
0.0
 30
0.0
  3
*X3
  1

  0
POLYLINE
  5
1369
  8
0
 66
     1
 10
0.0
 20
0.0
 30
0.0
 70
    64
 71
    16
 72
    14
  0
VERTEX
  5
136A
  8
0
 10
-12.7499999999872
 20
-0.0000000000005308
 30
163.2999999999911
 70
   192
  0
VERTEX
  5
136B
  8
0
 10
-11.77946403951914
 20
-4.879213762655739
 30
163.3000000000001
 70
   192
  0
VERTEX
  5
136C
  8
0
 10
-9.01561146012878
 20
-9.01561146012962
 30
163.3000000000001
 70
   192
  0
VERTEX
  5
136D
  8
0
 10
-4.87921376265508
 20
-11.77946403952027
 30
163.3000000000001
 70
   192
  0
VERTEX
  5
136E
  8
0
 10
0.0000000000000137
 20
-12.75000000000145
 30
163.3
 70
   192
  0
VERTEX
  5
136F
  8
0
 10
4.87921376265511
 20
-11.77946403952027
 30
163.3000000000001
 70
   192
  0
VERTEX
  5
1370
  8
0
 10
9.015611460128811
 20
-9.015611460129618
 30
163.3000000000001
 70
   192
  0
VERTEX
  5
1371
  8
0
 10
11.77946403951918
 20
-4.879213762655739
 30
163.3000000000001
 70
   192
  0
VERTEX
  5
1372
  8
0
 10
12.74999999998718
 20
-0.0000000000006106
 30
163.2999999999911
 70
   192
  0
VERTEX
  5
1373
  8
0
 10
11.77946403951914
 20
4.879213762654611
 30
163.3000000000001
 70
   192
  0
VERTEX
  5
1374
  8
0
 10
9.01561146012877
 20
9.015611460128513
 30
163.3000000000001
 70
   192
  0
VERTEX
  5
1375
  8
0
 10
4.87921376265507
 20
11.77946403951917
 30
163.3000000000001
 70
   192
  0
VERTEX
  5
1376
  8
0
 10
-0.000000000000033
 20
12.75000000000035
 30
163.3000000000002
 70
   192
  0
VERTEX
  5
1377
  8
0
 10
-4.87921376265514
 20
11.77946403951917
 30
163.3000000000001
 70
   192
  0
VERTEX
  5
1378
  8
0
 10
-9.015611460128838
 20
9.015611460128511
 30
163.3000000000001
 70
   192
  0
VERTEX
  5
1379
  8
0
 10
-11.7794640395192
 20
4.879213762654611
 30
163.3000000000001
 70
   192
  0
VERTEX
  5
137A
  8
0
 10
0.0
 20
0.0
 30
0.0
 70
   128
 71
    15
 72
    16
 73
    -1
  0
VERTEX
  5
137B
  8
0
 10
0.0
 20
0.0
 30
0.0
 70
   128
 71
    14
 72
   -15
 73
    -1
  0
VERTEX
  5
137C
  8
0
 10
0.0
 20
0.0
 30
0.0
 70
   128
 71
    13
 72
   -14
 73
    -1
  0
VERTEX
  5
137D
  8
0
 10
0.0
 20
0.0
 30
0.0
 70
   128
 71
    12
 72
   -13
 73
    -1
  0
VERTEX
  5
137E
  8
0
 10
0.0
 20
0.0
 30
0.0
 70
   128
 71
    11
 72
   -12
 73
    -1
  0
VERTEX
  5
137F
  8
0
 10
0.0
 20
0.0
 30
0.0
 70
   128
 71
    10
 72
   -11
 73
    -1
  0
VERTEX
  5
1380
  8
0
 10
0.0
 20
0.0
 30
0.0
 70
   128
 71
     9
 72
   -10
 73
    -1
  0
VERTEX
  5
1381
  8
0
 10
0.0
 20
0.0
 30
0.0
 70
   128
 71
     8
 72
    -9
 73
    -1
  0
VERTEX
  5
1382
  8
0
 10
0.0
 20
0.0
 30
0.0
 70
   128
 71
     7
 72
    -8
 73
    -1
  0
VERTEX
  5
1383
  8
0
 10
0.0
 20
0.0
 30
0.0
 70
   128
 71
     6
 72
    -7
 73
    -1
  0
VERTEX
  5
1384
  8
0
 10
0.0
 20
0.0
 30
0.0
 70
   128
 71
     5
 72
    -6
 73
    -1
  0
VERTEX
  5
1385
  8
0
 10
0.0
 20
0.0
 30
0.0
 70
   128
 71
     4
 72
    -5
 73
    -1
  0
VERTEX
  5
1386
  8
0
 10
0.0
 20
0.0
 30
0.0
 70
   128
 71
     3
 72
    -4
 73
    -1
  0
VERTEX
  5
1387
  8
0
 10
0.0
 20
0.0
 30
0.0
 70
   128
 71
     2
 72
    -3
 73
     1
  0
SEQEND
  5
1A99
  8
0
  0
POLYLINE
  5
1388
  8
0
 66
     1
 10
0.0
 20
0.0
 30
0.0
 70
    64
 71
    22
 72
    20
  0
VERTEX
  5
1389
  8
0
 10
9.01561146012877
 20
9.015611460128513
 30
163.3000000000001
 70
   192
  0
VERTEX
  5
138A
  8
0
 10
11.77946403951914
 20
4.879213762654611
 30
163.3000000000001
 70
   192
  0
VERTEX
  5
138B
  8
0
 10
11.17415141875428
 20
11.29527509831538
 30
154.9106332409032
 70
   192
  0
VERTEX
  5
138C
  8
0
 10
15.32019350993662
 20
-0.0000000000005941
 30
157.8632617902448
 70
   192
  0
VERTEX
  5
138D
  8
0
 10
15.8885146426145
 20
-0.0000000000004753
 30
154.9106332409171
 70
   192
  0
VERTEX
  5
138E
  8
0
 10
14.75008768679999
 20
5.905913230606238
 30
154.9106332409085
 70
   192
  0
VERTEX
  5
138F
  8
0
 10
-11.7794640395192
 20
4.879213762654611
 30
163.3000000000001
 70
   192
  0
VERTEX
  5
1390
  8
0
 10
-9.015611460128838
 20
9.015611460128511
 30
163.3000000000001
 70
   192
  0
VERTEX
  5
1391
  8
0
 10
-14.750087665975
 20
5.905913230606177
 30
154.9106332409084
 70
   192
  0
VERTEX
  5
1392
  8
0
 10
0.000000581290504
 20
15.88851464261396
 30
154.9106332409006
 70
   192
  0
VERTEX
  5
1393
  8
0
 10
-5.791373594505633
 20
14.79543464141389
 30
154.9106332409008
 70
   192
  0
VERTEX
  5
1394
  8
0
 10
-0.000000000000033
 20
12.75000000000035
 30
163.3000000000002
 70
   192
  0
VERTEX
  5
1395
  8
0
 10
5.791374148620224
 20
14.79543464141388
 30
154.9106332409011
 70
   192
  0
VERTEX
  5
1396
  8
0
 10
4.87921376265507
 20
11.77946403951917
 30
163.3000000000001
 70
   192
  0
VERTEX
  5
1397
  8
0
 10
12.74999999998718
 20
-0.0000000000006106
 30
163.2999999999911
 70
   192
  0
VERTEX
  5
1398
  8
0
 10
14.25919242175479
 20
-0.0000000000006138
 30
160.6993572921291
 70
   192
  0
VERTEX
  5
1399
  8
0
 10
-11.1741512462766
 20
11.29527509831537
 30
154.910633240903
 70
   192
  0
VERTEX
  5
139A
  8
0
 10
-4.87921376265514
 20
11.77946403951917
 30
163.3000000000001
 70
   192
  0
VERTEX
  5
139B
  8
0
 10
-15.8885146426145
 20
-0.0000000000006176
 30
154.9106332409171
 70
   192
  0
VERTEX
  5
139C
  8
0
 10
-15.32019350993661
 20
-0.0000000000003479
 30
157.8632617902449
 70
   192
  0
VERTEX
  5
139D
  8
0
 10
-14.25919242175479
 20
-0.0000000000003353
 30
160.6993572921291
 70
   192
  0
VERTEX
  5
139E
  8
0
 10
-12.7499999999872
 20
-0.0000000000005308
 30
163.2999999999911
 70
   192
  0
VERTEX
  5
139F
  8
0
 10
0.0
 20
0.0
 30
0.0
 70
   128
 71
     1
 72
     2
 73
     3
  0
VERTEX
  5
13A0
  8
0
 10
0.0
 20
0.0
 30
0.0
 70
   128
 71
     4
 72
     5
 73
     6
  0
VERTEX
  5
13A1
  8
0
 10
0.0
 20
0.0
 30
0.0
 70
   128
 71
     7
 72
     8
 73
     9
  0
VERTEX
  5
13A2
  8
0
 10
0.0
 20
0.0
 30
0.0
 70
   128
 71
    10
 72
    11
 73
    12
  0
VERTEX
  5
13A3
  8
0
 10
0.0
 20
0.0
 30
0.0
 70
   128
 71
    13
 72
    14
 73
     1
  0
VERTEX
  5
13A4
  8
0
 10
0.0
 20
0.0
 30
0.0
 70
   128
 71
     3
 72
    13
 73
     1
  0
VERTEX
  5
13A5
  8
0
 10
0.0
 20
0.0
 30
0.0
 70
   128
 71
     2
 72
    15
 73
    16
  0
VERTEX
  5
13A6
  8
0
 10
0.0
 20
0.0
 30
0.0
 70
   128
 71
     6
 72
     3
 73
     2
  0
VERTEX
  5
13A7
  8
0
 10
0.0
 20
0.0
 30
0.0
 70
   128
 71
     4
 72
     6
 73
     2
  0
VERTEX
  5
13A8
  8
0
 10
0.0
 20
0.0
 30
0.0
 70
   128
 71
    16
 72
     4
 73
     2
  0
VERTEX
  5
13A9
  8
0
 10
0.0
 20
0.0
 30
0.0
 70
   128
 71
    13
 72
    10
 73
    12
  0
VERTEX
  5
13AA
  8
0
 10
0.0
 20
0.0
 30
0.0
 70
   128
 71
    14
 72
    13
 73
    12
  0
VERTEX
  5
13AB
  8
0
 10
0.0
 20
0.0
 30
0.0
 70
   128
 71
    17
 72
     9
 73
     8
  0
VERTEX
  5
13AC
  8
0
 10
0.0
 20
0.0
 30
0.0
 70
   128
 71
    18
 72
    17
 73
     8
  0
VERTEX
  5
13AD
  8
0
 10
0.0
 20
0.0
 30
0.0
 70
   128
 71
    17
 72
    18
 73
    12
  0
VERTEX
  5
13AE
  8
0
 10
0.0
 20
0.0
 30
0.0
 70
   128
 71
    11
 72
    17
 73
    12
  0
VERTEX
  5
13AF
  8
0
 10
0.0
 20
0.0
 30
0.0
 70
   128
 71
     9
 72
    19
 73
    20
  0
VERTEX
  5
13B0
  8
0
 10
0.0
 20
0.0
 30
0.0
 70
   128
 71
    20
 72
    21
 73
     9
  0
VERTEX
  5
13B1
  8
0
 10
0.0
 20
0.0
 30
0.0
 70
   128
 71
     9
 72
    21
 73
    22
  0
VERTEX
  5
13B2
  8
0
 10
0.0
 20
0.0
 30
0.0
 70
   128
 71
     7
 72
     9
 73
    22
  0
SEQEND
  5
1A9A
  8
0
  0
POLYLINE
  5
13B3
  8
0
 66
     1
 10
0.0
 20
0.0
 30
0.0
 70
    64
 71
    22
 72
    20
  0
VERTEX
  5
13B4
  8
0
 10
-11.77946403951914
 20
-4.879213762655739
 30
163.3000000000001
 70
   192
  0
VERTEX
  5
13B5
  8
0
 10
-14.7500876763874
 20
-5.905913230607499
 30
154.9106332409085
 70
   192
  0
VERTEX
  5
13B6
  8
0
 10
-11.17415133251519
 20
-11.29527509831658
 30
154.9106332409031
 70
   192
  0
VERTEX
  5
13B7
  8
0
 10
-9.01561146012878
 20
-9.01561146012962
 30
163.3000000000001
 70
   192
  0
VERTEX
  5
13B8
  8
0
 10
-15.32019350993661
 20
-0.0000000000003479
 30
157.8632617902449
 70
   192
  0
VERTEX
  5
13B9
  8
0
 10
-15.8885146426145
 20
-0.0000000000006176
 30
154.9106332409171
 70
   192
  0
VERTEX
  5
13BA
  8
0
 10
0.0000000000000656
 20
-15.88851464261504
 30
154.9106332409004
 70
   192
  0
VERTEX
  5
13BB
  8
0
 10
0.0000000000000137
 20
-12.75000000000145
 30
163.3
 70
   192
  0
VERTEX
  5
13BC
  8
0
 10
-5.79137387156265
 20
-14.79543464141496
 30
154.9106332409009
 70
   192
  0
VERTEX
  5
13BD
  8
0
 10
5.791373871562908
 20
-14.79543464141507
 30
154.9106332409008
 70
   192
  0
VERTEX
  5
13BE
  8
0
 10
11.17415133251542
 20
-11.29527509831659
 30
154.9106332409029
 70
   192
  0
VERTEX
  5
13BF
  8
0
 10
4.87921376265511
 20
-11.77946403952027
 30
163.3000000000001
 70
   192
  0
VERTEX
  5
13C0
  8
0
 10
14.7500876763875
 20
-5.905913230607362
 30
154.9106332409083
 70
   192
  0
VERTEX
  5
13C1
  8
0
 10
15.8885146426145
 20
-0.0000000000004753
 30
154.9106332409171
 70
   192
  0
VERTEX
  5
13C2
  8
0
 10
15.32019350993662
 20
-0.0000000000005941
 30
157.8632617902448
 70
   192
  0
VERTEX
  5
13C3
  8
0
 10
14.25919242175479
 20
-0.0000000000006138
 30
160.6993572921291
 70
   192
  0
VERTEX
  5
13C4
  8
0
 10
9.015611460128811
 20
-9.015611460129618
 30
163.3000000000001
 70
   192
  0
VERTEX
  5
13C5
  8
0
 10
11.77946403951918
 20
-4.879213762655739
 30
163.3000000000001
 70
   192
  0
VERTEX
  5
13C6
  8
0
 10
-4.87921376265508
 20
-11.77946403952027
 30
163.3000000000001
 70
   192
  0
VERTEX
  5
13C7
  8
0
 10
-12.7499999999872
 20
-0.0000000000005308
 30
163.2999999999911
 70
   192
  0
VERTEX
  5
13C8
  8
0
 10
-14.25919242175479
 20
-0.0000000000003353
 30
160.6993572921291
 70
   192
  0
VERTEX
  5
13C9
  8
0
 10
12.74999999998718
 20
-0.0000000000006106
 30
163.2999999999911
 70
   192
  0
VERTEX
  5
13CA
  8
0
 10
0.0
 20
0.0
 30
0.0
 70
   128
 71
     1
 72
     2
 73
     3
  0
VERTEX
  5
13CB
  8
0
 10
0.0
 20
0.0
 30
0.0
 70
   128
 71
     4
 72
     1
 73
     3
  0
VERTEX
  5
13CC
  8
0
 10
0.0
 20
0.0
 30
0.0
 70
   128
 71
     5
 72
     6
 73
     2
  0
VERTEX
  5
13CD
  8
0
 10
0.0
 20
0.0
 30
0.0
 70
   128
 71
     7
 72
     8
 73
     9
  0
VERTEX
  5
13CE
  8
0
 10
0.0
 20
0.0
 30
0.0
 70
   128
 71
    10
 72
    11
 73
    12
  0
VERTEX
  5
13CF
  8
0
 10
0.0
 20
0.0
 30
0.0
 70
   128
 71
    13
 72
    14
 73
    15
  0
VERTEX
  5
13D0
  8
0
 10
0.0
 20
0.0
 30
0.0
 70
   128
 71
    15
 72
    16
 73
    13
  0
VERTEX
  5
13D1
  8
0
 10
0.0
 20
0.0
 30
0.0
 70
   128
 71
    17
 72
    11
 73
    13
  0
VERTEX
  5
13D2
  8
0
 10
0.0
 20
0.0
 30
0.0
 70
   128
 71
    18
 72
    17
 73
    13
  0
VERTEX
  5
13D3
  8
0
 10
0.0
 20
0.0
 30
0.0
 70
   128
 71
     9
 72
    19
 73
     4
  0
VERTEX
  5
13D4
  8
0
 10
0.0
 20
0.0
 30
0.0
 70
   128
 71
     3
 72
     9
 73
     4
  0
VERTEX
  5
13D5
  8
0
 10
0.0
 20
0.0
 30
0.0
 70
   128
 71
     1
 72
    20
 73
    21
  0
VERTEX
  5
13D6
  8
0
 10
0.0
 20
0.0
 30
0.0
 70
   128
 71
     5
 72
     2
 73
     1
  0
VERTEX
  5
13D7
  8
0
 10
0.0
 20
0.0
 30
0.0
 70
   128
 71
    21
 72
     5
 73
     1
  0
VERTEX
  5
13D8
  8
0
 10
0.0
 20
0.0
 30
0.0
 70
   128
 71
    19
 72
     9
 73
     8
  0
VERTEX
  5
13D9
  8
0
 10
0.0
 20
0.0
 30
0.0
 70
   128
 71
    12
 72
    11
 73
    17
  0
VERTEX
  5
13DA
  8
0
 10
0.0
 20
0.0
 30
0.0
 70
   128
 71
    10
 72
    12
 73
     8
  0
VERTEX
  5
13DB
  8
0
 10
0.0
 20
0.0
 30
0.0
 70
   128
 71
     7
 72
    10
 73
     8
  0
VERTEX
  5
13DC
  8
0
 10
0.0
 20
0.0
 30
0.0
 70
   128
 71
    13
 72
    16
 73
    22
  0
VERTEX
  5
13DD
  8
0
 10
0.0
 20
0.0
 30
0.0
 70
   128
 71
    18
 72
    13
 73
    22
  0
SEQEND
  5
1A9B
  8
0
  0
ENDBLK
  5
1A98
  8
0
  0
BLOCK
  8
0
  2
*X4
 70
     1
 10
0.0
 20
0.0
 30
0.0
  3
*X4
  1

  0
POLYLINE
  5
13DF
  8
0
 66
     1
 10
0.0
 20
0.0
 30
0.0
 70
    64
 71
    19
 72
    17
  0
VERTEX
  5
13E0
  8
0
 10
139.8194462028139
 20
-4.523974031012995
 30
133.5271833123793
 70
   192
  0
VERTEX
  5
13E1
  8
0
 10
137.4934487853475
 20
-0.000000000000497
 30
141.9191113015434
 70
   192
  0
VERTEX
  5
13E2
  8
0
 10
141.0464731115858
 20
-8.6620580695357
 30
142.4184563060709
 70
   192
  0
VERTEX
  5
13E3
  8
0
 10
142.3204934887858
 20
-8.380337425965857
 30
133.87868258558
 70
   192
  0
VERTEX
  5
13E4
  8
0
 10
138.9426328206965
 20
-0.0000000001673175
 30
133.4039552277783
 70
   192
  0
VERTEX
  5
13E5
  8
0
 10
137.8645950043787
 20
-0.0000000000004897
 30
141.0745928655897
 70
   192
  0
VERTEX
  5
13E6
  8
0
 10
145.6683604823046
 20
-11.00000000001016
 30
137.3120030516887
 70
   192
  0
VERTEX
  5
13E7
  8
0
 10
149.6242326274316
 20
-12.2500000000005
 30
143.6239817883045
 70
   192
  0
VERTEX
  5
13E8
  8
0
 10
148.7424972555779
 20
-11.89241025335171
 30
138.3748711356352
 70
   192
  0
VERTEX
  5
13E9
  8
0
 10
151.9183599131833
 20
-11.89245730358341
 30
138.8212427832701
 70
   192
  0
VERTEX
  5
13EA
  8
0
 10
158.2019921432776
 20
-8.662058069535723
 30
144.8295072705382
 70
   192
  0
VERTEX
  5
13EB
  8
0
 10
155.1666781235015
 20
-11.0000000000038
 30
138.6469045412163
 70
   192
  0
VERTEX
  5
13EC
  8
0
 10
161.7550164695159
 20
-0.000000000000521
 30
145.3288522750657
 70
   192
  0
VERTEX
  5
13ED
  8
0
 10
161.5770360027987
 20
-0.0000000000005042
 30
144.798924965475
 70
   192
  0
VERTEX
  5
13EE
  8
0
 10
162.7090664704898
 20
-0.0000000000004761
 30
136.7441096508511
 70
   192
  0
VERTEX
  5
13EF
  8
0
 10
161.8320959606225
 20
-4.523902179585785
 30
136.6208594834237
 70
   192
  0
VERTEX
  5
13F0
  8
0
 10
159.3310777831765
 20
-8.380220692187041
 30
136.2693643011533
 70
   192
  0
VERTEX
  5
13F1
  8
0
 10
146.076690825005
 20
-11.00000000000509
 30
134.4065816945192
 70
   192
  0
VERTEX
  5
13F2
  8
0
 10
155.5750084661945
 20
-10.99999999999069
 30
135.7414831841101
 70
   192
  0
VERTEX
  5
13F3
  8
0
 10
0.0
 20
0.0
 30
0.0
 70
   128
 71
     1
 72
     2
 73
     3
  0
VERTEX
  5
13F4
  8
0
 10
0.0
 20
0.0
 30
0.0
 70
   128
 71
     4
 72
     1
 73
     3
  0
VERTEX
  5
13F5
  8
0
 10
0.0
 20
0.0
 30
0.0
 70
   128
 71
     1
 72
     5
 73
     6
  0
VERTEX
  5
13F6
  8
0
 10
0.0
 20
0.0
 30
0.0
 70
   128
 71
     6
 72
     2
 73
     1
  0
VERTEX
  5
13F7
  8
0
 10
0.0
 20
0.0
 30
0.0
 70
   128
 71
     7
 72
     3
 73
     8
  0
VERTEX
  5
13F8
  8
0
 10
0.0
 20
0.0
 30
0.0
 70
   128
 71
     9
 72
     7
 73
     8
  0
VERTEX
  5
13F9
  8
0
 10
0.0
 20
0.0
 30
0.0
 70
   128
 71
    10
 72
     8
 73
    11
  0
VERTEX
  5
13FA
  8
0
 10
0.0
 20
0.0
 30
0.0
 70
   128
 71
    12
 72
    10
 73
    11
  0
VERTEX
  5
13FB
  8
0
 10
0.0
 20
0.0
 30
0.0
 70
   128
 71
    11
 72
    13
 73
    14
  0
VERTEX
  5
13FC
  8
0
 10
0.0
 20
0.0
 30
0.0
 70
   128
 71
    14
 72
    15
 73
    16
  0
VERTEX
  5
13FD
  8
0
 10
0.0
 20
0.0
 30
0.0
 70
   128
 71
    17
 72
    11
 73
    14
  0
VERTEX
  5
13FE
  8
0
 10
0.0
 20
0.0
 30
0.0
 70
   128
 71
    16
 72
    17
 73
    14
  0
VERTEX
  5
13FF
  8
0
 10
0.0
 20
0.0
 30
0.0
 70
   128
 71
     7
 72
    18
 73
     4
  0
VERTEX
  5
1400
  8
0
 10
0.0
 20
0.0
 30
0.0
 70
   128
 71
     3
 72
     7
 73
     4
  0
VERTEX
  5
1401
  8
0
 10
0.0
 20
0.0
 30
0.0
 70
   128
 71
    17
 72
    19
 73
    12
  0
VERTEX
  5
1402
  8
0
 10
0.0
 20
0.0
 30
0.0
 70
   128
 71
    11
 72
    17
 73
    12
  0
VERTEX
  5
1403
  8
0
 10
0.0
 20
0.0
 30
0.0
 70
   128
 71
     8
 72
    10
 73
     9
  0
SEQEND
  5
1A9E
  8
0
  0
POLYLINE
  5
1404
  8
0
 66
     1
 10
0.0
 20
0.0
 30
0.0
 70
    64
 71
    21
 72
    19
  0
VERTEX
  5
1405
  8
0
 10
150.9463770864895
 20
-10.49999999998643
 30
134.2164351352231
 70
   192
  0
VERTEX
  5
1406
  8
0
 10
150.9062010957426
 20
-11.00000220384413
 30
134.5023021632982
 70
   192
  0
VERTEX
  5
1407
  8
0
 10
152.4640558307723
 20
-11.00000004082893
 30
134.7873532195684
 70
   192
  0
VERTEX
  5
1408
  8
0
 10
154.0090527929971
 20
-11.00000000000047
 30
135.1993608860718
 70
   192
  0
VERTEX
  5
1409
  8
0
 10
156.1449626576481
 20
-9.093532047653826
 30
134.9470486906412
 70
   192
  0
VERTEX
  5
140A
  8
0
 10
155.5750084661945
 20
-10.99999999999069
 30
135.7414831841101
 70
   192
  0
VERTEX
  5
140B
  8
0
 10
159.9514232459078
 20
-5.249686733694486
 30
135.4820118389771
 70
   192
  0
VERTEX
  5
140C
  8
0
 10
161.8320959606225
 20
-4.523902179585785
 30
136.6208594834237
 70
   192
  0
VERTEX
  5
140D
  8
0
 10
162.709066470468
 20
0.0000000000829475
 30
136.7441096508481
 70
   192
  0
VERTEX
  5
140E
  8
0
 10
161.3441918082665
 20
0.0000000000860423
 30
135.6777526953191
 70
   192
  0
VERTEX
  5
140F
  8
0
 10
161.8320959605669
 20
4.523902179722642
 30
136.6208594834159
 70
   192
  0
VERTEX
  5
1410
  8
0
 10
159.3310777831245
 20
8.380220692239835
 30
136.2693643011461
 70
   192
  0
VERTEX
  5
1411
  8
0
 10
159.9514115053871
 20
5.249675047816512
 30
135.4820101889546
 70
   192
  0
VERTEX
  5
1412
  8
0
 10
152.463660376037
 20
10.99999999999952
 30
134.78726160898
 70
   192
  0
VERTEX
  5
1413
  8
0
 10
150.9061988056078
 20
11.00000110294202
 30
134.50230376835
 70
   192
  0
VERTEX
  5
1414
  8
0
 10
150.906201095696
 20
11.00000220442338
 30
134.50230216363
 70
   192
  0
VERTEX
  5
1415
  8
0
 10
156.1449742297701
 20
9.09354390358266
 30
134.947050316997
 70
   192
  0
VERTEX
  5
1416
  8
0
 10
154.0087302799494
 20
10.99999999999917
 30
135.1992453614651
 70
   192
  0
VERTEX
  5
1417
  8
0
 10
150.9463770864789
 20
10.49999999997146
 30
134.2164351352462
 70
   192
  0
VERTEX
  5
1418
  8
0
 10
159.3310777831765
 20
-8.380220692187041
 30
136.2693643011533
 70
   192
  0
VERTEX
  5
1419
  8
0
 10
155.575008466194
 20
10.99999999998994
 30
135.7414831841101
 70
   192
  0
VERTEX
  5
141A
  8
0
 10
0.0
 20
0.0
 30
0.0
 70
   128
 71
     1
 72
     2
 73
     3
  0
VERTEX
  5
141B
  8
0
 10
0.0
 20
0.0
 30
0.0
 70
   128
 71
     4
 72
     5
 73
     1
  0
VERTEX
  5
141C
  8
0
 10
0.0
 20
0.0
 30
0.0
 70
   128
 71
     3
 72
     4
 73
     1
  0
VERTEX
  5
141D
  8
0
 10
0.0
 20
0.0
 30
0.0
 70
   128
 71
     4
 72
     6
 73
     5
  0
VERTEX
  5
141E
  8
0
 10
0.0
 20
0.0
 30
0.0
 70
   128
 71
     7
 72
     8
 73
     9
  0
VERTEX
  5
141F
  8
0
 10
0.0
 20
0.0
 30
0.0
 70
   128
 71
    10
 72
     7
 73
     9
  0
VERTEX
  5
1420
  8
0
 10
0.0
 20
0.0
 30
0.0
 70
   128
 71
    11
 72
    12
 73
    13
  0
VERTEX
  5
1421
  8
0
 10
0.0
 20
0.0
 30
0.0
 70
   128
 71
    14
 72
    15
 73
    16
  0
VERTEX
  5
1422
  8
0
 10
0.0
 20
0.0
 30
0.0
 70
   128
 71
    17
 72
    18
 73
    14
  0
VERTEX
  5
1423
  8
0
 10
0.0
 20
0.0
 30
0.0
 70
   128
 71
    19
 72
    17
 73
    14
  0
VERTEX
  5
1424
  8
0
 10
0.0
 20
0.0
 30
0.0
 70
   128
 71
    14
 72
    16
 73
    19
  0
VERTEX
  5
1425
  8
0
 10
0.0
 20
0.0
 30
0.0
 70
   128
 71
    13
 72
    10
 73
     9
  0
VERTEX
  5
1426
  8
0
 10
0.0
 20
0.0
 30
0.0
 70
   128
 71
    11
 72
    13
 73
     9
  0
VERTEX
  5
1427
  8
0
 10
0.0
 20
0.0
 30
0.0
 70
   128
 71
     5
 72
     6
 73
    20
  0
VERTEX
  5
1428
  8
0
 10
0.0
 20
0.0
 30
0.0
 70
   128
 71
     7
 72
     5
 73
    20
  0
VERTEX
  5
1429
  8
0
 10
0.0
 20
0.0
 30
0.0
 70
   128
 71
    20
 72
     8
 73
     7
  0
VERTEX
  5
142A
  8
0
 10
0.0
 20
0.0
 30
0.0
 70
   128
 71
    21
 72
    18
 73
    12
  0
VERTEX
  5
142B
  8
0
 10
0.0
 20
0.0
 30
0.0
 70
   128
 71
    17
 72
    13
 73
    12
  0
VERTEX
  5
142C
  8
0
 10
0.0
 20
0.0
 30
0.0
 70
   128
 71
    18
 72
    17
 73
    12
  0
SEQEND
  5
1A9F
  8
0
  0
POLYLINE
  5
142D
  8
0
 66
     1
 10
0.0
 20
0.0
 30
0.0
 70
    64
 71
    16
 72
    14
  0
VERTEX
  5
142E
  8
0
 10
141.0464731115858
 20
-8.6620580695357
 30
142.4184563060709
 70
   192
  0
VERTEX
  5
142F
  8
0
 10
137.4934487853475
 20
-0.000000000000497
 30
141.9191113015434
 70
   192
  0
VERTEX
  5
1430
  8
0
 10
137.7228646949029
 20
-0.0000000000004913
 30
140.2867322848602
 70
   192
  0
VERTEX
  5
1431
  8
0
 10
138.6995396600235
 20
-4.77900057961391
 30
140.3118667698767
 70
   192
  0
VERTEX
  5
1432
  8
0
 10
149.6242326274316
 20
-12.2500000000005
 30
143.6239817883045
 70
   192
  0
VERTEX
  5
1433
  8
0
 10
145.7902458674036
 20
-11.49586847013275
 30
140.4980091908831
 70
   192
  0
VERTEX
  5
1434
  8
0
 10
148.7256905283116
 20
-12.18022277600247
 30
140.6360795451961
 70
   192
  0
VERTEX
  5
1435
  8
0
 10
141.5259374394419
 20
-8.849864340039959
 30
140.3862541843008
 70
   192
  0
VERTEX
  5
1436
  8
0
 10
158.2019921432776
 20
-8.662058069535723
 30
144.8295072705382
 70
   192
  0
VERTEX
  5
1437
  8
0
 10
151.6997874955196
 20
-12.13826466159364
 30
140.7169916720949
 70
   192
  0
VERTEX
  5
1438
  8
0
 10
154.77291134083
 20
-11.31401417449599
 30
140.7332299008331
 70
   192
  0
VERTEX
  5
1439
  8
0
 10
161.8246030199929
 20
-0.0000000000005087
 30
144.8337182407163
 70
   192
  0
VERTEX
  5
143A
  8
0
 10
161.7550164695159
 20
-0.000000000000521
 30
145.3288522750657
 70
   192
  0
VERTEX
  5
143B
  8
0
 10
161.4566890525222
 20
-4.634201602812894
 30
140.9085847296645
 70
   192
  0
VERTEX
  5
143C
  8
0
 10
162.372919776644
 20
-0.0000000000004927
 30
140.9322417920163
 70
   192
  0
VERTEX
  5
143D
  8
0
 10
158.7998734802402
 20
-8.625233901061144
 30
140.8387304942458
 70
   192
  0
VERTEX
  5
143E
  8
0
 10
0.0
 20
0.0
 30
0.0
 70
   128
 71
     1
 72
     2
 73
     3
  0
VERTEX
  5
143F
  8
0
 10
0.0
 20
0.0
 30
0.0
 70
   128
 71
     1
 72
     3
 73
     4
  0
VERTEX
  5
1440
  8
0
 10
0.0
 20
0.0
 30
0.0
 70
   128
 71
     5
 72
     6
 73
     7
  0
VERTEX
  5
1441
  8
0
 10
0.0
 20
0.0
 30
0.0
 70
   128
 71
     8
 72
     6
 73
     5
  0
VERTEX
  5
1442
  8
0
 10
0.0
 20
0.0
 30
0.0
 70
   128
 71
     8
 72
     5
 73
     1
  0
VERTEX
  5
1443
  8
0
 10
0.0
 20
0.0
 30
0.0
 70
   128
 71
     9
 72
     5
 73
    10
  0
VERTEX
  5
1444
  8
0
 10
0.0
 20
0.0
 30
0.0
 70
   128
 71
     9
 72
    10
 73
    11
  0
VERTEX
  5
1445
  8
0
 10
0.0
 20
0.0
 30
0.0
 70
   128
 71
    12
 72
    13
 73
     9
  0
VERTEX
  5
1446
  8
0
 10
0.0
 20
0.0
 30
0.0
 70
   128
 71
    14
 72
    15
 73
    12
  0
VERTEX
  5
1447
  8
0
 10
0.0
 20
0.0
 30
0.0
 70
   128
 71
    12
 72
     9
 73
    16
  0
VERTEX
  5
1448
  8
0
 10
0.0
 20
0.0
 30
0.0
 70
   128
 71
    12
 72
    16
 73
    14
  0
VERTEX
  5
1449
  8
0
 10
0.0
 20
0.0
 30
0.0
 70
   128
 71
     4
 72
     8
 73
     1
  0
VERTEX
  5
144A
  8
0
 10
0.0
 20
0.0
 30
0.0
 70
   128
 71
     7
 72
    10
 73
     5
  0
VERTEX
  5
144B
  8
0
 10
0.0
 20
0.0
 30
0.0
 70
   128
 71
    11
 72
    16
 73
     9
  0
SEQEND
  5
1AA0
  8
0
  0
POLYLINE
  5
144C
  8
0
 66
     1
 10
0.0
 20
0.0
 30
0.0
 70
    64
 71
     8
 72
     6
  0
VERTEX
  5
144D
  8
0
 10
-12.74999999864515
 20
17.24999999999998
 30
5.000000000000154
 70
   192
  0
VERTEX
  5
144E
  8
0
 10
12.74999998075559
 20
17.24999999999998
 30
5.000000000000154
 70
   192
  0
VERTEX
  5
144F
  8
0
 10
12.74999997987202
 20
17.24999999999954
 30
131.2871231713001
 70
   192
  0
VERTEX
  5
1450
  8
0
 10
13.28584004246052
 20
17.24999999999953
 30
134.598545273746
 70
   192
  0
VERTEX
  5
1451
  8
0
 10
14.83866977915561
 20
17.24999999999952
 30
137.5719878409577
 70
   192
  0
VERTEX
  5
1452
  8
0
 10
17.250000000172
 20
17.24999999999951
 30
139.903967141227
 70
   192
  0
VERTEX
  5
1453
  8
0
 10
17.25000000085451
 20
17.24999999999946
 30
154.7000000000001
 70
   192
  0
VERTEX
  5
1454
  8
0
 10
-12.74999999776
 20
17.24999999999946
 30
154.7000000000001
 70
   192
  0
VERTEX
  5
1455
  8
0
 10
0.0
 20
0.0
 30
0.0
 70
   128
 71
     1
 72
     2
 73
    -3
  0
VERTEX
  5
1456
  8
0
 10
0.0
 20
0.0
 30
0.0
 70
   128
 71
     8
 72
    -1
 73
    -3
  0
VERTEX
  5
1457
  8
0
 10
0.0
 20
0.0
 30
0.0
 70
   128
 71
     3
 72
    -4
 73
    -8
  0
VERTEX
  5
1458
  8
0
 10
0.0
 20
0.0
 30
0.0
 70
   128
 71
    -5
 72
     7
 73
    -8
  0
VERTEX
  5
1459
  8
0
 10
0.0
 20
0.0
 30
0.0
 70
   128
 71
     4
 72
    -5
 73
    -8
  0
VERTEX
  5
145A
  8
0
 10
0.0
 20
0.0
 30
0.0
 70
   128
 71
     5
 72
     6
 73
    -7
  0
SEQEND
  5
1AA1
  8
0
  0
POLYLINE
  5
145B
  8
0
 66
     1
 10
0.0
 20
0.0
 30
0.0
 70
    64
 71
     8
 72
     6
  0
VERTEX
  5
145C
  8
0
 10
-12.7500000000581
 20
-17.25
 30
5.000000000000028
 70
   192
  0
VERTEX
  5
145D
  8
0
 10
12.74999998002761
 20
-17.25
 30
5.000000000000028
 70
   192
  0
VERTEX
  5
145E
  8
0
 10
12.74999999999999
 20
-17.25000000000045
 30
131.287123173
 70
   192
  0
VERTEX
  5
145F
  8
0
 10
13.28584004288284
 20
-17.25000000000047
 30
134.5985452750167
 70
   192
  0
VERTEX
  5
1460
  8
0
 10
14.83866977974116
 20
-17.25000000000048
 30
137.5719878417413
 70
   192
  0
VERTEX
  5
1461
  8
0
 10
17.25000000021877
 20
-17.25000000000025
 30
139.9039671415523
 70
   192
  0
VERTEX
  5
1462
  8
0
 10
17.25000000023072
 20
-17.25000000000053
 30
154.7
 70
   192
  0
VERTEX
  5
1463
  8
0
 10
-12.74999999888001
 20
-17.25000000000053
 30
154.7
 70
   192
  0
VERTEX
  5
1464
  8
0
 10
0.0
 20
0.0
 30
0.0
 70
   128
 71
     3
 72
     2
 73
    -1
  0
VERTEX
  5
1465
  8
0
 10
0.0
 20
0.0
 30
0.0
 70
   128
 71
    -3
 72
     1
 73
    -8
  0
VERTEX
  5
1466
  8
0
 10
0.0
 20
0.0
 30
0.0
 70
   128
 71
    -8
 72
     4
 73
    -3
  0
VERTEX
  5
1467
  8
0
 10
0.0
 20
0.0
 30
0.0
 70
   128
 71
     8
 72
    -7
 73
    -5
  0
VERTEX
  5
1468
  8
0
 10
0.0
 20
0.0
 30
0.0
 70
   128
 71
    -8
 72
     5
 73
    -4
  0
VERTEX
  5
1469
  8
0
 10
0.0
 20
0.0
 30
0.0
 70
   128
 71
     7
 72
     6
 73
    -5
  0
SEQEND
  5
1AA2
  8
0
  0
POLYLINE
  5
146A
  8
0
 66
     1
 10
0.0
 20
0.0
 30
0.0
 70
    64
 71
    12
 72
    10
  0
VERTEX
  5
146B
  8
0
 10
-17.14225413608327
 20
12.7499999999952
 30
155.0997478661171
 70
   192
  0
VERTEX
  5
146C
  8
0
 10
-17.25
 20
12.74999999988446
 30
154.7000000000001
 70
   192
  0
VERTEX
  5
146D
  8
0
 10
-16.64693012568927
 20
14.99988038791437
 30
154.7000000000001
 70
   192
  0
VERTEX
  5
146E
  8
0
 10
-14.99988038617427
 20
16.64693012669368
 30
154.7000000000002
 70
   192
  0
VERTEX
  5
146F
  8
0
 10
-16.45
 20
12.74999999999946
 30
155.5000000000001
 70
   192
  0
VERTEX
  5
1470
  8
0
 10
-16.84974786611694
 20
12.74999999999946
 30
155.3922541360834
 70
   192
  0
VERTEX
  5
1471
  8
0
 10
-15.95414254803327
 20
14.59990165186236
 30
155.5000000000001
 70
   192
  0
VERTEX
  5
1472
  8
0
 10
-12.74999999776
 20
17.24999999999946
 30
154.7000000000001
 70
   192
  0
VERTEX
  5
1473
  8
0
 10
-12.74999999991704
 20
17.1422541360827
 30
155.0997478661172
 70
   192
  0
VERTEX
  5
1474
  8
0
 10
-12.75000000000002
 20
16.84974786611631
 30
155.3922541360835
 70
   192
  0
VERTEX
  5
1475
  8
0
 10
-12.7500000000004
 20
16.44999999999946
 30
155.5000000000001
 70
   192
  0
VERTEX
  5
1476
  8
0
 10
-14.59990165186396
 20
15.95414254803213
 30
155.5000000000002
 70
   192
  0
VERTEX
  5
1477
  8
0
 10
0.0
 20
0.0
 30
0.0
 70
   128
 71
     1
 72
     2
 73
     3
  0
VERTEX
  5
1478
  8
0
 10
0.0
 20
0.0
 30
0.0
 70
   128
 71
     3
 72
     4
 73
     1
  0
VERTEX
  5
1479
  8
0
 10
0.0
 20
0.0
 30
0.0
 70
   128
 71
     5
 72
     6
 73
     7
  0
VERTEX
  5
147A
  8
0
 10
0.0
 20
0.0
 30
0.0
 70
   128
 71
     1
 72
     4
 73
     8
  0
VERTEX
  5
147B
  8
0
 10
0.0
 20
0.0
 30
0.0
 70
   128
 71
     9
 72
     1
 73
     8
  0
VERTEX
  5
147C
  8
0
 10
0.0
 20
0.0
 30
0.0
 70
   128
 71
     6
 72
     1
 73
    -9
  0
VERTEX
  5
147D
  8
0
 10
0.0
 20
0.0
 30
0.0
 70
   128
 71
    10
 72
    -6
 73
     9
  0
VERTEX
  5
147E
  8
0
 10
0.0
 20
0.0
 30
0.0
 70
   128
 71
    10
 72
    11
 73
    12
  0
VERTEX
  5
147F
  8
0
 10
0.0
 20
0.0
 30
0.0
 70
   128
 71
     7
 72
     6
 73
   -10
  0
VERTEX
  5
1480
  8
0
 10
0.0
 20
0.0
 30
0.0
 70
   128
 71
    12
 72
    -7
 73
    10
  0
SEQEND
  5
1AA3
  8
0
  0
POLYLINE
  5
1481
  8
0
 66
     1
 10
0.0
 20
0.0
 30
0.0
 70
    64
 71
     8
 72
     6
  0
VERTEX
  5
1482
  8
0
 10
-17.14225413608327
 20
12.7499999999952
 30
155.0997478661171
 70
   192
  0
VERTEX
  5
1483
  8
0
 10
-16.84974786611694
 20
12.74999999999946
 30
155.3922541360834
 70
   192
  0
VERTEX
  5
1484
  8
0
 10
-16.84974786611694
 20
-12.75000000000055
 30
155.3922541360834
 70
   192
  0
VERTEX
  5
1485
  8
0
 10
-17.14225413608327
 20
-12.74999999999184
 30
155.0997478661171
 70
   192
  0
VERTEX
  5
1486
  8
0
 10
-16.45
 20
12.74999999999946
 30
155.5000000000001
 70
   192
  0
VERTEX
  5
1487
  8
0
 10
-16.45
 20
-12.75000000000054
 30
155.5
 70
   192
  0
VERTEX
  5
1488
  8
0
 10
-17.25
 20
12.74999999988446
 30
154.7000000000001
 70
   192
  0
VERTEX
  5
1489
  8
0
 10
-17.25
 20
-12.74999999976554
 30
154.7
 70
   192
  0
VERTEX
  5
148A
  8
0
 10
0.0
 20
0.0
 30
0.0
 70
   128
 71
     1
 72
     2
 73
    -3
  0
VERTEX
  5
148B
  8
0
 10
0.0
 20
0.0
 30
0.0
 70
   128
 71
     4
 72
    -1
 73
     3
  0
VERTEX
  5
148C
  8
0
 10
0.0
 20
0.0
 30
0.0
 70
   128
 71
     2
 72
     5
 73
    -6
  0
VERTEX
  5
148D
  8
0
 10
0.0
 20
0.0
 30
0.0
 70
   128
 71
     3
 72
    -2
 73
     6
  0
VERTEX
  5
148E
  8
0
 10
0.0
 20
0.0
 30
0.0
 70
   128
 71
     7
 72
     1
 73
    -4
  0
VERTEX
  5
148F
  8
0
 10
0.0
 20
0.0
 30
0.0
 70
   128
 71
     8
 72
    -7
 73
     4
  0
SEQEND
  5
1AA4
  8
0
  0
POLYLINE
  5
1490
  8
0
 66
     1
 10
0.0
 20
0.0
 30
0.0
 70
    64
 71
    12
 72
    10
  0
VERTEX
  5
1491
  8
0
 10
-17.14225413608327
 20
-12.74999999999184
 30
155.0997478661171
 70
   192
  0
VERTEX
  5
1492
  8
0
 10
-16.84974786611694
 20
-12.75000000000055
 30
155.3922541360834
 70
   192
  0
VERTEX
  5
1493
  8
0
 10
-12.74999999995851
 20
-17.1422541360838
 30
155.099747866117
 70
   192
  0
VERTEX
  5
1494
  8
0
 10
-16.45
 20
-12.75000000000054
 30
155.5
 70
   192
  0
VERTEX
  5
1495
  8
0
 10
-15.95414254803307
 20
-14.59990165186379
 30
155.5
 70
   192
  0
VERTEX
  5
1496
  8
0
 10
-14.59990165186326
 20
-15.95414254803361
 30
155.5000000000001
 70
   192
  0
VERTEX
  5
1497
  8
0
 10
-17.25
 20
-12.74999999976554
 30
154.7
 70
   192
  0
VERTEX
  5
1498
  8
0
 10
-16.646930125956
 20
-14.99988038745365
 30
154.7
 70
   192
  0
VERTEX
  5
1499
  8
0
 10
-12.75
 20
-16.45000000000054
 30
155.5
 70
   192
  0
VERTEX
  5
149A
  8
0
 10
-12.75
 20
-16.84974786611748
 30
155.3922541360833
 70
   192
  0
VERTEX
  5
149B
  8
0
 10
-12.74999999888
 20
-17.25000000000053
 30
154.7
 70
   192
  0
VERTEX
  5
149C
  8
0
 10
-14.99988038689022
 20
-16.64693012628153
 30
154.6999999999999
 70
   192
  0
VERTEX
  5
149D
  8
0
 10
0.0
 20
0.0
 30
0.0
 70
   128
 71
     1
 72
    -2
 73
     3
  0
VERTEX
  5
149E
  8
0
 10
0.0
 20
0.0
 30
0.0
 70
   128
 71
     2
 72
     4
 73
     5
  0
VERTEX
  5
149F
  8
0
 10
0.0
 20
0.0
 30
0.0
 70
   128
 71
     5
 72
    -6
 73
     2
  0
VERTEX
  5
14A0
  8
0
 10
0.0
 20
0.0
 30
0.0
 70
   128
 71
     7
 72
     1
 73
     8
  0
VERTEX
  5
14A1
  8
0
 10
0.0
 20
0.0
 30
0.0
 70
   128
 71
     6
 72
     9
 73
    10
  0
VERTEX
  5
14A2
  8
0
 10
0.0
 20
0.0
 30
0.0
 70
   128
 71
    -2
 72
     6
 73
    10
  0
VERTEX
  5
14A3
  8
0
 10
0.0
 20
0.0
 30
0.0
 70
   128
 71
     2
 72
    10
 73
    -3
  0
VERTEX
  5
14A4
  8
0
 10
0.0
 20
0.0
 30
0.0
 70
   128
 71
     3
 72
    11
 73
    12
  0
VERTEX
  5
14A5
  8
0
 10
0.0
 20
0.0
 30
0.0
 70
   128
 71
     8
 72
     1
 73
    -3
  0
VERTEX
  5
14A6
  8
0
 10
0.0
 20
0.0
 30
0.0
 70
   128
 71
    12
 72
    -8
 73
     3
  0
SEQEND
  5
1AA5
  8
0
  0
POLYLINE
  5
14A7
  8
0
 66
     1
 10
0.0
 20
0.0
 30
0.0
 70
    64
 71
     8
 72
     6
  0
VERTEX
  5
14A8
  8
0
 10
17.24999999999104
 20
16.84974786611676
 30
155.392254136084
 70
   192
  0
VERTEX
  5
14A9
  8
0
 10
17.2500000000008
 20
16.44999999999946
 30
155.5000000000001
 70
   192
  0
VERTEX
  5
14AA
  8
0
 10
-12.7500000000004
 20
16.44999999999946
 30
155.5000000000001
 70
   192
  0
VERTEX
  5
14AB
  8
0
 10
-12.75000000000002
 20
16.84974786611631
 30
155.3922541360835
 70
   192
  0
VERTEX
  5
14AC
  8
0
 10
17.25000000001306
 20
17.14225413608372
 30
155.0997478661176
 70
   192
  0
VERTEX
  5
14AD
  8
0
 10
-12.74999999991704
 20
17.1422541360827
 30
155.0997478661172
 70
   192
  0
VERTEX
  5
14AE
  8
0
 10
17.25000000059531
 20
17.24999999999946
 30
154.7000000000001
 70
   192
  0
VERTEX
  5
14AF
  8
0
 10
-12.74999999776
 20
17.24999999999946
 30
154.7000000000001
 70
   192
  0
VERTEX
  5
14B0
  8
0
 10
0.0
 20
0.0
 30
0.0
 70
   128
 71
     1
 72
     2
 73
    -3
  0
VERTEX
  5
14B1
  8
0
 10
0.0
 20
0.0
 30
0.0
 70
   128
 71
     4
 72
    -1
 73
     3
  0
VERTEX
  5
14B2
  8
0
 10
0.0
 20
0.0
 30
0.0
 70
   128
 71
     5
 72
     1
 73
    -4
  0
VERTEX
  5
14B3
  8
0
 10
0.0
 20
0.0
 30
0.0
 70
   128
 71
     6
 72
    -5
 73
     4
  0
VERTEX
  5
14B4
  8
0
 10
0.0
 20
0.0
 30
0.0
 70
   128
 71
     7
 72
     5
 73
    -6
  0
VERTEX
  5
14B5
  8
0
 10
0.0
 20
0.0
 30
0.0
 70
   128
 71
     8
 72
    -7
 73
     6
  0
SEQEND
  5
1AA6
  8
0
  0
POLYLINE
  5
14B6
  8
0
 66
     1
 10
0.0
 20
0.0
 30
0.0
 70
    64
 71
    12
 72
    10
  0
VERTEX
  5
14B7
  8
0
 10
164.5983541642701
 20
15.49228797158373
 30
155.0997478661155
 70
   192
  0
VERTEX
  5
14B8
  8
0
 10
164.600766876449
 20
15.60000681863981
 30
154.7000000000001
 70
   192
  0
VERTEX
  5
14B9
  8
0
 10
166.8078143331143
 20
14.96405235735807
 30
154.7000000000002
 70
   192
  0
VERTEX
  5
14BA
  8
0
 10
168.4136266207398
 20
13.32186992201873
 30
154.7000000000001
 70
   192
  0
VERTEX
  5
14BB
  8
0
 10
168.8922541360833
 20
11.10113517815474
 30
155.0997478661171
 70
   192
  0
VERTEX
  5
14BC
  8
0
 10
169.0
 20
11.10113517543196
 30
154.7000000000001
 70
   192
  0
VERTEX
  5
14BD
  8
0
 10
168.5997478661169
 20
11.10113517825945
 30
155.3922541360834
 70
   192
  0
VERTEX
  5
14BE
  8
0
 10
164.5918041768377
 20
15.19985504656839
 30
155.3922541360816
 70
   192
  0
VERTEX
  5
14BF
  8
0
 10
168.2
 20
11.10113517825942
 30
155.5000000000001
 70
   192
  0
VERTEX
  5
14C0
  8
0
 10
167.7178707765155
 20
12.92707263518762
 30
155.5000000000001
 70
   192
  0
VERTEX
  5
14C1
  8
0
 10
166.3975362302395
 20
14.2773115250472
 30
155.5000000000001
 70
   192
  0
VERTEX
  5
14C2
  8
0
 10
164.582852766891
 20
14.80020741586696
 30
155.5000000000001
 70
   192
  0
VERTEX
  5
14C3
  8
0
 10
0.0
 20
0.0
 30
0.0
 70
   128
 71
     1
 72
     2
 73
     3
  0
VERTEX
  5
14C4
  8
0
 10
0.0
 20
0.0
 30
0.0
 70
   128
 71
     4
 72
     5
 73
    -1
  0
VERTEX
  5
14C5
  8
0
 10
0.0
 20
0.0
 30
0.0
 70
   128
 71
     3
 72
    -4
 73
     1
  0
VERTEX
  5
14C6
  8
0
 10
0.0
 20
0.0
 30
0.0
 70
   128
 71
     4
 72
     6
 73
     5
  0
VERTEX
  5
14C7
  8
0
 10
0.0
 20
0.0
 30
0.0
 70
   128
 71
     5
 72
     7
 73
    -8
  0
VERTEX
  5
14C8
  8
0
 10
0.0
 20
0.0
 30
0.0
 70
   128
 71
     1
 72
    -5
 73
     8
  0
VERTEX
  5
14C9
  8
0
 10
0.0
 20
0.0
 30
0.0
 70
   128
 71
     7
 72
     9
 73
    10
  0
VERTEX
  5
14CA
  8
0
 10
0.0
 20
0.0
 30
0.0
 70
   128
 71
    10
 72
   -11
 73
     7
  0
VERTEX
  5
14CB
  8
0
 10
0.0
 20
0.0
 30
0.0
 70
   128
 71
     8
 72
    -7
 73
    11
  0
VERTEX
  5
14CC
  8
0
 10
0.0
 20
0.0
 30
0.0
 70
   128
 71
    12
 72
     8
 73
    11
  0
SEQEND
  5
1AA7
  8
0
  0
POLYLINE
  5
14CD
  8
0
 66
     1
 10
0.0
 20
0.0
 30
0.0
 70
    64
 71
    12
 72
    10
  0
VERTEX
  5
14CE
  8
0
 10
167.7178707765118
 20
-12.92707263519516
 30
155.5000000000001
 70
   192
  0
VERTEX
  5
14CF
  8
0
 10
168.2
 20
-11.10113517826054
 30
155.5000000000001
 70
   192
  0
VERTEX
  5
14D0
  8
0
 10
168.5997478661169
 20
-11.10113517826054
 30
155.3922541360834
 70
   192
  0
VERTEX
  5
14D1
  8
0
 10
164.591804176838
 20
-15.19985504657442
 30
155.3922541360822
 70
   192
  0
VERTEX
  5
14D2
  8
0
 10
164.582852766892
 20
-14.8002074158688
 30
155.5
 70
   192
  0
VERTEX
  5
14D3
  8
0
 10
166.3975362302268
 20
-14.27731152505585
 30
155.5000000000001
 70
   192
  0
VERTEX
  5
14D4
  8
0
 10
168.8922541360833
 20
-11.10113517813274
 30
155.0997478661171
 70
   192
  0
VERTEX
  5
14D5
  8
0
 10
164.5983541643201
 20
-15.49228797158929
 30
155.0997478661159
 70
   192
  0
VERTEX
  5
14D6
  8
0
 10
169.0
 20
-11.10113517481008
 30
154.7
 70
   192
  0
VERTEX
  5
14D7
  8
0
 10
168.4136266219081
 20
-13.32186991996139
 30
154.7000000000001
 70
   192
  0
VERTEX
  5
14D8
  8
0
 10
166.8078143356759
 20
-14.96405235582903
 30
154.7
 70
   192
  0
VERTEX
  5
14D9
  8
0
 10
164.60076687779
 20
-15.60000681861144
 30
154.7
 70
   192
  0
VERTEX
  5
14DA
  8
0
 10
0.0
 20
0.0
 30
0.0
 70
   128
 71
     1
 72
     2
 73
     3
  0
VERTEX
  5
14DB
  8
0
 10
0.0
 20
0.0
 30
0.0
 70
   128
 71
     4
 72
     5
 73
     6
  0
VERTEX
  5
14DC
  8
0
 10
0.0
 20
0.0
 30
0.0
 70
   128
 71
     1
 72
     3
 73
    -4
  0
VERTEX
  5
14DD
  8
0
 10
0.0
 20
0.0
 30
0.0
 70
   128
 71
     6
 72
    -1
 73
     4
  0
VERTEX
  5
14DE
  8
0
 10
0.0
 20
0.0
 30
0.0
 70
   128
 71
     4
 72
     3
 73
    -7
  0
VERTEX
  5
14DF
  8
0
 10
0.0
 20
0.0
 30
0.0
 70
   128
 71
     8
 72
    -4
 73
     7
  0
VERTEX
  5
14E0
  8
0
 10
0.0
 20
0.0
 30
0.0
 70
   128
 71
     7
 72
     9
 73
    10
  0
VERTEX
  5
14E1
  8
0
 10
0.0
 20
0.0
 30
0.0
 70
   128
 71
    10
 72
   -11
 73
     7
  0
VERTEX
  5
14E2
  8
0
 10
0.0
 20
0.0
 30
0.0
 70
   128
 71
     8
 72
    -7
 73
    11
  0
VERTEX
  5
14E3
  8
0
 10
0.0
 20
0.0
 30
0.0
 70
   128
 71
    12
 72
     8
 73
    11
  0
SEQEND
  5
1AA8
  8
0
  0
POLYLINE
  5
14E4
  8
0
 66
     1
 10
0.0
 20
0.0
 30
0.0
 70
    64
 71
    22
 72
    20
  0
VERTEX
  5
14E5
  8
0
 10
168.2
 20
-11.10113517826054
 30
155.5000000000001
 70
   192
  0
VERTEX
  5
14E6
  8
0
 10
168.2
 20
11.10113517825942
 30
155.5000000000001
 70
   192
  0
VERTEX
  5
14E7
  8
0
 10
167.7178707765155
 20
12.92707263518762
 30
155.5000000000001
 70
   192
  0
VERTEX
  5
14E8
  8
0
 10
166.3975362302395
 20
14.2773115250472
 30
155.5000000000001
 70
   192
  0
VERTEX
  5
14E9
  8
0
 10
164.582852766891
 20
14.80020741586696
 30
155.5000000000001
 70
   192
  0
VERTEX
  5
14EA
  8
0
 10
115.4760071605007
 20
15.71675885149727
 30
155.5000000000001
 70
   192
  0
VERTEX
  5
14EB
  8
0
 10
66.36505623820534
 20
16.26668971287474
 30
155.5000000000002
 70
   192
  0
VERTEX
  5
14EC
  8
0
 10
17.2500000000008
 20
16.44999999999946
 30
155.5000000000001
 70
   192
  0
VERTEX
  5
14ED
  8
0
 10
-12.7500000000004
 20
16.44999999999946
 30
155.5000000000001
 70
   192
  0
VERTEX
  5
14EE
  8
0
 10
-14.59990165186396
 20
15.95414254803213
 30
155.5000000000002
 70
   192
  0
VERTEX
  5
14EF
  8
0
 10
-15.95414254803327
 20
14.59990165186236
 30
155.5000000000001
 70
   192
  0
VERTEX
  5
14F0
  8
0
 10
-16.45
 20
12.74999999999946
 30
155.5000000000001
 70
   192
  0
VERTEX
  5
14F1
  8
0
 10
-16.45
 20
-12.75000000000054
 30
155.5
 70
   192
  0
VERTEX
  5
14F2
  8
0
 10
-15.95414254803307
 20
-14.59990165186379
 30
155.5
 70
   192
  0
VERTEX
  5
14F3
  8
0
 10
-14.59990165186326
 20
-15.95414254803361
 30
155.5000000000001
 70
   192
  0
VERTEX
  5
14F4
  8
0
 10
-12.75
 20
-16.45000000000054
 30
155.5
 70
   192
  0
VERTEX
  5
14F5
  8
0
 10
17.2500000000843
 20
-16.45000000000079
 30
155.5
 70
   192
  0
VERTEX
  5
14F6
  8
0
 10
66.36505623826254
 20
-16.26668971287527
 30
155.5
 70
   192
  0
VERTEX
  5
14F7
  8
0
 10
115.4760071605242
 20
-15.71675885149787
 30
155.5000000000001
 70
   192
  0
VERTEX
  5
14F8
  8
0
 10
164.582852766892
 20
-14.8002074158688
 30
155.5
 70
   192
  0
VERTEX
  5
14F9
  8
0
 10
166.3975362302268
 20
-14.27731152505585
 30
155.5000000000001
 70
   192
  0
VERTEX
  5
14FA
  8
0
 10
167.7178707765118
 20
-12.92707263519516
 30
155.5000000000001
 70
   192
  0
VERTEX
  5
14FB
  8
0
 10
0.0
 20
0.0
 30
0.0
 70
   128
 71
    17
 72
    16
 73
   -15
  0
VERTEX
  5
14FC
  8
0
 10
0.0
 20
0.0
 30
0.0
 70
   128
 71
   -17
 72
    15
 73
   -14
  0
VERTEX
  5
14FD
  8
0
 10
0.0
 20
0.0
 30
0.0
 70
   128
 71
   -17
 72
    14
 73
   -13
  0
VERTEX
  5
14FE
  8
0
 10
0.0
 20
0.0
 30
0.0
 70
   128
 71
   -17
 72
    13
 73
   -12
  0
VERTEX
  5
14FF
  8
0
 10
0.0
 20
0.0
 30
0.0
 70
   128
 71
   -17
 72
    12
 73
   -11
  0
VERTEX
  5
1500
  8
0
 10
0.0
 20
0.0
 30
0.0
 70
   128
 71
   -17
 72
    11
 73
   -10
  0
VERTEX
  5
1501
  8
0
 10
0.0
 20
0.0
 30
0.0
 70
   128
 71
   -17
 72
    10
 73
    -9
  0
VERTEX
  5
1502
  8
0
 10
0.0
 20
0.0
 30
0.0
 70
   128
 71
   -17
 72
     9
 73
    -8
  0
VERTEX
  5
1503
  8
0
 10
0.0
 20
0.0
 30
0.0
 70
   128
 71
     8
 72
    -7
 73
   -18
  0
VERTEX
  5
1504
  8
0
 10
0.0
 20
0.0
 30
0.0
 70
   128
 71
    -8
 72
    18
 73
   -17
  0
VERTEX
  5
1505
  8
0
 10
0.0
 20
0.0
 30
0.0
 70
   128
 71
     7
 72
    -6
 73
   -19
  0
VERTEX
  5
1506
  8
0
 10
0.0
 20
0.0
 30
0.0
 70
   128
 71
    -7
 72
    19
 73
   -18
  0
VERTEX
  5
1507
  8
0
 10
0.0
 20
0.0
 30
0.0
 70
   128
 71
     6
 72
     5
 73
    -4
  0
VERTEX
  5
1508
  8
0
 10
0.0
 20
0.0
 30
0.0
 70
   128
 71
    -6
 72
     4
 73
    -3
  0
VERTEX
  5
1509
  8
0
 10
0.0
 20
0.0
 30
0.0
 70
   128
 71
    -6
 72
     3
 73
    -2
  0
VERTEX
  5
150A
  8
0
 10
0.0
 20
0.0
 30
0.0
 70
   128
 71
    -6
 72
     2
 73
    -1
  0
VERTEX
  5
150B
  8
0
 10
0.0
 20
0.0
 30
0.0
 70
   128
 71
    -6
 72
     1
 73
   -22
  0
VERTEX
  5
150C
  8
0
 10
0.0
 20
0.0
 30
0.0
 70
   128
 71
    -6
 72
    22
 73
   -21
  0
VERTEX
  5
150D
  8
0
 10
0.0
 20
0.0
 30
0.0
 70
   128
 71
    -6
 72
    21
 73
   -20
  0
VERTEX
  5
150E
  8
0
 10
0.0
 20
0.0
 30
0.0
 70
   128
 71
    -6
 72
    20
 73
   -19
  0
SEQEND
  5
1AA9
  8
0
  0
POLYLINE
  5
150F
  8
0
 66
     1
 10
0.0
 20
0.0
 30
0.0
 70
    64
 71
     8
 72
     6
  0
VERTEX
  5
1510
  8
0
 10
17.25000000000855
 20
-17.14225413608369
 30
155.0997478661172
 70
   192
  0
VERTEX
  5
1511
  8
0
 10
-12.74999999995851
 20
-17.1422541360838
 30
155.099747866117
 70
   192
  0
VERTEX
  5
1512
  8
0
 10
-12.75
 20
-16.84974786611748
 30
155.3922541360833
 70
   192
  0
VERTEX
  5
1513
  8
0
 10
17.25000000000313
 20
-16.8497478661171
 30
155.3922541360836
 70
   192
  0
VERTEX
  5
1514
  8
0
 10
-12.75
 20
-16.45000000000054
 30
155.5
 70
   192
  0
VERTEX
  5
1515
  8
0
 10
17.2500000000843
 20
-16.45000000000079
 30
155.5
 70
   192
  0
VERTEX
  5
1516
  8
0
 10
-12.74999999888
 20
-17.25000000000053
 30
154.7
 70
   192
  0
VERTEX
  5
1517
  8
0
 10
17.25000000023072
 20
-17.25000000000064
 30
154.7
 70
   192
  0
VERTEX
  5
1518
  8
0
 10
0.0
 20
0.0
 30
0.0
 70
   128
 71
     1
 72
     2
 73
    -3
  0
VERTEX
  5
1519
  8
0
 10
0.0
 20
0.0
 30
0.0
 70
   128
 71
     4
 72
     3
 73
    -5
  0
VERTEX
  5
151A
  8
0
 10
0.0
 20
0.0
 30
0.0
 70
   128
 71
    -4
 72
     5
 73
     6
  0
VERTEX
  5
151B
  8
0
 10
0.0
 20
0.0
 30
0.0
 70
   128
 71
    -1
 72
     3
 73
     4
  0
VERTEX
  5
151C
  8
0
 10
0.0
 20
0.0
 30
0.0
 70
   128
 71
     7
 72
     2
 73
    -1
  0
VERTEX
  5
151D
  8
0
 10
0.0
 20
0.0
 30
0.0
 70
   128
 71
     8
 72
    -7
 73
     1
  0
SEQEND
  5
1AAA
  8
0
  0
POLYLINE
  5
151E
  8
0
 66
     1
 10
0.0
 20
0.0
 30
0.0
 70
    64
 71
    13
 72
    11
  0
VERTEX
  5
151F
  8
0
 10
17.25000000062503
 20
17.25000000000015
 30
139.9039671405764
 70
   192
  0
VERTEX
  5
1520
  8
0
 10
17.250000000172
 20
17.24999999999951
 30
139.903967141227
 70
   192
  0
VERTEX
  5
1521
  8
0
 10
14.83866977915561
 20
17.24999999999952
 30
137.5719878409577
 70
   192
  0
VERTEX
  5
1522
  8
0
 10
14.99858174709262
 20
16.64392951536187
 30
131.2871231713001
 70
   192
  0
VERTEX
  5
1523
  8
0
 10
16.64392951552224
 20
14.99858174681525
 30
131.2871231713002
 70
   192
  0
VERTEX
  5
1524
  8
0
 10
18.53564593600258
 20
16.64693012563431
 30
138.0575987359419
 70
   192
  0
VERTEX
  5
1525
  8
0
 10
19.47681721494668
 20
14.99988038709645
 30
136.7059443926881
 70
   192
  0
VERTEX
  5
1526
  8
0
 10
17.25
 20
12.74999999999954
 30
131.2871231713002
 70
   192
  0
VERTEX
  5
1527
  8
0
 10
17.5568324360517
 20
12.74999999999954
 30
133.1791968721008
 70
   192
  0
VERTEX
  5
1528
  8
0
 10
18.44402769144158
 20
12.74999999942879
 30
134.8780464467087
 70
   192
  0
VERTEX
  5
1529
  8
0
 10
19.8214285715964
 20
12.74999998458952
 30
136.2110340113331
 70
   192
  0
VERTEX
  5
152A
  8
0
 10
13.28584004246052
 20
17.24999999999953
 30
134.598545273746
 70
   192
  0
VERTEX
  5
152B
  8
0
 10
12.74999999999999
 20
17.24999999999954
 30
131.2871231713001
 70
   192
  0
VERTEX
  5
152C
  8
0
 10
0.0
 20
0.0
 30
0.0
 70
   128
 71
     1
 72
     2
 73
     3
  0
VERTEX
  5
152D
  8
0
 10
0.0
 20
0.0
 30
0.0
 70
   128
 71
     4
 72
     5
 73
     6
  0
VERTEX
  5
152E
  8
0
 10
0.0
 20
0.0
 30
0.0
 70
   128
 71
     5
 72
     7
 73
     6
  0
VERTEX
  5
152F
  8
0
 10
0.0
 20
0.0
 30
0.0
 70
   128
 71
     5
 72
     8
 73
     9
  0
VERTEX
  5
1530
  8
0
 10
0.0
 20
0.0
 30
0.0
 70
   128
 71
     9
 72
    10
 73
     5
  0
VERTEX
  5
1531
  8
0
 10
0.0
 20
0.0
 30
0.0
 70
   128
 71
     5
 72
    10
 73
    11
  0
VERTEX
  5
1532
  8
0
 10
0.0
 20
0.0
 30
0.0
 70
   128
 71
     7
 72
     5
 73
    11
  0
VERTEX
  5
1533
  8
0
 10
0.0
 20
0.0
 30
0.0
 70
   128
 71
     6
 72
     1
 73
     3
  0
VERTEX
  5
1534
  8
0
 10
0.0
 20
0.0
 30
0.0
 70
   128
 71
    12
 72
     4
 73
     6
  0
VERTEX
  5
1535
  8
0
 10
0.0
 20
0.0
 30
0.0
 70
   128
 71
     3
 72
    12
 73
     6
  0
VERTEX
  5
1536
  8
0
 10
0.0
 20
0.0
 30
0.0
 70
   128
 71
    12
 72
    13
 73
     4
  0
SEQEND
  5
1AAB
  8
0
  0
POLYLINE
  5
1537
  8
0
 66
     1
 10
0.0
 20
0.0
 30
0.0
 70
    64
 71
    12
 72
    10
  0
VERTEX
  5
1538
  8
0
 10
17.25000000001306
 20
17.14225413608372
 30
155.0997478661176
 70
   192
  0
VERTEX
  5
1539
  8
0
 10
164.5983541642701
 20
15.49228797158373
 30
155.0997478661155
 70
   192
  0
VERTEX
  5
153A
  8
0
 10
164.5918041768377
 20
15.19985504656839
 30
155.3922541360816
 70
   192
  0
VERTEX
  5
153B
  8
0
 10
17.24999999999104
 20
16.84974786611676
 30
155.392254136084
 70
   192
  0
VERTEX
  5
153C
  8
0
 10
17.25000000059531
 20
17.24999999999934
 30
154.7000000000001
 70
   192
  0
VERTEX
  5
153D
  8
0
 10
66.3705717683418
 20
17.06665720821985
 30
154.7000000000002
 70
   192
  0
VERTEX
  5
153E
  8
0
 10
115.4884063948932
 20
16.51664926503014
 30
154.7000000000001
 70
   192
  0
VERTEX
  5
153F
  8
0
 10
164.600766876449
 20
15.60000681863981
 30
154.7000000000001
 70
   192
  0
VERTEX
  5
1540
  8
0
 10
164.582852766891
 20
14.80020741586696
 30
155.5000000000001
 70
   192
  0
VERTEX
  5
1541
  8
0
 10
115.4760071605007
 20
15.71675885149727
 30
155.5000000000001
 70
   192
  0
VERTEX
  5
1542
  8
0
 10
66.36505623820534
 20
16.26668971287474
 30
155.5000000000002
 70
   192
  0
VERTEX
  5
1543
  8
0
 10
17.2500000000008
 20
16.44999999999946
 30
155.5000000000001
 70
   192
  0
VERTEX
  5
1544
  8
0
 10
0.0
 20
0.0
 30
0.0
 70
   128
 71
     1
 72
     2
 73
    -3
  0
VERTEX
  5
1545
  8
0
 10
0.0
 20
0.0
 30
0.0
 70
   128
 71
     4
 72
    -1
 73
     3
  0
VERTEX
  5
1546
  8
0
 10
0.0
 20
0.0
 30
0.0
 70
   128
 71
     1
 72
     5
 73
     6
  0
VERTEX
  5
1547
  8
0
 10
0.0
 20
0.0
 30
0.0
 70
   128
 71
     1
 72
     6
 73
    -7
  0
VERTEX
  5
1548
  8
0
 10
0.0
 20
0.0
 30
0.0
 70
   128
 71
     2
 72
    -1
 73
     7
  0
VERTEX
  5
1549
  8
0
 10
0.0
 20
0.0
 30
0.0
 70
   128
 71
     7
 72
     8
 73
     2
  0
VERTEX
  5
154A
  8
0
 10
0.0
 20
0.0
 30
0.0
 70
   128
 71
     3
 72
     9
 73
    10
  0
VERTEX
  5
154B
  8
0
 10
0.0
 20
0.0
 30
0.0
 70
   128
 71
    11
 72
     4
 73
    -3
  0
VERTEX
  5
154C
  8
0
 10
0.0
 20
0.0
 30
0.0
 70
   128
 71
    10
 72
   -11
 73
     3
  0
VERTEX
  5
154D
  8
0
 10
0.0
 20
0.0
 30
0.0
 70
   128
 71
    11
 72
    12
 73
     4
  0
SEQEND
  5
1AAC
  8
0
  0
POLYLINE
  5
154E
  8
0
 66
     1
 10
0.0
 20
0.0
 30
0.0
 70
    64
 71
    12
 72
    10
  0
VERTEX
  5
154F
  8
0
 10
166.8078143341448
 20
14.96405235674271
 30
145.4894839141002
 70
   192
  0
VERTEX
  5
1550
  8
0
 10
168.4136266210362
 20
13.32186992149693
 30
145.4894839141002
 70
   192
  0
VERTEX
  5
1551
  8
0
 10
168.4136266207398
 20
13.32186992201873
 30
154.7000000000001
 70
   192
  0
VERTEX
  5
1552
  8
0
 10
166.8078143331143
 20
14.96405235735807
 30
154.7000000000002
 70
   192
  0
VERTEX
  5
1553
  8
0
 10
169.0
 20
11.10113517543237
 30
145.4894839141001
 70
   192
  0
VERTEX
  5
1554
  8
0
 10
169.0
 20
11.10113517480432
 30
148.5596559427335
 70
   192
  0
VERTEX
  5
1555
  8
0
 10
169.0
 20
11.1011351748041
 30
151.6298279713668
 70
   192
  0
VERTEX
  5
1556
  8
0
 10
169.0
 20
11.10113517543196
 30
154.7000000000001
 70
   192
  0
VERTEX
  5
1557
  8
0
 10
164.600766876449
 20
15.60000681863981
 30
154.7000000000001
 70
   192
  0
VERTEX
  5
1558
  8
0
 10
164.600766876789
 20
15.60000681863162
 30
151.6298279714298
 70
   192
  0
VERTEX
  5
1559
  8
0
 10
164.6007668770766
 20
15.60000681862514
 30
148.5596559428372
 70
   192
  0
VERTEX
  5
155A
  8
0
 10
164.60076687756
 20
15.60000681861479
 30
145.4894839142001
 70
   192
  0
VERTEX
  5
155B
  8
0
 10
0.0
 20
0.0
 30
0.0
 70
   128
 71
     1
 72
     2
 73
    -3
  0
VERTEX
  5
155C
  8
0
 10
0.0
 20
0.0
 30
0.0
 70
   128
 71
     4
 72
    -1
 73
     3
  0
VERTEX
  5
155D
  8
0
 10
0.0
 20
0.0
 30
0.0
 70
   128
 71
     2
 72
     5
 73
    -6
  0
VERTEX
  5
155E
  8
0
 10
0.0
 20
0.0
 30
0.0
 70
   128
 71
    -7
 72
     3
 73
    -2
  0
VERTEX
  5
155F
  8
0
 10
0.0
 20
0.0
 30
0.0
 70
   128
 71
     6
 72
    -7
 73
    -2
  0
VERTEX
  5
1560
  8
0
 10
0.0
 20
0.0
 30
0.0
 70
   128
 71
     7
 72
     8
 73
    -3
  0
VERTEX
  5
1561
  8
0
 10
0.0
 20
0.0
 30
0.0
 70
   128
 71
     4
 72
     9
 73
   -10
  0
VERTEX
  5
1562
  8
0
 10
0.0
 20
0.0
 30
0.0
 70
   128
 71
    10
 72
   -11
 73
    -4
  0
VERTEX
  5
1563
  8
0
 10
0.0
 20
0.0
 30
0.0
 70
   128
 71
    12
 72
     1
 73
    -4
  0
VERTEX
  5
1564
  8
0
 10
0.0
 20
0.0
 30
0.0
 70
   128
 71
    11
 72
   -12
 73
    -4
  0
SEQEND
  5
1AAD
  8
0
  0
POLYLINE
  5
1565
  8
0
 66
     1
 10
0.0
 20
0.0
 30
0.0
 70
    64
 71
    10
 72
     8
  0
VERTEX
  5
1566
  8
0
 10
168.8922541360833
 20
-11.10113517813274
 30
155.0997478661171
 70
   192
  0
VERTEX
  5
1567
  8
0
 10
168.5997478661169
 20
-11.10113517826054
 30
155.3922541360834
 70
   192
  0
VERTEX
  5
1568
  8
0
 10
168.5997478661169
 20
11.10113517825945
 30
155.3922541360834
 70
   192
  0
VERTEX
  5
1569
  8
0
 10
168.8922541360833
 20
11.10113517815474
 30
155.0997478661171
 70
   192
  0
VERTEX
  5
156A
  8
0
 10
168.2
 20
-11.10113517826054
 30
155.5000000000001
 70
   192
  0
VERTEX
  5
156B
  8
0
 10
168.2
 20
11.10113517825942
 30
155.5000000000001
 70
   192
  0
VERTEX
  5
156C
  8
0
 10
169.0
 20
11.10113517543196
 30
154.7000000000001
 70
   192
  0
VERTEX
  5
156D
  8
0
 10
169.0
 20
3.700378392282072
 30
154.7000000000001
 70
   192
  0
VERTEX
  5
156E
  8
0
 10
169.0
 20
-3.700378390908829
 30
154.7000000000001
 70
   192
  0
VERTEX
  5
156F
  8
0
 10
169.0
 20
-11.10113517481008
 30
154.7
 70
   192
  0
VERTEX
  5
1570
  8
0
 10
0.0
 20
0.0
 30
0.0
 70
   128
 71
     1
 72
     2
 73
    -3
  0
VERTEX
  5
1571
  8
0
 10
0.0
 20
0.0
 30
0.0
 70
   128
 71
     4
 72
    -1
 73
     3
  0
VERTEX
  5
1572
  8
0
 10
0.0
 20
0.0
 30
0.0
 70
   128
 71
     2
 72
     5
 73
    -6
  0
VERTEX
  5
1573
  8
0
 10
0.0
 20
0.0
 30
0.0
 70
   128
 71
     3
 72
    -2
 73
     6
  0
VERTEX
  5
1574
  8
0
 10
0.0
 20
0.0
 30
0.0
 70
   128
 71
     4
 72
     7
 73
    -8
  0
VERTEX
  5
1575
  8
0
 10
0.0
 20
0.0
 30
0.0
 70
   128
 71
     8
 72
    -9
 73
    -4
  0
VERTEX
  5
1576
  8
0
 10
0.0
 20
0.0
 30
0.0
 70
   128
 71
    -9
 72
     1
 73
    -4
  0
VERTEX
  5
1577
  8
0
 10
0.0
 20
0.0
 30
0.0
 70
   128
 71
     9
 72
    10
 73
    -1
  0
SEQEND
  5
1AAE
  8
0
  0
POLYLINE
  5
1578
  8
0
 66
     1
 10
0.0
 20
0.0
 30
0.0
 70
    64
 71
    12
 72
    10
  0
VERTEX
  5
1579
  8
0
 10
166.8078143356759
 20
-14.96405235582903
 30
154.7
 70
   192
  0
VERTEX
  5
157A
  8
0
 10
168.4136266219081
 20
-13.32186991996139
 30
154.7000000000001
 70
   192
  0
VERTEX
  5
157B
  8
0
 10
168.4136266219076
 20
-13.32186991996211
 30
145.4894839141
 70
   192
  0
VERTEX
  5
157C
  8
0
 10
166.8078143356756
 20
-14.96405235582922
 30
145.4894839141
 70
   192
  0
VERTEX
  5
157D
  8
0
 10
169.0
 20
-11.10113517481008
 30
154.7
 70
   192
  0
VERTEX
  5
157E
  8
0
 10
169.0
 20
-11.10113517526974
 30
151.6298279713667
 70
   192
  0
VERTEX
  5
157F
  8
0
 10
169.0
 20
-11.10113517527006
 30
148.5596559427334
 70
   192
  0
VERTEX
  5
1580
  8
0
 10
169.0
 20
-11.10113517481083
 30
145.4894839141
 70
   192
  0
VERTEX
  5
1581
  8
0
 10
164.600766876886
 20
-15.60000681863171
 30
145.4894839141
 70
   192
  0
VERTEX
  5
1582
  8
0
 10
164.600766875729
 20
-15.60000681865663
 30
148.5596559427334
 70
   192
  0
VERTEX
  5
1583
  8
0
 10
164.6007668759634
 20
-15.60000681865137
 30
151.6298279713667
 70
   192
  0
VERTEX
  5
1584
  8
0
 10
164.60076687779
 20
-15.60000681861144
 30
154.7
 70
   192
  0
VERTEX
  5
1585
  8
0
 10
0.0
 20
0.0
 30
0.0
 70
   128
 71
     1
 72
     2
 73
    -3
  0
VERTEX
  5
1586
  8
0
 10
0.0
 20
0.0
 30
0.0
 70
   128
 71
     4
 72
    -1
 73
     3
  0
VERTEX
  5
1587
  8
0
 10
0.0
 20
0.0
 30
0.0
 70
   128
 71
     2
 72
     5
 73
    -6
  0
VERTEX
  5
1588
  8
0
 10
0.0
 20
0.0
 30
0.0
 70
   128
 71
    -7
 72
     3
 73
    -2
  0
VERTEX
  5
1589
  8
0
 10
0.0
 20
0.0
 30
0.0
 70
   128
 71
     6
 72
    -7
 73
    -2
  0
VERTEX
  5
158A
  8
0
 10
0.0
 20
0.0
 30
0.0
 70
   128
 71
     7
 72
     8
 73
    -3
  0
VERTEX
  5
158B
  8
0
 10
0.0
 20
0.0
 30
0.0
 70
   128
 71
     4
 72
     9
 73
   -10
  0
VERTEX
  5
158C
  8
0
 10
0.0
 20
0.0
 30
0.0
 70
   128
 71
    10
 72
   -11
 73
    -4
  0
VERTEX
  5
158D
  8
0
 10
0.0
 20
0.0
 30
0.0
 70
   128
 71
    12
 72
     1
 73
    -4
  0
VERTEX
  5
158E
  8
0
 10
0.0
 20
0.0
 30
0.0
 70
   128
 71
    11
 72
   -12
 73
    -4
  0
SEQEND
  5
1AAF
  8
0
  0
POLYLINE
  5
158F
  8
0
 66
     1
 10
0.0
 20
0.0
 30
0.0
 70
    64
 71
    12
 72
    10
  0
VERTEX
  5
1590
  8
0
 10
164.5983541643201
 20
-15.49228797158929
 30
155.0997478661159
 70
   192
  0
VERTEX
  5
1591
  8
0
 10
17.25000000000855
 20
-17.14225413608369
 30
155.0997478661172
 70
   192
  0
VERTEX
  5
1592
  8
0
 10
17.25000000000313
 20
-16.8497478661171
 30
155.3922541360836
 70
   192
  0
VERTEX
  5
1593
  8
0
 10
164.591804176838
 20
-15.19985504657442
 30
155.3922541360822
 70
   192
  0
VERTEX
  5
1594
  8
0
 10
164.60076687779
 20
-15.60000681861144
 30
154.7
 70
   192
  0
VERTEX
  5
1595
  8
0
 10
115.4884063965128
 20
-16.51664926501367
 30
154.7000000000001
 70
   192
  0
VERTEX
  5
1596
  8
0
 10
66.3705717692317
 20
-17.06665720821677
 30
154.7
 70
   192
  0
VERTEX
  5
1597
  8
0
 10
17.25000000023072
 20
-17.25000000000064
 30
154.7
 70
   192
  0
VERTEX
  5
1598
  8
0
 10
17.2500000000843
 20
-16.45000000000079
 30
155.5
 70
   192
  0
VERTEX
  5
1599
  8
0
 10
66.36505623826254
 20
-16.26668971287527
 30
155.5
 70
   192
  0
VERTEX
  5
159A
  8
0
 10
115.4760071605242
 20
-15.71675885149787
 30
155.5000000000001
 70
   192
  0
VERTEX
  5
159B
  8
0
 10
164.582852766892
 20
-14.8002074158688
 30
155.5
 70
   192
  0
VERTEX
  5
159C
  8
0
 10
0.0
 20
0.0
 30
0.0
 70
   128
 71
     1
 72
     2
 73
    -3
  0
VERTEX
  5
159D
  8
0
 10
0.0
 20
0.0
 30
0.0
 70
   128
 71
     4
 72
    -1
 73
     3
  0
VERTEX
  5
159E
  8
0
 10
0.0
 20
0.0
 30
0.0
 70
   128
 71
     1
 72
     5
 73
     6
  0
VERTEX
  5
159F
  8
0
 10
0.0
 20
0.0
 30
0.0
 70
   128
 71
     1
 72
     6
 73
    -7
  0
VERTEX
  5
15A0
  8
0
 10
0.0
 20
0.0
 30
0.0
 70
   128
 71
     2
 72
    -1
 73
     7
  0
VERTEX
  5
15A1
  8
0
 10
0.0
 20
0.0
 30
0.0
 70
   128
 71
     7
 72
     8
 73
     2
  0
VERTEX
  5
15A2
  8
0
 10
0.0
 20
0.0
 30
0.0
 70
   128
 71
     3
 72
     9
 73
    10
  0
VERTEX
  5
15A3
  8
0
 10
0.0
 20
0.0
 30
0.0
 70
   128
 71
    11
 72
     4
 73
    -3
  0
VERTEX
  5
15A4
  8
0
 10
0.0
 20
0.0
 30
0.0
 70
   128
 71
    10
 72
   -11
 73
     3
  0
VERTEX
  5
15A5
  8
0
 10
0.0
 20
0.0
 30
0.0
 70
   128
 71
    11
 72
    12
 73
     4
  0
SEQEND
  5
1AB0
  8
0
  0
POLYLINE
  5
15A6
  8
0
 66
     1
 10
0.0
 20
0.0
 30
0.0
 70
    64
 71
    12
 72
    10
  0
VERTEX
  5
15A7
  8
0
 10
16.64392951554784
 20
-14.99858174677242
 30
131.2871231713
 70
   192
  0
VERTEX
  5
15A8
  8
0
 10
14.99858174718046
 20
-16.64392951531241
 30
131.2871231713
 70
   192
  0
VERTEX
  5
15A9
  8
0
 10
19.47681721545355
 20
-14.99988038741083
 30
136.7059443932616
 70
   192
  0
VERTEX
  5
15AA
  8
0
 10
18.53564593640323
 20
-16.64693012599716
 30
138.0575987369849
 70
   192
  0
VERTEX
  5
15AB
  8
0
 10
12.74999999999999
 20
-17.25000000000045
 30
131.287123173
 70
   192
  0
VERTEX
  5
15AC
  8
0
 10
13.28584004288284
 20
-17.25000000000047
 30
134.5985452750167
 70
   192
  0
VERTEX
  5
15AD
  8
0
 10
14.83866977974116
 20
-17.25000000000048
 30
137.5719878417413
 70
   192
  0
VERTEX
  5
15AE
  8
0
 10
17.25000000067869
 20
-17.25000000000048
 30
139.9039671415797
 70
   192
  0
VERTEX
  5
15AF
  8
0
 10
19.8214285719742
 20
-12.75000292228547
 30
136.2110340115924
 70
   192
  0
VERTEX
  5
15B0
  8
0
 10
18.44402769152444
 20
-12.75000010823325
 30
134.878046446814
 70
   192
  0
VERTEX
  5
15B1
  8
0
 10
17.5568324360714
 20
-12.75000000000046
 30
133.1791968721597
 70
   192
  0
VERTEX
  5
15B2
  8
0
 10
17.25
 20
-12.75000000000046
 30
131.2871231713
 70
   192
  0
VERTEX
  5
15B3
  8
0
 10
0.0
 20
0.0
 30
0.0
 70
   128
 71
     1
 72
     2
 73
     3
  0
VERTEX
  5
15B4
  8
0
 10
0.0
 20
0.0
 30
0.0
 70
   128
 71
     2
 72
     4
 73
     3
  0
VERTEX
  5
15B5
  8
0
 10
0.0
 20
0.0
 30
0.0
 70
   128
 71
     2
 72
     5
 73
     6
  0
VERTEX
  5
15B6
  8
0
 10
0.0
 20
0.0
 30
0.0
 70
   128
 71
     6
 72
     7
 73
     2
  0
VERTEX
  5
15B7
  8
0
 10
0.0
 20
0.0
 30
0.0
 70
   128
 71
     7
 72
     8
 73
     4
  0
VERTEX
  5
15B8
  8
0
 10
0.0
 20
0.0
 30
0.0
 70
   128
 71
     2
 72
     7
 73
     4
  0
VERTEX
  5
15B9
  8
0
 10
0.0
 20
0.0
 30
0.0
 70
   128
 71
     3
 72
     9
 73
    10
  0
VERTEX
  5
15BA
  8
0
 10
0.0
 20
0.0
 30
0.0
 70
   128
 71
    11
 72
     1
 73
     3
  0
VERTEX
  5
15BB
  8
0
 10
0.0
 20
0.0
 30
0.0
 70
   128
 71
    10
 72
    11
 73
     3
  0
VERTEX
  5
15BC
  8
0
 10
0.0
 20
0.0
 30
0.0
 70
   128
 71
    11
 72
    12
 73
     1
  0
SEQEND
  5
1AB1
  8
0
  0
POLYLINE
  5
15BD
  8
0
 66
     1
 10
0.0
 20
0.0
 30
0.0
 70
    64
 71
    14
 72
    12
  0
VERTEX
  5
15BE
  8
0
 10
21.93945651995129
 20
-12.74834559795048
 30
137.1421565013182
 70
   192
  0
VERTEX
  5
15BF
  8
0
 10
23.0929383145093
 20
-12.74751547464048
 30
137.2850671213056
 70
   192
  0
VERTEX
  5
15C0
  8
0
 10
23.0929383119689
 20
12.74750983310952
 30
137.2850671212423
 70
   192
  0
VERTEX
  5
15C1
  8
0
 10
21.9394565181325
 20
12.74833987846619
 30
137.1421565009115
 70
   192
  0
VERTEX
  5
15C2
  8
0
 10
20.83516229154304
 20
12.7491699243936
 30
136.7796179005225
 70
   192
  0
VERTEX
  5
15C3
  8
0
 10
19.8214285715964
 20
12.74999998458952
 30
136.2110340113331
 70
   192
  0
VERTEX
  5
15C4
  8
0
 10
19.8214285719742
 20
-12.75000292228547
 30
136.2110340115924
 70
   192
  0
VERTEX
  5
15C5
  8
0
 10
20.83516229262723
 20
-12.7491756130277
 30
136.7796179009983
 70
   192
  0
VERTEX
  5
15C6
  8
0
 10
17.5568324360517
 20
12.74999999999954
 30
133.1791968721008
 70
   192
  0
VERTEX
  5
15C7
  8
0
 10
17.25
 20
12.74999999999954
 30
131.2871231713002
 70
   192
  0
VERTEX
  5
15C8
  8
0
 10
17.25
 20
-12.75000000000046
 30
131.2871231713
 70
   192
  0
VERTEX
  5
15C9
  8
0
 10
17.5568324360714
 20
-12.75000000000046
 30
133.1791968721597
 70
   192
  0
VERTEX
  5
15CA
  8
0
 10
18.44402769144158
 20
12.74999999942879
 30
134.8780464467087
 70
   192
  0
VERTEX
  5
15CB
  8
0
 10
18.44402769152444
 20
-12.75000010823325
 30
134.878046446814
 70
   192
  0
VERTEX
  5
15CC
  8
0
 10
0.0
 20
0.0
 30
0.0
 70
   128
 71
     1
 72
     2
 73
    -3
  0
VERTEX
  5
15CD
  8
0
 10
0.0
 20
0.0
 30
0.0
 70
   128
 71
    -1
 72
     3
 73
     4
  0
VERTEX
  5
15CE
  8
0
 10
0.0
 20
0.0
 30
0.0
 70
   128
 71
     5
 72
     6
 73
    -7
  0
VERTEX
  5
15CF
  8
0
 10
0.0
 20
0.0
 30
0.0
 70
   128
 71
    -5
 72
     7
 73
     8
  0
VERTEX
  5
15D0
  8
0
 10
0.0
 20
0.0
 30
0.0
 70
   128
 71
     9
 72
    10
 73
   -11
  0
VERTEX
  5
15D1
  8
0
 10
0.0
 20
0.0
 30
0.0
 70
   128
 71
    -9
 72
    11
 73
    12
  0
VERTEX
  5
15D2
  8
0
 10
0.0
 20
0.0
 30
0.0
 70
   128
 71
    13
 72
     9
 73
   -12
  0
VERTEX
  5
15D3
  8
0
 10
0.0
 20
0.0
 30
0.0
 70
   128
 71
     1
 72
     4
 73
    -5
  0
VERTEX
  5
15D4
  8
0
 10
0.0
 20
0.0
 30
0.0
 70
   128
 71
    -1
 72
     5
 73
     8
  0
VERTEX
  5
15D5
  8
0
 10
0.0
 20
0.0
 30
0.0
 70
   128
 71
     6
 72
    13
 73
   -14
  0
VERTEX
  5
15D6
  8
0
 10
0.0
 20
0.0
 30
0.0
 70
   128
 71
     7
 72
    -6
 73
    14
  0
VERTEX
  5
15D7
  8
0
 10
0.0
 20
0.0
 30
0.0
 70
   128
 71
    14
 72
   -13
 73
    12
  0
SEQEND
  5
1AB2
  8
0
  0
POLYLINE
  5
15D8
  8
0
 66
     1
 10
0.0
 20
0.0
 30
0.0
 70
    64
 71
    12
 72
    10
  0
VERTEX
  5
15D9
  8
0
 10
22.97905990146061
 20
17.2475060387295
 30
141.7835250839001
 70
   192
  0
VERTEX
  5
15DA
  8
0
 10
23.03616594962454
 20
16.67264384708742
 30
139.5836199363331
 70
   192
  0
VERTEX
  5
15DB
  8
0
 10
23.07980610920841
 20
14.94816826341279
 30
137.8597337139351
 70
   192
  0
VERTEX
  5
15DC
  8
0
 10
23.0929383119689
 20
12.74750983310952
 30
137.2850671212423
 70
   192
  0
VERTEX
  5
15DD
  8
0
 10
21.9394565181325
 20
12.74833987846619
 30
137.1421565009115
 70
   192
  0
VERTEX
  5
15DE
  8
0
 10
20.83516229154304
 20
12.7491699243936
 30
136.7796179005225
 70
   192
  0
VERTEX
  5
15DF
  8
0
 10
19.8214285715964
 20
12.74999998458952
 30
136.2110340113331
 70
   192
  0
VERTEX
  5
15E0
  8
0
 10
19.47681721494668
 20
14.99988038709645
 30
136.7059443926881
 70
   192
  0
VERTEX
  5
15E1
  8
0
 10
18.53564593600258
 20
16.64693012563431
 30
138.0575987359419
 70
   192
  0
VERTEX
  5
15E2
  8
0
 10
17.25000000062503
 20
17.25000000000015
 30
139.9039671405764
 70
   192
  0
VERTEX
  5
15E3
  8
0
 10
18.96767880144435
 20
17.24976168307231
 30
140.8722111114122
 70
   192
  0
VERTEX
  5
15E4
  8
0
 10
21.02311252122914
 20
17.24890355500199
 30
141.5463933008263
 70
   192
  0
VERTEX
  5
15E5
  8
0
 10
0.0
 20
0.0
 30
0.0
 70
   128
 71
     8
 72
     7
 73
     6
  0
VERTEX
  5
15E6
  8
0
 10
0.0
 20
0.0
 30
0.0
 70
   128
 71
     6
 72
    11
 73
     9
  0
VERTEX
  5
15E7
  8
0
 10
0.0
 20
0.0
 30
0.0
 70
   128
 71
     6
 72
     9
 73
     8
  0
VERTEX
  5
15E8
  8
0
 10
0.0
 20
0.0
 30
0.0
 70
   128
 71
    11
 72
    10
 73
     9
  0
VERTEX
  5
15E9
  8
0
 10
0.0
 20
0.0
 30
0.0
 70
   128
 71
     6
 72
     5
 73
    12
  0
VERTEX
  5
15EA
  8
0
 10
0.0
 20
0.0
 30
0.0
 70
   128
 71
     6
 72
    12
 73
    11
  0
VERTEX
  5
15EB
  8
0
 10
0.0
 20
0.0
 30
0.0
 70
   128
 71
     2
 72
     1
 73
    12
  0
VERTEX
  5
15EC
  8
0
 10
0.0
 20
0.0
 30
0.0
 70
   128
 71
    12
 72
     5
 73
     3
  0
VERTEX
  5
15ED
  8
0
 10
0.0
 20
0.0
 30
0.0
 70
   128
 71
    12
 72
     3
 73
     2
  0
VERTEX
  5
15EE
  8
0
 10
0.0
 20
0.0
 30
0.0
 70
   128
 71
     5
 72
     4
 73
     3
  0
SEQEND
  5
1AB3
  8
0
  0
POLYLINE
  5
15EF
  8
0
 66
     1
 10
0.0
 20
0.0
 30
0.0
 70
    64
 71
    13
 72
    11
  0
VERTEX
  5
15F0
  8
0
 10
17.25000000059531
 20
17.24999999999934
 30
154.7000000000001
 70
   192
  0
VERTEX
  5
15F1
  8
0
 10
17.25000000085451
 20
17.24999999999951
 30
139.9039671405764
 70
   192
  0
VERTEX
  5
15F2
  8
0
 10
18.96767880144435
 20
17.24976168307231
 30
140.8722111114122
 70
   192
  0
VERTEX
  5
15F3
  8
0
 10
21.02311252122914
 20
17.24890355500199
 30
141.5463933008263
 70
   192
  0
VERTEX
  5
15F4
  8
0
 10
22.9790599014606
 20
17.2475060387295
 30
141.7835250839001
 70
   192
  0
VERTEX
  5
15F5
  8
0
 10
117.397876285688
 20
16.48786274494596
 30
144.2541643041372
 70
   192
  0
VERTEX
  5
15F6
  8
0
 10
164.60076687756
 20
15.60000681861479
 30
145.4894839142001
 70
   192
  0
VERTEX
  5
15F7
  8
0
 10
164.6007668770766
 20
15.60000681862514
 30
148.5596559428372
 70
   192
  0
VERTEX
  5
15F8
  8
0
 10
164.600766876789
 20
15.60000681863162
 30
151.6298279714298
 70
   192
  0
VERTEX
  5
15F9
  8
0
 10
164.600766876449
 20
15.60000681863981
 30
154.7000000000001
 70
   192
  0
VERTEX
  5
15FA
  8
0
 10
115.4884063948932
 20
16.51664926503014
 30
154.7000000000001
 70
   192
  0
VERTEX
  5
15FB
  8
0
 10
70.18983061937466
 20
17.03703857454835
 30
143.0188446940298
 70
   192
  0
VERTEX
  5
15FC
  8
0
 10
66.3705717683418
 20
17.06665720821985
 30
154.7000000000002
 70
   192
  0
VERTEX
  5
15FD
  8
0
 10
0.0
 20
0.0
 30
0.0
 70
   128
 71
     1
 72
     2
 73
     3
  0
VERTEX
  5
15FE
  8
0
 10
0.0
 20
0.0
 30
0.0
 70
   128
 71
     3
 72
     4
 73
     1
  0
VERTEX
  5
15FF
  8
0
 10
0.0
 20
0.0
 30
0.0
 70
   128
 71
     4
 72
     5
 73
     1
  0
VERTEX
  5
1600
  8
0
 10
0.0
 20
0.0
 30
0.0
 70
   128
 71
     6
 72
     7
 73
    -8
  0
VERTEX
  5
1601
  8
0
 10
0.0
 20
0.0
 30
0.0
 70
   128
 71
     8
 72
    -9
 73
    -6
  0
VERTEX
  5
1602
  8
0
 10
0.0
 20
0.0
 30
0.0
 70
   128
 71
    10
 72
    11
 73
     6
  0
VERTEX
  5
1603
  8
0
 10
0.0
 20
0.0
 30
0.0
 70
   128
 71
     9
 72
    10
 73
    -6
  0
VERTEX
  5
1604
  8
0
 10
0.0
 20
0.0
 30
0.0
 70
   128
 71
    12
 72
     6
 73
    11
  0
VERTEX
  5
1605
  8
0
 10
0.0
 20
0.0
 30
0.0
 70
   128
 71
    13
 72
    12
 73
    11
  0
VERTEX
  5
1606
  8
0
 10
0.0
 20
0.0
 30
0.0
 70
   128
 71
     5
 72
    12
 73
    13
  0
VERTEX
  5
1607
  8
0
 10
0.0
 20
0.0
 30
0.0
 70
   128
 71
     1
 72
     5
 73
    13
  0
SEQEND
  5
1AB4
  8
0
  0
POLYLINE
  5
1608
  8
0
 66
     1
 10
0.0
 20
0.0
 30
0.0
 70
    64
 71
     9
 72
     7
  0
VERTEX
  5
1609
  8
0
 10
166.8078143341448
 20
14.96405235674271
 30
145.4894839141002
 70
   192
  0
VERTEX
  5
160A
  8
0
 10
164.60076687756
 20
15.60000681861479
 30
145.4894839142001
 70
   192
  0
VERTEX
  5
160B
  8
0
 10
164.6461179634407
 20
14.99620981997332
 30
143.2411351468093
 70
   192
  0
VERTEX
  5
160C
  8
0
 10
164.6523504627983
 20
13.3496907208279
 30
141.5947674402589
 70
   192
  0
VERTEX
  5
160D
  8
0
 10
168.4362844790382
 20
11.10105317458187
 30
143.3091967887901
 70
   192
  0
VERTEX
  5
160E
  8
0
 10
169.0
 20
11.10113517543237
 30
145.4894839141001
 70
   192
  0
VERTEX
  5
160F
  8
0
 10
168.4136266210362
 20
13.32186992149693
 30
145.4894839141002
 70
   192
  0
VERTEX
  5
1610
  8
0
 10
164.617796267816
 20
11.10113519319935
 30
140.9910259517487
 70
   192
  0
VERTEX
  5
1611
  8
0
 10
167.0113360656243
 20
11.10087238976307
 30
141.7554108483284
 70
   192
  0
VERTEX
  5
1612
  8
0
 10
0.0
 20
0.0
 30
0.0
 70
   128
 71
     1
 72
     2
 73
     3
  0
VERTEX
  5
1613
  8
0
 10
0.0
 20
0.0
 30
0.0
 70
   128
 71
     3
 72
     4
 73
     1
  0
VERTEX
  5
1614
  8
0
 10
0.0
 20
0.0
 30
0.0
 70
   128
 71
     5
 72
     6
 73
     7
  0
VERTEX
  5
1615
  8
0
 10
0.0
 20
0.0
 30
0.0
 70
   128
 71
     4
 72
     8
 73
     9
  0
VERTEX
  5
1616
  8
0
 10
0.0
 20
0.0
 30
0.0
 70
   128
 71
     1
 72
     4
 73
     9
  0
VERTEX
  5
1617
  8
0
 10
0.0
 20
0.0
 30
0.0
 70
   128
 71
     5
 72
     7
 73
     1
  0
VERTEX
  5
1618
  8
0
 10
0.0
 20
0.0
 30
0.0
 70
   128
 71
     9
 72
     5
 73
     1
  0
SEQEND
  5
1AB5
  8
0
  0
POLYLINE
  5
1619
  8
0
 66
     1
 10
0.0
 20
0.0
 30
0.0
 70
    64
 71
    12
 72
    10
  0
VERTEX
  5
161A
  8
0
 10
169.0
 20
-11.10113517481008
 30
154.7
 70
   192
  0
VERTEX
  5
161B
  8
0
 10
169.0
 20
-11.10113517526974
 30
151.6298279713667
 70
   192
  0
VERTEX
  5
161C
  8
0
 10
169.0
 20
-11.10113517527006
 30
148.5596559427334
 70
   192
  0
VERTEX
  5
161D
  8
0
 10
169.0
 20
-11.10113517481083
 30
145.4894839141
 70
   192
  0
VERTEX
  5
161E
  8
0
 10
169.0
 20
-3.700378390909018
 30
145.4894839141001
 70
   192
  0
VERTEX
  5
161F
  8
0
 10
169.0
 20
3.700378392282184
 30
145.4894839141001
 70
   192
  0
VERTEX
  5
1620
  8
0
 10
169.0
 20
11.10113517543237
 30
145.4894839141001
 70
   192
  0
VERTEX
  5
1621
  8
0
 10
169.0
 20
11.10113517480432
 30
148.5596559427335
 70
   192
  0
VERTEX
  5
1622
  8
0
 10
169.0
 20
11.1011351748041
 30
151.6298279713668
 70
   192
  0
VERTEX
  5
1623
  8
0
 10
169.0
 20
11.10113517543196
 30
154.7000000000001
 70
   192
  0
VERTEX
  5
1624
  8
0
 10
169.0
 20
3.700378392282072
 30
154.7000000000001
 70
   192
  0
VERTEX
  5
1625
  8
0
 10
169.0
 20
-3.700378390908829
 30
154.7000000000001
 70
   192
  0
VERTEX
  5
1626
  8
0
 10
0.0
 20
0.0
 30
0.0
 70
   128
 71
     8
 72
     7
 73
    -6
  0
VERTEX
  5
1627
  8
0
 10
0.0
 20
0.0
 30
0.0
 70
   128
 71
    -6
 72
   -11
 73
    -9
  0
VERTEX
  5
1628
  8
0
 10
0.0
 20
0.0
 30
0.0
 70
   128
 71
    -6
 72
     9
 73
    -8
  0
VERTEX
  5
1629
  8
0
 10
0.0
 20
0.0
 30
0.0
 70
   128
 71
    11
 72
    10
 73
    -9
  0
VERTEX
  5
162A
  8
0
 10
0.0
 20
0.0
 30
0.0
 70
   128
 71
     6
 72
    -5
 73
   -12
  0
VERTEX
  5
162B
  8
0
 10
0.0
 20
0.0
 30
0.0
 70
   128
 71
    -6
 72
    12
 73
   -11
  0
VERTEX
  5
162C
  8
0
 10
0.0
 20
0.0
 30
0.0
 70
   128
 71
     2
 72
     1
 73
   -12
  0
VERTEX
  5
162D
  8
0
 10
0.0
 20
0.0
 30
0.0
 70
   128
 71
   -12
 72
    -5
 73
    -3
  0
VERTEX
  5
162E
  8
0
 10
0.0
 20
0.0
 30
0.0
 70
   128
 71
   -12
 72
     3
 73
    -2
  0
VERTEX
  5
162F
  8
0
 10
0.0
 20
0.0
 30
0.0
 70
   128
 71
     5
 72
     4
 73
    -3
  0
SEQEND
  5
1AB6
  8
0
  0
POLYLINE
  5
1630
  8
0
 66
     1
 10
0.0
 20
0.0
 30
0.0
 70
    64
 71
     9
 72
     7
  0
VERTEX
  5
1631
  8
0
 10
168.4136266219076
 20
-13.32186991996211
 30
145.4894839141
 70
   192
  0
VERTEX
  5
1632
  8
0
 10
169.0
 20
-11.10113517481083
 30
145.4894839141
 70
   192
  0
VERTEX
  5
1633
  8
0
 10
168.4365348118432
 20
-11.10104756631771
 30
143.3092131308662
 70
   192
  0
VERTEX
  5
1634
  8
0
 10
167.0109248725924
 20
-11.10088095645168
 30
141.7548180795339
 70
   192
  0
VERTEX
  5
1635
  8
0
 10
164.6461179633916
 20
-14.99620981973203
 30
143.2411351463867
 70
   192
  0
VERTEX
  5
1636
  8
0
 10
164.600766876886
 20
-15.60000681863171
 30
145.4894839141
 70
   192
  0
VERTEX
  5
1637
  8
0
 10
166.8078143356756
 20
-14.96405235582922
 30
145.4894839141
 70
   192
  0
VERTEX
  5
1638
  8
0
 10
164.6523504627446
 20
-13.34969071998729
 30
141.594767439771
 70
   192
  0
VERTEX
  5
1639
  8
0
 10
164.6177962676955
 20
-11.10113519210553
 30
140.9910259517505
 70
   192
  0
VERTEX
  5
163A
  8
0
 10
0.0
 20
0.0
 30
0.0
 70
   128
 71
     1
 72
     2
 73
     3
  0
VERTEX
  5
163B
  8
0
 10
0.0
 20
0.0
 30
0.0
 70
   128
 71
     3
 72
     4
 73
     1
  0
VERTEX
  5
163C
  8
0
 10
0.0
 20
0.0
 30
0.0
 70
   128
 71
     5
 72
     6
 73
     7
  0
VERTEX
  5
163D
  8
0
 10
0.0
 20
0.0
 30
0.0
 70
   128
 71
     8
 72
     5
 73
     7
  0
VERTEX
  5
163E
  8
0
 10
0.0
 20
0.0
 30
0.0
 70
   128
 71
     8
 72
     7
 73
     1
  0
VERTEX
  5
163F
  8
0
 10
0.0
 20
0.0
 30
0.0
 70
   128
 71
     9
 72
     8
 73
     1
  0
VERTEX
  5
1640
  8
0
 10
0.0
 20
0.0
 30
0.0
 70
   128
 71
     4
 72
     9
 73
     1
  0
SEQEND
  5
1AB7
  8
0
  0
POLYLINE
  5
1641
  8
0
 66
     1
 10
0.0
 20
0.0
 30
0.0
 70
    64
 71
    13
 72
    11
  0
VERTEX
  5
1642
  8
0
 10
22.97905990147015
 20
-17.24750603873325
 30
141.7835250836
 70
   192
  0
VERTEX
  5
1643
  8
0
 10
20.95765450199541
 20
-17.24895556580943
 30
141.5318689894881
 70
   192
  0
VERTEX
  5
1644
  8
0
 10
17.25000000023072
 20
-17.25000000000064
 30
154.7
 70
   192
  0
VERTEX
  5
1645
  8
0
 10
19.02747696207648
 20
-17.24976006047981
 30
140.8984143862153
 70
   192
  0
VERTEX
  5
1646
  8
0
 10
17.25000000069777
 20
-17.25000000000012
 30
139.9039671415523
 70
   192
  0
VERTEX
  5
1647
  8
0
 10
115.4884063965128
 20
-16.51664926501367
 30
154.7000000000001
 70
   192
  0
VERTEX
  5
1648
  8
0
 10
164.60076687779
 20
-15.60000681861144
 30
154.7
 70
   192
  0
VERTEX
  5
1649
  8
0
 10
164.6007668759634
 20
-15.60000681865137
 30
151.6298279713667
 70
   192
  0
VERTEX
  5
164A
  8
0
 10
70.18983061882003
 20
-17.03703857455483
 30
143.0188446937667
 70
   192
  0
VERTEX
  5
164B
  8
0
 10
66.3705717692317
 20
-17.06665720821677
 30
154.7
 70
   192
  0
VERTEX
  5
164C
  8
0
 10
117.3978762848248
 20
-16.48786274495901
 30
144.2541643039334
 70
   192
  0
VERTEX
  5
164D
  8
0
 10
164.600766875729
 20
-15.60000681865663
 30
148.5596559427334
 70
   192
  0
VERTEX
  5
164E
  8
0
 10
164.600766876886
 20
-15.60000681863171
 30
145.4894839141
 70
   192
  0
VERTEX
  5
164F
  8
0
 10
0.0
 20
0.0
 30
0.0
 70
   128
 71
     1
 72
     2
 73
     3
  0
VERTEX
  5
1650
  8
0
 10
0.0
 20
0.0
 30
0.0
 70
   128
 71
     2
 72
     4
 73
     3
  0
VERTEX
  5
1651
  8
0
 10
0.0
 20
0.0
 30
0.0
 70
   128
 71
     4
 72
     5
 73
     3
  0
VERTEX
  5
1652
  8
0
 10
0.0
 20
0.0
 30
0.0
 70
   128
 71
     6
 72
     7
 73
    -8
  0
VERTEX
  5
1653
  8
0
 10
0.0
 20
0.0
 30
0.0
 70
   128
 71
     9
 72
     1
 73
     3
  0
VERTEX
  5
1654
  8
0
 10
0.0
 20
0.0
 30
0.0
 70
   128
 71
    10
 72
     9
 73
     3
  0
VERTEX
  5
1655
  8
0
 10
0.0
 20
0.0
 30
0.0
 70
   128
 71
    11
 72
     9
 73
    10
  0
VERTEX
  5
1656
  8
0
 10
0.0
 20
0.0
 30
0.0
 70
   128
 71
     6
 72
    11
 73
    10
  0
VERTEX
  5
1657
  8
0
 10
0.0
 20
0.0
 30
0.0
 70
   128
 71
    -6
 72
     8
 73
    12
  0
VERTEX
  5
1658
  8
0
 10
0.0
 20
0.0
 30
0.0
 70
   128
 71
    11
 72
     6
 73
    12
  0
VERTEX
  5
1659
  8
0
 10
0.0
 20
0.0
 30
0.0
 70
   128
 71
    12
 72
    13
 73
    11
  0
SEQEND
  5
1AB8
  8
0
  0
POLYLINE
  5
165A
  8
0
 66
     1
 10
0.0
 20
0.0
 30
0.0
 70
    64
 71
    12
 72
    10
  0
VERTEX
  5
165B
  8
0
 10
17.25000000069777
 20
-17.25000000000012
 30
139.9039671415523
 70
   192
  0
VERTEX
  5
165C
  8
0
 10
18.53564593640323
 20
-16.64693012599716
 30
138.0575987369849
 70
   192
  0
VERTEX
  5
165D
  8
0
 10
19.47681721545355
 20
-14.99988038741083
 30
136.7059443932616
 70
   192
  0
VERTEX
  5
165E
  8
0
 10
19.8214285719742
 20
-12.75000292228547
 30
136.2110340115924
 70
   192
  0
VERTEX
  5
165F
  8
0
 10
20.83516229262723
 20
-12.7491756130277
 30
136.7796179009983
 70
   192
  0
VERTEX
  5
1660
  8
0
 10
21.93945651995129
 20
-12.74834559795048
 30
137.1421565013182
 70
   192
  0
VERTEX
  5
1661
  8
0
 10
23.0929383145093
 20
-12.74751547464048
 30
137.2850671213056
 70
   192
  0
VERTEX
  5
1662
  8
0
 10
23.07980605633484
 20
-14.94817203486204
 30
137.8597358277222
 70
   192
  0
VERTEX
  5
1663
  8
0
 10
23.03616590108734
 20
-16.67264490428367
 30
139.5836218212563
 70
   192
  0
VERTEX
  5
1664
  8
0
 10
22.97905990147015
 20
-17.24750603873325
 30
141.7835250836
 70
   192
  0
VERTEX
  5
1665
  8
0
 10
20.95765450199541
 20
-17.24895556580943
 30
141.5318689894881
 70
   192
  0
VERTEX
  5
1666
  8
0
 10
19.02747696207648
 20
-17.24976006047981
 30
140.8984143862153
 70
   192
  0
VERTEX
  5
1667
  8
0
 10
0.0
 20
0.0
 30
0.0
 70
   128
 71
     8
 72
     7
 73
     6
  0
VERTEX
  5
1668
  8
0
 10
0.0
 20
0.0
 30
0.0
 70
   128
 71
     6
 72
    11
 73
     9
  0
VERTEX
  5
1669
  8
0
 10
0.0
 20
0.0
 30
0.0
 70
   128
 71
     6
 72
     9
 73
     8
  0
VERTEX
  5
166A
  8
0
 10
0.0
 20
0.0
 30
0.0
 70
   128
 71
    11
 72
    10
 73
     9
  0
VERTEX
  5
166B
  8
0
 10
0.0
 20
0.0
 30
0.0
 70
   128
 71
     6
 72
     5
 73
    12
  0
VERTEX
  5
166C
  8
0
 10
0.0
 20
0.0
 30
0.0
 70
   128
 71
     6
 72
    12
 73
    11
  0
VERTEX
  5
166D
  8
0
 10
0.0
 20
0.0
 30
0.0
 70
   128
 71
     2
 72
     1
 73
    12
  0
VERTEX
  5
166E
  8
0
 10
0.0
 20
0.0
 30
0.0
 70
   128
 71
    12
 72
     5
 73
     3
  0
VERTEX
  5
166F
  8
0
 10
0.0
 20
0.0
 30
0.0
 70
   128
 71
    12
 72
     3
 73
     2
  0
VERTEX
  5
1670
  8
0
 10
0.0
 20
0.0
 30
0.0
 70
   128
 71
     5
 72
     4
 73
     3
  0
SEQEND
  5
1AB9
  8
0
  0
POLYLINE
  5
1671
  8
0
 66
     1
 10
0.0
 20
0.0
 30
0.0
 70
    64
 71
    13
 72
    11
  0
VERTEX
  5
1672
  8
0
 10
137.7228646949029
 20
-0.0000000000004913
 30
140.2867322848602
 70
   192
  0
VERTEX
  5
1673
  8
0
 10
138.6995396600235
 20
-4.77900057961391
 30
140.3118667698767
 70
   192
  0
VERTEX
  5
1674
  8
0
 10
141.5259374394419
 20
-8.849864340039959
 30
140.3862541843008
 70
   192
  0
VERTEX
  5
1675
  8
0
 10
145.7902458674036
 20
-11.49586847013275
 30
140.4980091908831
 70
   192
  0
VERTEX
  5
1676
  8
0
 10
104.8934673514387
 20
-12.16748706820049
 30
139.4270893581696
 70
   192
  0
VERTEX
  5
1677
  8
0
 10
63.99436483200752
 20
-12.58470274130694
 30
138.3561086680594
 70
   192
  0
VERTEX
  5
1678
  8
0
 10
23.0929383145093
 20
-12.74751547464048
 30
137.2850671213056
 70
   192
  0
VERTEX
  5
1679
  8
0
 10
23.0929383119689
 20
12.74750983310952
 30
137.2850671212423
 70
   192
  0
VERTEX
  5
167A
  8
0
 10
63.99449817861294
 20
12.58469761049439
 30
138.3561121598646
 70
   192
  0
VERTEX
  5
167B
  8
0
 10
104.8936006974597
 20
12.16748381768802
 30
139.4270928499617
 70
   192
  0
VERTEX
  5
167C
  8
0
 10
145.79024586314
 20
11.49586846941925
 30
140.4980091907833
 70
   192
  0
VERTEX
  5
167D
  8
0
 10
141.5230521946898
 20
8.84710425787687
 30
140.386179962464
 70
   192
  0
VERTEX
  5
167E
  8
0
 10
138.6985539267522
 20
4.776152466585706
 30
140.3118685344602
 70
   192
  0
VERTEX
  5
167F
  8
0
 10
0.0
 20
0.0
 30
0.0
 70
   128
 71
    12
 72
    11
 73
   -10
  0
VERTEX
  5
1680
  8
0
 10
0.0
 20
0.0
 30
0.0
 70
   128
 71
   -10
 72
    13
 73
   -12
  0
VERTEX
  5
1681
  8
0
 10
0.0
 20
0.0
 30
0.0
 70
   128
 71
     9
 72
    -8
 73
    -1
  0
VERTEX
  5
1682
  8
0
 10
0.0
 20
0.0
 30
0.0
 70
   128
 71
     1
 72
   -13
 73
   -10
  0
VERTEX
  5
1683
  8
0
 10
0.0
 20
0.0
 30
0.0
 70
   128
 71
    -1
 72
    10
 73
    -9
  0
VERTEX
  5
1684
  8
0
 10
0.0
 20
0.0
 30
0.0
 70
   128
 71
     2
 72
    -1
 73
    -5
  0
VERTEX
  5
1685
  8
0
 10
0.0
 20
0.0
 30
0.0
 70
   128
 71
    -5
 72
     3
 73
    -2
  0
VERTEX
  5
1686
  8
0
 10
0.0
 20
0.0
 30
0.0
 70
   128
 71
     5
 72
     4
 73
    -3
  0
VERTEX
  5
1687
  8
0
 10
0.0
 20
0.0
 30
0.0
 70
   128
 71
    -1
 72
    -8
 73
    -6
  0
VERTEX
  5
1688
  8
0
 10
0.0
 20
0.0
 30
0.0
 70
   128
 71
    -1
 72
     6
 73
    -5
  0
VERTEX
  5
1689
  8
0
 10
0.0
 20
0.0
 30
0.0
 70
   128
 71
     8
 72
     7
 73
    -6
  0
SEQEND
  5
1ABA
  8
0
  0
POLYLINE
  5
168A
  8
0
 66
     1
 10
0.0
 20
0.0
 30
0.0
 70
    64
 71
    16
 72
    14
  0
VERTEX
  5
168B
  8
0
 10
158.2019921432776
 20
8.662058069534721
 30
144.8295072705382
 70
   192
  0
VERTEX
  5
168C
  8
0
 10
161.8246030199929
 20
-0.0000000000005087
 30
144.8337182407163
 70
   192
  0
VERTEX
  5
168D
  8
0
 10
161.4567079098353
 20
4.634637636314622
 30
140.9086099967747
 70
   192
  0
VERTEX
  5
168E
  8
0
 10
158.800425112082
 20
8.62469422011431
 30
140.8387470053592
 70
   192
  0
VERTEX
  5
168F
  8
0
 10
162.3729197766646
 20
-0.0000000000004951
 30
140.9322417920192
 70
   192
  0
VERTEX
  5
1690
  8
0
 10
161.7550164695159
 20
-0.0000000000004875
 30
145.3288522750657
 70
   192
  0
VERTEX
  5
1691
  8
0
 10
149.6242326274316
 20
12.2499999999995
 30
143.6239817883045
 70
   192
  0
VERTEX
  5
1692
  8
0
 10
154.772911245973
 20
11.31401419578187
 30
140.7332298990805
 70
   192
  0
VERTEX
  5
1693
  8
0
 10
151.7048494292277
 20
12.13761453553482
 30
140.7168109568318
 70
   192
  0
VERTEX
  5
1694
  8
0
 10
141.0464731115857
 20
8.662058069534673
 30
142.4184563060709
 70
   192
  0
VERTEX
  5
1695
  8
0
 10
145.79024586314
 20
11.49586846941925
 30
140.4980091907833
 70
   192
  0
VERTEX
  5
1696
  8
0
 10
141.5230521946898
 20
8.84710425787687
 30
140.386179962464
 70
   192
  0
VERTEX
  5
1697
  8
0
 10
148.8444009121865
 20
12.1923249304979
 30
140.6415187803436
 70
   192
  0
VERTEX
  5
1698
  8
0
 10
138.6985539267522
 20
4.776152466585706
 30
140.3118685344602
 70
   192
  0
VERTEX
  5
1699
  8
0
 10
137.7228646949029
 20
-0.0000000000005427
 30
140.2867322848602
 70
   192
  0
VERTEX
  5
169A
  8
0
 10
137.4934487853475
 20
-0.0000000000005484
 30
141.9191113015434
 70
   192
  0
VERTEX
  5
169B
  8
0
 10
0.0
 20
0.0
 30
0.0
 70
   128
 71
     1
 72
     2
 73
     3
  0
VERTEX
  5
169C
  8
0
 10
0.0
 20
0.0
 30
0.0
 70
   128
 71
     1
 72
     3
 73
     4
  0
VERTEX
  5
169D
  8
0
 10
0.0
 20
0.0
 30
0.0
 70
   128
 71
     2
 72
     5
 73
     3
  0
VERTEX
  5
169E
  8
0
 10
0.0
 20
0.0
 30
0.0
 70
   128
 71
     1
 72
     6
 73
     2
  0
VERTEX
  5
169F
  8
0
 10
0.0
 20
0.0
 30
0.0
 70
   128
 71
     7
 72
     1
 73
     8
  0
VERTEX
  5
16A0
  8
0
 10
0.0
 20
0.0
 30
0.0
 70
   128
 71
     7
 72
     8
 73
     9
  0
VERTEX
  5
16A1
  8
0
 10
0.0
 20
0.0
 30
0.0
 70
   128
 71
    10
 72
     7
 73
    11
  0
VERTEX
  5
16A2
  8
0
 10
0.0
 20
0.0
 30
0.0
 70
   128
 71
    10
 72
    11
 73
    12
  0
VERTEX
  5
16A3
  8
0
 10
0.0
 20
0.0
 30
0.0
 70
   128
 71
     7
 72
    13
 73
    11
  0
VERTEX
  5
16A4
  8
0
 10
0.0
 20
0.0
 30
0.0
 70
   128
 71
    14
 72
    15
 73
    16
  0
VERTEX
  5
16A5
  8
0
 10
0.0
 20
0.0
 30
0.0
 70
   128
 71
    14
 72
    16
 73
    10
  0
VERTEX
  5
16A6
  8
0
 10
0.0
 20
0.0
 30
0.0
 70
   128
 71
     4
 72
     8
 73
     1
  0
VERTEX
  5
16A7
  8
0
 10
0.0
 20
0.0
 30
0.0
 70
   128
 71
     9
 72
    13
 73
     7
  0
VERTEX
  5
16A8
  8
0
 10
0.0
 20
0.0
 30
0.0
 70
   128
 71
    12
 72
    14
 73
    10
  0
SEQEND
  5
1ABB
  8
0
  0
POLYLINE
  5
16A9
  8
0
 66
     1
 10
0.0
 20
0.0
 30
0.0
 70
    64
 71
    21
 72
    19
  0
VERTEX
  5
16AA
  8
0
 10
154.8560531617295
 20
11.31274911510937
 30
140.7354057150831
 70
   192
  0
VERTEX
  5
16AB
  8
0
 10
154.8283357393118
 20
11.31316252589987
 30
140.7346799547771
 70
   192
  0
VERTEX
  5
16AC
  8
0
 10
154.8006209044939
 20
11.31358212018827
 30
140.7339545618005
 70
   192
  0
VERTEX
  5
16AD
  8
0
 10
154.772911245973
 20
11.31401419578187
 30
140.7332298990805
 70
   192
  0
VERTEX
  5
16AE
  8
0
 10
151.7048494292277
 20
12.13761453553482
 30
140.7168109568318
 70
   192
  0
VERTEX
  5
16AF
  8
0
 10
148.8444009121865
 20
12.1923249304979
 30
140.6415187803436
 70
   192
  0
VERTEX
  5
16B0
  8
0
 10
145.79024586314
 20
11.49586846941925
 30
140.4980091907833
 70
   192
  0
VERTEX
  5
16B1
  8
0
 10
104.8936006974597
 20
12.16748381768802
 30
139.4270928499617
 70
   192
  0
VERTEX
  5
16B2
  8
0
 10
63.99449817861294
 20
12.58469761049439
 30
138.3561121598646
 70
   192
  0
VERTEX
  5
16B3
  8
0
 10
23.0929383119689
 20
12.74750983310952
 30
137.2850671212423
 70
   192
  0
VERTEX
  5
16B4
  8
0
 10
23.07980610920841
 20
14.94816826341279
 30
137.8597337139351
 70
   192
  0
VERTEX
  5
16B5
  8
0
 10
23.03616594962454
 20
16.67264384708742
 30
139.5836199363331
 70
   192
  0
VERTEX
  5
16B6
  8
0
 10
22.9790599014606
 20
17.2475060387295
 30
141.7835250839001
 70
   192
  0
VERTEX
  5
16B7
  8
0
 10
70.18983061937466
 20
17.03703857454835
 30
143.0188446940298
 70
   192
  0
VERTEX
  5
16B8
  8
0
 10
117.397876285688
 20
16.48786274494596
 30
144.2541643041372
 70
   192
  0
VERTEX
  5
16B9
  8
0
 10
164.60076687756
 20
15.60000681861479
 30
145.4894839142001
 70
   192
  0
VERTEX
  5
16BA
  8
0
 10
164.6461179634407
 20
14.99620981997332
 30
143.2411351468093
 70
   192
  0
VERTEX
  5
16BB
  8
0
 10
164.6523504627983
 20
13.3496907208279
 30
141.5947674402589
 70
   192
  0
VERTEX
  5
16BC
  8
0
 10
164.617796267816
 20
11.10113519319935
 30
140.9910259517487
 70
   192
  0
VERTEX
  5
16BD
  8
0
 10
161.363916978463
 20
11.17328372830228
 30
140.9058201244027
 70
   192
  0
VERTEX
  5
16BE
  8
0
 10
158.1100023440627
 20
11.2438217050123
 30
140.8206133720849
 70
   192
  0
VERTEX
  5
16BF
  8
0
 10
0.0
 20
0.0
 30
0.0
 70
   128
 71
    18
 72
    17
 73
    16
  0
VERTEX
  5
16C0
  8
0
 10
0.0
 20
0.0
 30
0.0
 70
   128
 71
    16
 72
    20
 73
    18
  0
VERTEX
  5
16C1
  8
0
 10
0.0
 20
0.0
 30
0.0
 70
   128
 71
    20
 72
    19
 73
    18
  0
VERTEX
  5
16C2
  8
0
 10
0.0
 20
0.0
 30
0.0
 70
   128
 71
    16
 72
    21
 73
    20
  0
VERTEX
  5
16C3
  8
0
 10
0.0
 20
0.0
 30
0.0
 70
   128
 71
    16
 72
     1
 73
    21
  0
VERTEX
  5
16C4
  8
0
 10
0.0
 20
0.0
 30
0.0
 70
   128
 71
    11
 72
    10
 73
     9
  0
VERTEX
  5
16C5
  8
0
 10
0.0
 20
0.0
 30
0.0
 70
   128
 71
     9
 72
    14
 73
    12
  0
VERTEX
  5
16C6
  8
0
 10
0.0
 20
0.0
 30
0.0
 70
   128
 71
     9
 72
    12
 73
    11
  0
VERTEX
  5
16C7
  8
0
 10
0.0
 20
0.0
 30
0.0
 70
   128
 71
    14
 72
    13
 73
    12
  0
VERTEX
  5
16C8
  8
0
 10
0.0
 20
0.0
 30
0.0
 70
   128
 71
     9
 72
     8
 73
    15
  0
VERTEX
  5
16C9
  8
0
 10
0.0
 20
0.0
 30
0.0
 70
   128
 71
     9
 72
    15
 73
    14
  0
VERTEX
  5
16CA
  8
0
 10
0.0
 20
0.0
 30
0.0
 70
   128
 71
     2
 72
     1
 73
    16
  0
VERTEX
  5
16CB
  8
0
 10
0.0
 20
0.0
 30
0.0
 70
   128
 71
     2
 72
    16
 73
     5
  0
VERTEX
  5
16CC
  8
0
 10
0.0
 20
0.0
 30
0.0
 70
   128
 71
     5
 72
     3
 73
     2
  0
VERTEX
  5
16CD
  8
0
 10
0.0
 20
0.0
 30
0.0
 70
   128
 71
     5
 72
     4
 73
     3
  0
VERTEX
  5
16CE
  8
0
 10
0.0
 20
0.0
 30
0.0
 70
   128
 71
    16
 72
     6
 73
     5
  0
VERTEX
  5
16CF
  8
0
 10
0.0
 20
0.0
 30
0.0
 70
   128
 71
     6
 72
    16
 73
    15
  0
VERTEX
  5
16D0
  8
0
 10
0.0
 20
0.0
 30
0.0
 70
   128
 71
     6
 72
    15
 73
     8
  0
VERTEX
  5
16D1
  8
0
 10
0.0
 20
0.0
 30
0.0
 70
   128
 71
     8
 72
     7
 73
     6
  0
SEQEND
  5
1ABC
  8
0
  0
POLYLINE
  5
16D2
  8
0
 66
     1
 10
0.0
 20
0.0
 30
0.0
 70
    64
 71
    12
 72
    10
  0
VERTEX
  5
16D3
  8
0
 10
167.0113360656243
 20
11.10087238976307
 30
141.7554108483284
 70
   192
  0
VERTEX
  5
16D4
  8
0
 10
164.617796267816
 20
11.10113519319935
 30
140.9910259517487
 70
   192
  0
VERTEX
  5
16D5
  8
0
 10
164.6177962678143
 20
3.70037839857483
 30
140.9910259517306
 70
   192
  0
VERTEX
  5
16D6
  8
0
 10
164.6177962677807
 20
-3.700378397237547
 30
140.991025951731
 70
   192
  0
VERTEX
  5
16D7
  8
0
 10
167.0109248725924
 20
-11.10088095645168
 30
141.7548180795339
 70
   192
  0
VERTEX
  5
16D8
  8
0
 10
164.6177962676955
 20
-11.10113519210553
 30
140.9910259517505
 70
   192
  0
VERTEX
  5
16D9
  8
0
 10
168.4362844790382
 20
11.10105317458187
 30
143.3091967887901
 70
   192
  0
VERTEX
  5
16DA
  8
0
 10
168.4365348118432
 20
-11.10104756631771
 30
143.3092131308662
 70
   192
  0
VERTEX
  5
16DB
  8
0
 10
169.0
 20
-11.10113517481083
 30
145.4894839141
 70
   192
  0
VERTEX
  5
16DC
  8
0
 10
169.0
 20
-3.700378390909018
 30
145.4894839141001
 70
   192
  0
VERTEX
  5
16DD
  8
0
 10
169.0
 20
3.700378392282184
 30
145.4894839141001
 70
   192
  0
VERTEX
  5
16DE
  8
0
 10
169.0
 20
11.10113517543237
 30
145.4894839141001
 70
   192
  0
VERTEX
  5
16DF
  8
0
 10
0.0
 20
0.0
 30
0.0
 70
   128
 71
     1
 72
     2
 73
    -3
  0
VERTEX
  5
16E0
  8
0
 10
0.0
 20
0.0
 30
0.0
 70
   128
 71
     4
 72
     5
 73
     1
  0
VERTEX
  5
16E1
  8
0
 10
0.0
 20
0.0
 30
0.0
 70
   128
 71
     3
 72
     4
 73
    -1
  0
VERTEX
  5
16E2
  8
0
 10
0.0
 20
0.0
 30
0.0
 70
   128
 71
     4
 72
     6
 73
     5
  0
VERTEX
  5
16E3
  8
0
 10
0.0
 20
0.0
 30
0.0
 70
   128
 71
     7
 72
     1
 73
     5
  0
VERTEX
  5
16E4
  8
0
 10
0.0
 20
0.0
 30
0.0
 70
   128
 71
     8
 72
     7
 73
     5
  0
VERTEX
  5
16E5
  8
0
 10
0.0
 20
0.0
 30
0.0
 70
   128
 71
     8
 72
     9
 73
   -10
  0
VERTEX
  5
16E6
  8
0
 10
0.0
 20
0.0
 30
0.0
 70
   128
 71
    10
 72
   -11
 73
    -8
  0
VERTEX
  5
16E7
  8
0
 10
0.0
 20
0.0
 30
0.0
 70
   128
 71
    12
 72
     7
 73
     8
  0
VERTEX
  5
16E8
  8
0
 10
0.0
 20
0.0
 30
0.0
 70
   128
 71
    11
 72
    12
 73
    -8
  0
SEQEND
  5
1ABD
  8
0
  0
POLYLINE
  5
16E9
  8
0
 66
     1
 10
0.0
 20
0.0
 30
0.0
 70
    64
 71
    21
 72
    19
  0
VERTEX
  5
16EA
  8
0
 10
23.0929383145093
 20
-12.74751547464048
 30
137.2850671213056
 70
   192
  0
VERTEX
  5
16EB
  8
0
 10
63.99436483200752
 20
-12.58470274130694
 30
138.3561086680594
 70
   192
  0
VERTEX
  5
16EC
  8
0
 10
104.8934673514387
 20
-12.16748706820049
 30
139.4270893581696
 70
   192
  0
VERTEX
  5
16ED
  8
0
 10
145.7902458674036
 20
-11.49586847013275
 30
140.4980091908831
 70
   192
  0
VERTEX
  5
16EE
  8
0
 10
148.7256905283116
 20
-12.18022277600247
 30
140.6360795451961
 70
   192
  0
VERTEX
  5
16EF
  8
0
 10
151.6997874955196
 20
-12.13826466159364
 30
140.7169916720949
 70
   192
  0
VERTEX
  5
16F0
  8
0
 10
154.77291134083
 20
-11.31401417449599
 30
140.7332299008331
 70
   192
  0
VERTEX
  5
16F1
  8
0
 10
154.8006209688283
 20
-11.31358199633693
 30
140.7339545645999
 70
   192
  0
VERTEX
  5
16F2
  8
0
 10
154.828335771358
 20
-11.3131624070425
 30
140.7346799571867
 70
   192
  0
VERTEX
  5
16F3
  8
0
 10
154.85605316113
 20
-11.31274911218035
 30
140.7354057150787
 70
   192
  0
VERTEX
  5
16F4
  8
0
 10
158.1100023436783
 20
-11.2438217029539
 30
140.8206133720928
 70
   192
  0
VERTEX
  5
16F5
  8
0
 10
161.3639169782476
 20
-11.17328372683304
 30
140.9058201244132
 70
   192
  0
VERTEX
  5
16F6
  8
0
 10
164.6177962676955
 20
-11.10113519210553
 30
140.9910259517505
 70
   192
  0
VERTEX
  5
16F7
  8
0
 10
164.6523504627446
 20
-13.34969071998729
 30
141.594767439771
 70
   192
  0
VERTEX
  5
16F8
  8
0
 10
164.6461179633916
 20
-14.99620981973203
 30
143.2411351463867
 70
   192
  0
VERTEX
  5
16F9
  8
0
 10
164.600766876886
 20
-15.60000681863171
 30
145.4894839141
 70
   192
  0
VERTEX
  5
16FA
  8
0
 10
117.3978762848248
 20
-16.48786274495901
 30
144.2541643039334
 70
   192
  0
VERTEX
  5
16FB
  8
0
 10
70.18983061882003
 20
-17.03703857455483
 30
143.0188446937667
 70
   192
  0
VERTEX
  5
16FC
  8
0
 10
22.97905990147015
 20
-17.24750603873325
 30
141.7835250836
 70
   192
  0
VERTEX
  5
16FD
  8
0
 10
23.03616590108734
 20
-16.67264490428367
 30
139.5836218212563
 70
   192
  0
VERTEX
  5
16FE
  8
0
 10
23.07980605633484
 20
-14.94817203486204
 30
137.8597358277222
 70
   192
  0
VERTEX
  5
16FF
  8
0
 10
0.0
 20
0.0
 30
0.0
 70
   128
 71
    17
 72
    16
 73
    15
  0
VERTEX
  5
1700
  8
0
 10
0.0
 20
0.0
 30
0.0
 70
   128
 71
    15
 72
    20
 73
    18
  0
VERTEX
  5
1701
  8
0
 10
0.0
 20
0.0
 30
0.0
 70
   128
 71
    15
 72
    18
 73
    17
  0
VERTEX
  5
1702
  8
0
 10
0.0
 20
0.0
 30
0.0
 70
   128
 71
    20
 72
    19
 73
    18
  0
VERTEX
  5
1703
  8
0
 10
0.0
 20
0.0
 30
0.0
 70
   128
 71
    15
 72
    14
 73
    21
  0
VERTEX
  5
1704
  8
0
 10
0.0
 20
0.0
 30
0.0
 70
   128
 71
    15
 72
    21
 73
    20
  0
VERTEX
  5
1705
  8
0
 10
0.0
 20
0.0
 30
0.0
 70
   128
 71
     5
 72
     4
 73
     3
  0
VERTEX
  5
1706
  8
0
 10
0.0
 20
0.0
 30
0.0
 70
   128
 71
     2
 72
     1
 73
    21
  0
VERTEX
  5
1707
  8
0
 10
0.0
 20
0.0
 30
0.0
 70
   128
 71
    21
 72
    14
 73
     5
  0
VERTEX
  5
1708
  8
0
 10
0.0
 20
0.0
 30
0.0
 70
   128
 71
    21
 72
     5
 73
     3
  0
VERTEX
  5
1709
  8
0
 10
0.0
 20
0.0
 30
0.0
 70
   128
 71
    21
 72
     3
 73
     2
  0
VERTEX
  5
170A
  8
0
 10
0.0
 20
0.0
 30
0.0
 70
   128
 71
    14
 72
     6
 73
     5
  0
VERTEX
  5
170B
  8
0
 10
0.0
 20
0.0
 30
0.0
 70
   128
 71
    14
 72
     8
 73
     7
  0
VERTEX
  5
170C
  8
0
 10
0.0
 20
0.0
 30
0.0
 70
   128
 71
    14
 72
     7
 73
     6
  0
VERTEX
  5
170D
  8
0
 10
0.0
 20
0.0
 30
0.0
 70
   128
 71
    14
 72
     9
 73
     8
  0
VERTEX
  5
170E
  8
0
 10
0.0
 20
0.0
 30
0.0
 70
   128
 71
    14
 72
    10
 73
     9
  0
VERTEX
  5
170F
  8
0
 10
0.0
 20
0.0
 30
0.0
 70
   128
 71
    14
 72
    11
 73
    10
  0
VERTEX
  5
1710
  8
0
 10
0.0
 20
0.0
 30
0.0
 70
   128
 71
    14
 72
    12
 73
    11
  0
VERTEX
  5
1711
  8
0
 10
0.0
 20
0.0
 30
0.0
 70
   128
 71
    14
 72
    13
 73
    12
  0
SEQEND
  5
1ABE
  8
0
  0
POLYLINE
  5
1712
  8
0
 66
     1
 10
0.0
 20
0.0
 30
0.0
 70
    64
 71
    21
 72
    19
  0
VERTEX
  5
1713
  8
0
 10
154.85605316113
 20
-11.31274911218035
 30
140.7354057150787
 70
   192
  0
VERTEX
  5
1714
  8
0
 10
154.828335771358
 20
-11.3131624070425
 30
140.7346799571867
 70
   192
  0
VERTEX
  5
1715
  8
0
 10
154.8006209688283
 20
-11.31358199633693
 30
140.7339545645999
 70
   192
  0
VERTEX
  5
1716
  8
0
 10
154.77291134083
 20
-11.31401417449599
 30
140.7332299008331
 70
   192
  0
VERTEX
  5
1717
  8
0
 10
158.7998734802402
 20
-8.625233901061144
 30
140.8387304942458
 70
   192
  0
VERTEX
  5
1718
  8
0
 10
161.4566890525222
 20
-4.634201602812894
 30
140.9085847296645
 70
   192
  0
VERTEX
  5
1719
  8
0
 10
162.372919776644
 20
-0.0000000000004927
 30
140.9322417920163
 70
   192
  0
VERTEX
  5
171A
  8
0
 10
161.4567079098353
 20
4.634637636314622
 30
140.9086099967747
 70
   192
  0
VERTEX
  5
171B
  8
0
 10
158.800425112082
 20
8.62469422011431
 30
140.8387470053592
 70
   192
  0
VERTEX
  5
171C
  8
0
 10
154.772911245973
 20
11.31401419578187
 30
140.7332298990805
 70
   192
  0
VERTEX
  5
171D
  8
0
 10
154.8006209044939
 20
11.31358212018827
 30
140.7339545618005
 70
   192
  0
VERTEX
  5
171E
  8
0
 10
154.8283357393118
 20
11.31316252589987
 30
140.7346799547771
 70
   192
  0
VERTEX
  5
171F
  8
0
 10
154.8560531617295
 20
11.31274911510937
 30
140.7354057150831
 70
   192
  0
VERTEX
  5
1720
  8
0
 10
158.1100023440627
 20
11.2438217050123
 30
140.8206133720849
 70
   192
  0
VERTEX
  5
1721
  8
0
 10
161.363916978463
 20
11.17328372830228
 30
140.9058201244027
 70
   192
  0
VERTEX
  5
1722
  8
0
 10
164.617796267816
 20
11.10113519319935
 30
140.9910259517487
 70
   192
  0
VERTEX
  5
1723
  8
0
 10
164.6177962678143
 20
3.70037839857483
 30
140.9910259517306
 70
   192
  0
VERTEX
  5
1724
  8
0
 10
164.6177962677807
 20
-3.700378397237547
 30
140.991025951731
 70
   192
  0
VERTEX
  5
1725
  8
0
 10
164.6177962676955
 20
-11.10113519210553
 30
140.9910259517505
 70
   192
  0
VERTEX
  5
1726
  8
0
 10
161.3639169782476
 20
-11.17328372683304
 30
140.9058201244132
 70
   192
  0
VERTEX
  5
1727
  8
0
 10
158.1100023436783
 20
-11.2438217029539
 30
140.8206133720928
 70
   192
  0
VERTEX
  5
1728
  8
0
 10
0.0
 20
0.0
 30
0.0
 70
   128
 71
    11
 72
    10
 73
    -9
  0
VERTEX
  5
1729
  8
0
 10
0.0
 20
0.0
 30
0.0
 70
   128
 71
    -9
 72
    12
 73
   -11
  0
VERTEX
  5
172A
  8
0
 10
0.0
 20
0.0
 30
0.0
 70
   128
 71
    -9
 72
    13
 73
   -12
  0
VERTEX
  5
172B
  8
0
 10
0.0
 20
0.0
 30
0.0
 70
   128
 71
    -9
 72
    14
 73
   -13
  0
VERTEX
  5
172C
  8
0
 10
0.0
 20
0.0
 30
0.0
 70
   128
 71
    -9
 72
    15
 73
   -14
  0
VERTEX
  5
172D
  8
0
 10
0.0
 20
0.0
 30
0.0
 70
   128
 71
     9
 72
    -8
 73
   -17
  0
VERTEX
  5
172E
  8
0
 10
0.0
 20
0.0
 30
0.0
 70
   128
 71
    -9
 72
    17
 73
   -16
  0
VERTEX
  5
172F
  8
0
 10
0.0
 20
0.0
 30
0.0
 70
   128
 71
    -9
 72
    16
 73
   -15
  0
VERTEX
  5
1730
  8
0
 10
0.0
 20
0.0
 30
0.0
 70
   128
 71
     7
 72
    -6
 73
   -18
  0
VERTEX
  5
1731
  8
0
 10
0.0
 20
0.0
 30
0.0
 70
   128
 71
    18
 72
   -17
 73
    -8
  0
VERTEX
  5
1732
  8
0
 10
0.0
 20
0.0
 30
0.0
 70
   128
 71
   -18
 72
     8
 73
    -7
  0
VERTEX
  5
1733
  8
0
 10
0.0
 20
0.0
 30
0.0
 70
   128
 71
     6
 72
    -5
 73
   -20
  0
VERTEX
  5
1734
  8
0
 10
0.0
 20
0.0
 30
0.0
 70
   128
 71
    -6
 72
    20
 73
   -19
  0
VERTEX
  5
1735
  8
0
 10
0.0
 20
0.0
 30
0.0
 70
   128
 71
    -6
 72
    19
 73
   -18
  0
VERTEX
  5
1736
  8
0
 10
0.0
 20
0.0
 30
0.0
 70
   128
 71
    -5
 72
    21
 73
   -20
  0
VERTEX
  5
1737
  8
0
 10
0.0
 20
0.0
 30
0.0
 70
   128
 71
    -5
 72
     1
 73
   -21
  0
VERTEX
  5
1738
  8
0
 10
0.0
 20
0.0
 30
0.0
 70
   128
 71
     2
 72
    -1
 73
    -5
  0
VERTEX
  5
1739
  8
0
 10
0.0
 20
0.0
 30
0.0
 70
   128
 71
    -5
 72
     3
 73
    -2
  0
VERTEX
  5
173A
  8
0
 10
0.0
 20
0.0
 30
0.0
 70
   128
 71
     5
 72
     4
 73
    -3
  0
SEQEND
  5
1ABF
  8
0
  0
POLYLINE
  5
173B
  8
0
 66
     1
 10
0.0
 20
0.0
 30
0.0
 70
    64
 71
     9
 72
     7
  0
VERTEX
  5
173C
  8
0
 10
145.668360482302
 20
10.99999999999604
 30
137.3120030517073
 70
   192
  0
VERTEX
  5
173D
  8
0
 10
146.0766908250026
 20
11.00000000000211
 30
134.4065816945737
 70
   192
  0
VERTEX
  5
173E
  8
0
 10
147.7314124881136
 20
10.99999999999953
 30
134.3170961892623
 70
   192
  0
VERTEX
  5
173F
  8
0
 10
149.3301229117605
 20
11.00000004084925
 30
134.3469077860437
 70
   192
  0
VERTEX
  5
1740
  8
0
 10
150.9061988056078
 20
11.00000110294202
 30
134.50230376835
 70
   192
  0
VERTEX
  5
1741
  8
0
 10
152.463660376037
 20
10.99999999999952
 30
134.78726160898
 70
   192
  0
VERTEX
  5
1742
  8
0
 10
154.0087302799494
 20
10.99999999999917
 30
135.1992453614651
 70
   192
  0
VERTEX
  5
1743
  8
0
 10
155.575008466194
 20
10.99999999998994
 30
135.7414831841101
 70
   192
  0
VERTEX
  5
1744
  8
0
 10
155.1666781234985
 20
10.99999999998967
 30
138.6469045412349
 70
   192
  0
VERTEX
  5
1745
  8
0
 10
0.0
 20
0.0
 30
0.0
 70
   128
 71
     1
 72
     2
 73
    -3
  0
VERTEX
  5
1746
  8
0
 10
0.0
 20
0.0
 30
0.0
 70
   128
 71
     3
 72
    -4
 73
    -1
  0
VERTEX
  5
1747
  8
0
 10
0.0
 20
0.0
 30
0.0
 70
   128
 71
     4
 72
    -5
 73
    -1
  0
VERTEX
  5
1748
  8
0
 10
0.0
 20
0.0
 30
0.0
 70
   128
 71
    -6
 72
     9
 73
    -1
  0
VERTEX
  5
1749
  8
0
 10
0.0
 20
0.0
 30
0.0
 70
   128
 71
     5
 72
    -6
 73
    -1
  0
VERTEX
  5
174A
  8
0
 10
0.0
 20
0.0
 30
0.0
 70
   128
 71
     6
 72
    -7
 73
    -9
  0
VERTEX
  5
174B
  8
0
 10
0.0
 20
0.0
 30
0.0
 70
   128
 71
     7
 72
     8
 73
    -9
  0
SEQEND
  5
1AC0
  8
0
  0
POLYLINE
  5
174C
  8
0
 66
     1
 10
0.0
 20
0.0
 30
0.0
 70
    64
 71
     4
 72
     2
  0
VERTEX
  5
174D
  8
0
 10
155.1666781234985
 20
10.99999999998967
 30
138.6469045412349
 70
   192
  0
VERTEX
  5
174E
  8
0
 10
151.9186620470778
 20
11.89241025331656
 30
138.8212519866457
 70
   192
  0
VERTEX
  5
174F
  8
0
 10
148.7427902220272
 20
11.89245730353776
 30
138.3749455682728
 70
   192
  0
VERTEX
  5
1750
  8
0
 10
145.668360482302
 20
10.99999999999604
 30
137.3120030517073
 70
   192
  0
VERTEX
  5
1751
  8
0
 10
0.0
 20
0.0
 30
0.0
 70
   128
 71
     3
 72
     4
 73
    -1
  0
VERTEX
  5
1752
  8
0
 10
0.0
 20
0.0
 30
0.0
 70
   128
 71
     2
 72
    -3
 73
     1
  0
SEQEND
  5
1AC1
  8
0
  0
POLYLINE
  5
1753
  8
0
 66
     1
 10
0.0
 20
0.0
 30
0.0
 70
    64
 71
    12
 72
    10
  0
VERTEX
  5
1754
  8
0
 10
140.5485623647124
 20
-0.000000000086979
 30
132.7551175751547
 70
   192
  0
VERTEX
  5
1755
  8
0
 10
141.941342667613
 20
-5.249675047817448
 30
132.9508600814457
 70
   192
  0
VERTEX
  5
1756
  8
0
 10
145.7477799432299
 20
-9.093543903583596
 30
133.4858199534033
 70
   192
  0
VERTEX
  5
1757
  8
0
 10
150.9463770864895
 20
-10.49999999998643
 30
134.2164351352231
 70
   192
  0
VERTEX
  5
1758
  8
0
 10
156.1449626576481
 20
-9.093532047653826
 30
134.9470486906412
 70
   192
  0
VERTEX
  5
1759
  8
0
 10
159.9514232459078
 20
-5.249686733694486
 30
135.4820118389771
 70
   192
  0
VERTEX
  5
175A
  8
0
 10
161.3441918082665
 20
0.0000000000860423
 30
135.6777526953191
 70
   192
  0
VERTEX
  5
175B
  8
0
 10
159.9514115053871
 20
5.249675047816512
 30
135.4820101889546
 70
   192
  0
VERTEX
  5
175C
  8
0
 10
156.1449742297701
 20
9.09354390358266
 30
134.947050316997
 70
   192
  0
VERTEX
  5
175D
  8
0
 10
150.9463770864895
 20
10.4999999999855
 30
134.2164351352232
 70
   192
  0
VERTEX
  5
175E
  8
0
 10
145.7477915153519
 20
9.09353204765289
 30
133.485821579759
 70
   192
  0
VERTEX
  5
175F
  8
0
 10
141.9413309270923
 20
5.24968673369355
 30
132.9508584314231
 70
   192
  0
VERTEX
  5
1760
  8
0
 10
0.0
 20
0.0
 30
0.0
 70
   128
 71
    11
 72
    12
 73
    -1
  0
VERTEX
  5
1761
  8
0
 10
0.0
 20
0.0
 30
0.0
 70
   128
 71
    10
 72
   -11
 73
    -1
  0
VERTEX
  5
1762
  8
0
 10
0.0
 20
0.0
 30
0.0
 70
   128
 71
     9
 72
   -10
 73
    -1
  0
VERTEX
  5
1763
  8
0
 10
0.0
 20
0.0
 30
0.0
 70
   128
 71
     8
 72
    -9
 73
    -1
  0
VERTEX
  5
1764
  8
0
 10
0.0
 20
0.0
 30
0.0
 70
   128
 71
     7
 72
    -8
 73
    -1
  0
VERTEX
  5
1765
  8
0
 10
0.0
 20
0.0
 30
0.0
 70
   128
 71
     6
 72
    -7
 73
    -1
  0
VERTEX
  5
1766
  8
0
 10
0.0
 20
0.0
 30
0.0
 70
   128
 71
     5
 72
    -6
 73
    -1
  0
VERTEX
  5
1767
  8
0
 10
0.0
 20
0.0
 30
0.0
 70
   128
 71
     4
 72
    -5
 73
    -1
  0
VERTEX
  5
1768
  8
0
 10
0.0
 20
0.0
 30
0.0
 70
   128
 71
     3
 72
    -4
 73
    -1
  0
VERTEX
  5
1769
  8
0
 10
0.0
 20
0.0
 30
0.0
 70
   128
 71
     2
 72
    -3
 73
     1
  0
SEQEND
  5
1AC2
  8
0
  0
POLYLINE
  5
176A
  8
0
 66
     1
 10
0.0
 20
0.0
 30
0.0
 70
    64
 71
     4
 72
     2
  0
VERTEX
  5
176B
  8
0
 10
145.6683604823046
 20
-11.00000000001016
 30
137.3120030516887
 70
   192
  0
VERTEX
  5
176C
  8
0
 10
148.7424972555779
 20
-11.89241025335171
 30
138.3748711356352
 70
   192
  0
VERTEX
  5
176D
  8
0
 10
151.9183599131833
 20
-11.89245730358341
 30
138.8212427832701
 70
   192
  0
VERTEX
  5
176E
  8
0
 10
155.1666781235015
 20
-11.0000000000038
 30
138.6469045412163
 70
   192
  0
VERTEX
  5
176F
  8
0
 10
0.0
 20
0.0
 30
0.0
 70
   128
 71
     3
 72
     4
 73
    -1
  0
VERTEX
  5
1770
  8
0
 10
0.0
 20
0.0
 30
0.0
 70
   128
 71
     2
 72
    -3
 73
     1
  0
SEQEND
  5
1AC3
  8
0
  0
POLYLINE
  5
1771
  8
0
 66
     1
 10
0.0
 20
0.0
 30
0.0
 70
    64
 71
    21
 72
    19
  0
VERTEX
  5
1772
  8
0
 10
150.9463770864895
 20
10.4999999999855
 30
134.2164351352232
 70
   192
  0
VERTEX
  5
1773
  8
0
 10
150.906201095696
 20
11.00000220442338
 30
134.50230216363
 70
   192
  0
VERTEX
  5
1774
  8
0
 10
150.9061988056078
 20
11.00000110294202
 30
134.50230376835
 70
   192
  0
VERTEX
  5
1775
  8
0
 10
149.3301229117605
 20
11.00000004084925
 30
134.3469077860437
 70
   192
  0
VERTEX
  5
1776
  8
0
 10
147.7314124881136
 20
10.99999999999953
 30
134.3170961892623
 70
   192
  0
VERTEX
  5
1777
  8
0
 10
145.7477915153519
 20
9.09353204765289
 30
133.485821579759
 70
   192
  0
VERTEX
  5
1778
  8
0
 10
146.0766908250026
 20
11.00000000000211
 30
134.4065816945737
 70
   192
  0
VERTEX
  5
1779
  8
0
 10
138.942632820699
 20
-0.0000000001673175
 30
133.4039552277923
 70
   192
  0
VERTEX
  5
177A
  8
0
 10
140.5485623647124
 20
-0.000000000086979
 30
132.7551175751547
 70
   192
  0
VERTEX
  5
177B
  8
0
 10
141.9413309270923
 20
5.24968673369355
 30
132.9508584314231
 70
   192
  0
VERTEX
  5
177C
  8
0
 10
139.8196033305207
 20
4.52390217959684
 30
133.527205395259
 70
   192
  0
VERTEX
  5
177D
  8
0
 10
141.941342667613
 20
-5.249675047817448
 30
132.9508600814457
 70
   192
  0
VERTEX
  5
177E
  8
0
 10
139.8194462028139
 20
-4.523974031012995
 30
133.5271833123793
 70
   192
  0
VERTEX
  5
177F
  8
0
 10
142.3204934887858
 20
-8.380337425965857
 30
133.87868258558
 70
   192
  0
VERTEX
  5
1780
  8
0
 10
145.7477799432299
 20
-9.093543903583596
 30
133.4858199534033
 70
   192
  0
VERTEX
  5
1781
  8
0
 10
146.076690825005
 20
-11.00000000000509
 30
134.4065816945192
 70
   192
  0
VERTEX
  5
1782
  8
0
 10
147.731754349527
 20
-11.0000000000005
 30
134.3170740365541
 70
   192
  0
VERTEX
  5
1783
  8
0
 10
149.330528290089
 20
-11.00000000000047
 30
134.3469287252365
 70
   192
  0
VERTEX
  5
1784
  8
0
 10
150.9463770864789
 20
-10.49999999997239
 30
134.2164351352462
 70
   192
  0
VERTEX
  5
1785
  8
0
 10
150.9062010957426
 20
-11.00000220384413
 30
134.5023021632982
 70
   192
  0
VERTEX
  5
1786
  8
0
 10
142.3206215079819
 20
8.38022069220962
 30
133.8787005775314
 70
   192
  0
VERTEX
  5
1787
  8
0
 10
0.0
 20
0.0
 30
0.0
 70
   128
 71
     1
 72
     2
 73
     3
  0
VERTEX
  5
1788
  8
0
 10
0.0
 20
0.0
 30
0.0
 70
   128
 71
     3
 72
     4
 73
     1
  0
VERTEX
  5
1789
  8
0
 10
0.0
 20
0.0
 30
0.0
 70
   128
 71
     5
 72
     6
 73
     1
  0
VERTEX
  5
178A
  8
0
 10
0.0
 20
0.0
 30
0.0
 70
   128
 71
     4
 72
     5
 73
     1
  0
VERTEX
  5
178B
  8
0
 10
0.0
 20
0.0
 30
0.0
 70
   128
 71
     5
 72
     7
 73
     6
  0
VERTEX
  5
178C
  8
0
 10
0.0
 20
0.0
 30
0.0
 70
   128
 71
     8
 72
     9
 73
    10
  0
VERTEX
  5
178D
  8
0
 10
0.0
 20
0.0
 30
0.0
 70
   128
 71
    11
 72
     8
 73
    10
  0
VERTEX
  5
178E
  8
0
 10
0.0
 20
0.0
 30
0.0
 70
   128
 71
    12
 72
    13
 73
    14
  0
VERTEX
  5
178F
  8
0
 10
0.0
 20
0.0
 30
0.0
 70
   128
 71
     9
 72
     8
 73
    13
  0
VERTEX
  5
1790
  8
0
 10
0.0
 20
0.0
 30
0.0
 70
   128
 71
    12
 72
     9
 73
    13
  0
VERTEX
  5
1791
  8
0
 10
0.0
 20
0.0
 30
0.0
 70
   128
 71
    15
 72
    16
 73
    17
  0
VERTEX
  5
1792
  8
0
 10
0.0
 20
0.0
 30
0.0
 70
   128
 71
    18
 72
    19
 73
    15
  0
VERTEX
  5
1793
  8
0
 10
0.0
 20
0.0
 30
0.0
 70
   128
 71
    17
 72
    18
 73
    15
  0
VERTEX
  5
1794
  8
0
 10
0.0
 20
0.0
 30
0.0
 70
   128
 71
    18
 72
    20
 73
    19
  0
VERTEX
  5
1795
  8
0
 10
0.0
 20
0.0
 30
0.0
 70
   128
 71
     6
 72
     7
 73
    21
  0
VERTEX
  5
1796
  8
0
 10
0.0
 20
0.0
 30
0.0
 70
   128
 71
    10
 72
     6
 73
    21
  0
VERTEX
  5
1797
  8
0
 10
0.0
 20
0.0
 30
0.0
 70
   128
 71
    21
 72
    11
 73
    10
  0
VERTEX
  5
1798
  8
0
 10
0.0
 20
0.0
 30
0.0
 70
   128
 71
    15
 72
    12
 73
    14
  0
VERTEX
  5
1799
  8
0
 10
0.0
 20
0.0
 30
0.0
 70
   128
 71
    16
 72
    15
 73
    14
  0
SEQEND
  5
1AC4
  8
0
  0
POLYLINE
  5
179A
  8
0
 66
     1
 10
0.0
 20
0.0
 30
0.0
 70
    64
 71
     9
 72
     7
  0
VERTEX
  5
179B
  8
0
 10
155.1666781235015
 20
-11.0000000000038
 30
138.6469045412163
 70
   192
  0
VERTEX
  5
179C
  8
0
 10
155.5750084661945
 20
-10.99999999999069
 30
135.7414831841101
 70
   192
  0
VERTEX
  5
179D
  8
0
 10
154.0090527929971
 20
-11.00000000000047
 30
135.1993608860718
 70
   192
  0
VERTEX
  5
179E
  8
0
 10
152.4640558307723
 20
-11.00000004082893
 30
134.7873532195684
 70
   192
  0
VERTEX
  5
179F
  8
0
 10
150.9062008301142
 20
-11.00000110236888
 30
134.5023040525268
 70
   192
  0
VERTEX
  5
17A0
  8
0
 10
149.330528290089
 20
-11.00000000000047
 30
134.3469287252365
 70
   192
  0
VERTEX
  5
17A1
  8
0
 10
147.731754349527
 20
-11.0000000000005
 30
134.3170740365541
 70
   192
  0
VERTEX
  5
17A2
  8
0
 10
146.076690824999
 20
-11.00000000000153
 30
134.4065816945732
 70
   192
  0
VERTEX
  5
17A3
  8
0
 10
145.6683604823097
 20
-11.00000000000665
 30
137.3120030516894
 70
   192
  0
VERTEX
  5
17A4
  8
0
 10
0.0
 20
0.0
 30
0.0
 70
   128
 71
     1
 72
     2
 73
    -3
  0
VERTEX
  5
17A5
  8
0
 10
0.0
 20
0.0
 30
0.0
 70
   128
 71
     3
 72
    -4
 73
    -1
  0
VERTEX
  5
17A6
  8
0
 10
0.0
 20
0.0
 30
0.0
 70
   128
 71
    -5
 72
     9
 73
    -1
  0
VERTEX
  5
17A7
  8
0
 10
0.0
 20
0.0
 30
0.0
 70
   128
 71
     4
 72
    -5
 73
    -1
  0
VERTEX
  5
17A8
  8
0
 10
0.0
 20
0.0
 30
0.0
 70
   128
 71
     5
 72
    -6
 73
    -9
  0
VERTEX
  5
17A9
  8
0
 10
0.0
 20
0.0
 30
0.0
 70
   128
 71
     6
 72
    -7
 73
    -9
  0
VERTEX
  5
17AA
  8
0
 10
0.0
 20
0.0
 30
0.0
 70
   128
 71
     7
 72
     8
 73
    -9
  0
SEQEND
  5
1AC5
  8
0
  0
POLYLINE
  5
17AB
  8
0
 66
     1
 10
0.0
 20
0.0
 30
0.0
 70
    64
 71
    19
 72
    17
  0
VERTEX
  5
17AC
  8
0
 10
161.8320959605669
 20
4.523902179722642
 30
136.6208594834159
 70
   192
  0
VERTEX
  5
17AD
  8
0
 10
161.7550164695159
 20
-0.0000000000004875
 30
145.3288522750657
 70
   192
  0
VERTEX
  5
17AE
  8
0
 10
158.2019921432776
 20
8.662058069534721
 30
144.8295072705382
 70
   192
  0
VERTEX
  5
17AF
  8
0
 10
159.3310777831245
 20
8.380220692239835
 30
136.2693643011461
 70
   192
  0
VERTEX
  5
17B0
  8
0
 10
162.709066470468
 20
0.0000000000829475
 30
136.7441096508481
 70
   192
  0
VERTEX
  5
17B1
  8
0
 10
161.5770360027987
 20
-0.0000000000005042
 30
144.798924965475
 70
   192
  0
VERTEX
  5
17B2
  8
0
 10
155.1666781234985
 20
10.99999999998967
 30
138.6469045412349
 70
   192
  0
VERTEX
  5
17B3
  8
0
 10
149.6242326274316
 20
12.2499999999995
 30
143.6239817883045
 70
   192
  0
VERTEX
  5
17B4
  8
0
 10
151.9186620470778
 20
11.89241025331656
 30
138.8212519866457
 70
   192
  0
VERTEX
  5
17B5
  8
0
 10
148.7427902220272
 20
11.89245730353776
 30
138.3749455682728
 70
   192
  0
VERTEX
  5
17B6
  8
0
 10
141.0464731115857
 20
8.662058069534673
 30
142.4184563060709
 70
   192
  0
VERTEX
  5
17B7
  8
0
 10
145.668360482302
 20
10.99999999999604
 30
137.3120030517073
 70
   192
  0
VERTEX
  5
17B8
  8
0
 10
139.8196033305207
 20
4.52390217959684
 30
133.527205395259
 70
   192
  0
VERTEX
  5
17B9
  8
0
 10
137.4934487853475
 20
-0.0000000000005484
 30
141.9191113015434
 70
   192
  0
VERTEX
  5
17BA
  8
0
 10
137.8645950043787
 20
-0.0000000000004897
 30
141.0745928655897
 70
   192
  0
VERTEX
  5
17BB
  8
0
 10
138.9426328206947
 20
-0.0000000000004629
 30
133.4039552277917
 70
   192
  0
VERTEX
  5
17BC
  8
0
 10
142.3206215079819
 20
8.38022069220962
 30
133.8787005775314
 70
   192
  0
VERTEX
  5
17BD
  8
0
 10
155.575008466194
 20
10.99999999998994
 30
135.7414831841101
 70
   192
  0
VERTEX
  5
17BE
  8
0
 10
146.0766908250026
 20
11.00000000000211
 30
134.4065816945737
 70
   192
  0
VERTEX
  5
17BF
  8
0
 10
0.0
 20
0.0
 30
0.0
 70
   128
 71
     1
 72
     2
 73
     3
  0
VERTEX
  5
17C0
  8
0
 10
0.0
 20
0.0
 30
0.0
 70
   128
 71
     4
 72
     1
 73
     3
  0
VERTEX
  5
17C1
  8
0
 10
0.0
 20
0.0
 30
0.0
 70
   128
 71
     1
 72
     5
 73
     6
  0
VERTEX
  5
17C2
  8
0
 10
0.0
 20
0.0
 30
0.0
 70
   128
 71
     6
 72
     2
 73
     1
  0
VERTEX
  5
17C3
  8
0
 10
0.0
 20
0.0
 30
0.0
 70
   128
 71
     7
 72
     3
 73
     8
  0
VERTEX
  5
17C4
  8
0
 10
0.0
 20
0.0
 30
0.0
 70
   128
 71
     9
 72
     7
 73
     8
  0
VERTEX
  5
17C5
  8
0
 10
0.0
 20
0.0
 30
0.0
 70
   128
 71
    10
 72
     8
 73
    11
  0
VERTEX
  5
17C6
  8
0
 10
0.0
 20
0.0
 30
0.0
 70
   128
 71
    12
 72
    10
 73
    11
  0
VERTEX
  5
17C7
  8
0
 10
0.0
 20
0.0
 30
0.0
 70
   128
 71
    13
 72
    14
 73
    15
  0
VERTEX
  5
17C8
  8
0
 10
0.0
 20
0.0
 30
0.0
 70
   128
 71
    15
 72
    16
 73
    13
  0
VERTEX
  5
17C9
  8
0
 10
0.0
 20
0.0
 30
0.0
 70
   128
 71
    14
 72
    13
 73
    17
  0
VERTEX
  5
17CA
  8
0
 10
0.0
 20
0.0
 30
0.0
 70
   128
 71
    11
 72
    14
 73
    17
  0
VERTEX
  5
17CB
  8
0
 10
0.0
 20
0.0
 30
0.0
 70
   128
 71
     7
 72
    18
 73
     4
  0
VERTEX
  5
17CC
  8
0
 10
0.0
 20
0.0
 30
0.0
 70
   128
 71
     3
 72
     7
 73
     4
  0
VERTEX
  5
17CD
  8
0
 10
0.0
 20
0.0
 30
0.0
 70
   128
 71
    17
 72
    19
 73
    12
  0
VERTEX
  5
17CE
  8
0
 10
0.0
 20
0.0
 30
0.0
 70
   128
 71
    11
 72
    17
 73
    12
  0
VERTEX
  5
17CF
  8
0
 10
0.0
 20
0.0
 30
0.0
 70
   128
 71
     8
 72
    10
 73
     9
  0
SEQEND
  5
1AC6
  8
0
  0
POLYLINE
  5
17D0
  8
0
 66
     1
 10
0.0
 20
0.0
 30
0.0
 70
    64
 71
     8
 72
     6
  0
VERTEX
  5
17D1
  8
0
 10
17.2499999999912
 20
-12.75000000088359
 30
5.000000000000039
 70
   192
  0
VERTEX
  5
17D2
  8
0
 10
17.24999999999739
 20
-12.75000000026196
 30
47.0957077237667
 70
   192
  0
VERTEX
  5
17D3
  8
0
 10
17.24999999999967
 20
-12.75000000003303
 30
89.19141544753336
 70
   192
  0
VERTEX
  5
17D4
  8
0
 10
17.25
 20
-12.75000000000046
 30
131.2871231713
 70
   192
  0
VERTEX
  5
17D5
  8
0
 10
17.25
 20
12.74999999999954
 30
131.2871231713002
 70
   192
  0
VERTEX
  5
17D6
  8
0
 10
17.24999999999967
 20
12.75000000003242
 30
89.19141544753346
 70
   192
  0
VERTEX
  5
17D7
  8
0
 10
17.24999999999739
 20
12.75000000026164
 30
47.09570772376679
 70
   192
  0
VERTEX
  5
17D8
  8
0
 10
17.2499999999912
 20
12.75000000088356
 30
5.00000000000013
 70
   192
  0
VERTEX
  5
17D9
  8
0
 10
0.0
 20
0.0
 30
0.0
 70
   128
 71
     4
 72
     5
 73
    -6
  0
VERTEX
  5
17DA
  8
0
 10
0.0
 20
0.0
 30
0.0
 70
   128
 71
     3
 72
    -4
 73
    -6
  0
VERTEX
  5
17DB
  8
0
 10
0.0
 20
0.0
 30
0.0
 70
   128
 71
    -7
 72
     2
 73
    -3
  0
VERTEX
  5
17DC
  8
0
 10
0.0
 20
0.0
 30
0.0
 70
   128
 71
     6
 72
    -7
 73
    -3
  0
VERTEX
  5
17DD
  8
0
 10
0.0
 20
0.0
 30
0.0
 70
   128
 71
     8
 72
     1
 73
    -2
  0
VERTEX
  5
17DE
  8
0
 10
0.0
 20
0.0
 30
0.0
 70
   128
 71
     7
 72
    -8
 73
    -2
  0
SEQEND
  5
1AC7
  8
0
  0
POLYLINE
  5
17DF
  8
0
 66
     1
 10
0.0
 20
0.0
 30
0.0
 70
    64
 71
    10
 72
     8
  0
VERTEX
  5
17E0
  8
0
 10
17.2499999999912
 20
-12.75000000088359
 30
5.000000000000039
 70
   192
  0
VERTEX
  5
17E1
  8
0
 10
17.24999999999739
 20
-12.75000000026196
 30
47.0957077237667
 70
   192
  0
VERTEX
  5
17E2
  8
0
 10
17.24999999999967
 20
-12.75000000003303
 30
89.19141544753336
 70
   192
  0
VERTEX
  5
17E3
  8
0
 10
17.25
 20
-12.75000000000046
 30
131.2871231713
 70
   192
  0
VERTEX
  5
17E4
  8
0
 10
16.64392951554784
 20
-14.99858174677242
 30
131.2871231713
 70
   192
  0
VERTEX
  5
17E5
  8
0
 10
14.99858174718046
 20
-16.64392951531241
 30
131.2871231713
 70
   192
  0
VERTEX
  5
17E6
  8
0
 10
12.74999998002761
 20
-17.25000000000044
 30
131.287123173
 70
   192
  0
VERTEX
  5
17E7
  8
0
 10
12.74999998120571
 20
-17.24999999998828
 30
5.000000000000028
 70
   192
  0
VERTEX
  5
17E8
  8
0
 10
14.99957807926213
 20
-16.64616693719431
 30
4.999999999999979
 70
   192
  0
VERTEX
  5
17E9
  8
0
 10
16.64616692720812
 20
-14.99957809655892
 30
4.999999999999983
 70
   192
  0
VERTEX
  5
17EA
  8
0
 10
0.0
 20
0.0
 30
0.0
 70
   128
 71
     9
 72
     8
 73
     7
  0
VERTEX
  5
17EB
  8
0
 10
0.0
 20
0.0
 30
0.0
 70
   128
 71
     9
 72
     7
 73
     6
  0
VERTEX
  5
17EC
  8
0
 10
0.0
 20
0.0
 30
0.0
 70
   128
 71
     6
 72
     5
 73
   -10
  0
VERTEX
  5
17ED
  8
0
 10
0.0
 20
0.0
 30
0.0
 70
   128
 71
    -6
 72
    10
 73
     9
  0
VERTEX
  5
17EE
  8
0
 10
0.0
 20
0.0
 30
0.0
 70
   128
 71
     2
 72
     1
 73
   -10
  0
VERTEX
  5
17EF
  8
0
 10
0.0
 20
0.0
 30
0.0
 70
   128
 71
    10
 72
     5
 73
     3
  0
VERTEX
  5
17F0
  8
0
 10
0.0
 20
0.0
 30
0.0
 70
   128
 71
    10
 72
     3
 73
    -2
  0
VERTEX
  5
17F1
  8
0
 10
0.0
 20
0.0
 30
0.0
 70
   128
 71
     5
 72
     4
 73
     3
  0
SEQEND
  5
1AC8
  8
0
  0
POLYLINE
  5
17F2
  8
0
 66
     1
 10
0.0
 20
0.0
 30
0.0
 70
    64
 71
    11
 72
     9
  0
VERTEX
  5
17F3
  8
0
 10
12.74999997987202
 20
17.24999999999998
 30
5.000000000000154
 70
   192
  0
VERTEX
  5
17F4
  8
0
 10
12.75000000032001
 20
17.24999999999954
 30
131.2871231713001
 70
   192
  0
VERTEX
  5
17F5
  8
0
 10
14.99858174709262
 20
16.64392951536187
 30
131.2871231713001
 70
   192
  0
VERTEX
  5
17F6
  8
0
 10
16.64392951552224
 20
14.99858174681525
 30
131.2871231713002
 70
   192
  0
VERTEX
  5
17F7
  8
0
 10
17.25
 20
12.74999999999954
 30
131.2871231713002
 70
   192
  0
VERTEX
  5
17F8
  8
0
 10
17.24999999999967
 20
12.75000000003242
 30
89.19141544753346
 70
   192
  0
VERTEX
  5
17F9
  8
0
 10
17.24999999999739
 20
12.75000000026164
 30
47.09570772376679
 70
   192
  0
VERTEX
  5
17FA
  8
0
 10
17.2499999999912
 20
12.75000000088356
 30
5.00000000000013
 70
   192
  0
VERTEX
  5
17FB
  8
0
 10
16.6461669271821
 20
14.99957809660375
 30
5.000000000000151
 70
   192
  0
VERTEX
  5
17FC
  8
0
 10
14.99957807917228
 20
16.64616693724603
 30
5.000000000000123
 70
   192
  0
VERTEX
  5
17FD
  8
0
 10
12.74999998075559
 20
17.24999999999119
 30
5.000000000000154
 70
   192
  0
VERTEX
  5
17FE
  8
0
 10
0.0
 20
0.0
 30
0.0
 70
   128
 71
     6
 72
     5
 73
    -4
  0
VERTEX
  5
17FF
  8
0
 10
0.0
 20
0.0
 30
0.0
 70
   128
 71
     4
 72
     9
 73
     7
  0
VERTEX
  5
1800
  8
0
 10
0.0
 20
0.0
 30
0.0
 70
   128
 71
     4
 72
     7
 73
    -6
  0
VERTEX
  5
1801
  8
0
 10
0.0
 20
0.0
 30
0.0
 70
   128
 71
     9
 72
     8
 73
     7
  0
VERTEX
  5
1802
  8
0
 10
0.0
 20
0.0
 30
0.0
 70
   128
 71
     4
 72
     3
 73
   -10
  0
VERTEX
  5
1803
  8
0
 10
0.0
 20
0.0
 30
0.0
 70
   128
 71
    -4
 72
    10
 73
     9
  0
VERTEX
  5
1804
  8
0
 10
0.0
 20
0.0
 30
0.0
 70
   128
 71
     3
 72
     2
 73
    11
  0
VERTEX
  5
1805
  8
0
 10
0.0
 20
0.0
 30
0.0
 70
   128
 71
     3
 72
    11
 73
    10
  0
VERTEX
  5
1806
  8
0
 10
0.0
 20
0.0
 30
0.0
 70
   128
 71
     2
 72
     1
 73
    11
  0
SEQEND
  5
1AC9
  8
0
  0
POLYLINE
  5
1807
  8
0
 66
     1
 10
0.0
 20
0.0
 30
0.0
 70
    64
 71
    11
 72
     9
  0
VERTEX
  5
1808
  8
0
 10
-12.74999999888001
 20
-17.25
 30
5.000000000000028
 70
   192
  0
VERTEX
  5
1809
  8
0
 10
-12.74999999888
 20
-17.25000000000053
 30
154.7
 70
   192
  0
VERTEX
  5
180A
  8
0
 10
-14.99988038689022
 20
-16.64693012628153
 30
154.6999999999999
 70
   192
  0
VERTEX
  5
180B
  8
0
 10
-16.646930125956
 20
-14.99988038745365
 30
154.7
 70
   192
  0
VERTEX
  5
180C
  8
0
 10
-17.25
 20
-12.74999999976554
 30
154.7
 70
   192
  0
VERTEX
  5
180D
  8
0
 10
-17.24999999999966
 20
-12.74999999963272
 30
104.8000000000001
 70
   192
  0
VERTEX
  5
180E
  8
0
 10
-17.24999999999729
 20
-12.74999999980069
 30
54.90000000000003
 70
   192
  0
VERTEX
  5
180F
  8
0
 10
-17.24999999999088
 20
-12.75000000041359
 30
5.000000000000028
 70
   192
  0
VERTEX
  5
1810
  8
0
 10
-16.64624936694086
 20
-14.99961480063507
 30
5.000000000000032
 70
   192
  0
VERTEX
  5
1811
  8
0
 10
-14.99961480007227
 20
-16.6462493672658
 30
5.000000000000024
 70
   192
  0
VERTEX
  5
1812
  8
0
 10
-12.7500000000581
 20
-17.24999999998785
 30
5.000000000000028
 70
   192
  0
VERTEX
  5
1813
  8
0
 10
0.0
 20
0.0
 30
0.0
 70
   128
 71
     6
 72
     5
 73
    -4
  0
VERTEX
  5
1814
  8
0
 10
0.0
 20
0.0
 30
0.0
 70
   128
 71
     4
 72
     9
 73
     7
  0
VERTEX
  5
1815
  8
0
 10
0.0
 20
0.0
 30
0.0
 70
   128
 71
     4
 72
     7
 73
    -6
  0
VERTEX
  5
1816
  8
0
 10
0.0
 20
0.0
 30
0.0
 70
   128
 71
     9
 72
     8
 73
     7
  0
VERTEX
  5
1817
  8
0
 10
0.0
 20
0.0
 30
0.0
 70
   128
 71
     4
 72
     3
 73
   -10
  0
VERTEX
  5
1818
  8
0
 10
0.0
 20
0.0
 30
0.0
 70
   128
 71
    -4
 72
    10
 73
     9
  0
VERTEX
  5
1819
  8
0
 10
0.0
 20
0.0
 30
0.0
 70
   128
 71
     3
 72
     2
 73
    11
  0
VERTEX
  5
181A
  8
0
 10
0.0
 20
0.0
 30
0.0
 70
   128
 71
     3
 72
    11
 73
    10
  0
VERTEX
  5
181B
  8
0
 10
0.0
 20
0.0
 30
0.0
 70
   128
 71
     2
 72
     1
 73
    11
  0
SEQEND
  5
1ACA
  8
0
  0
POLYLINE
  5
181C
  8
0
 66
     1
 10
0.0
 20
0.0
 30
0.0
 70
    64
 71
    10
 72
     8
  0
VERTEX
  5
181D
  8
0
 10
-17.24999999999088
 20
12.75000000065251
 30
5.000000000000143
 70
   192
  0
VERTEX
  5
181E
  8
0
 10
-17.24999999999729
 20
12.75000000003556
 30
54.90000000000015
 70
   192
  0
VERTEX
  5
181F
  8
0
 10
-17.24999999999966
 20
12.7499999998364
 30
104.8000000000001
 70
   192
  0
VERTEX
  5
1820
  8
0
 10
-17.25
 20
12.74999999988446
 30
154.7000000000001
 70
   192
  0
VERTEX
  5
1821
  8
0
 10
-16.64693012568927
 20
14.99988038791437
 30
154.7000000000001
 70
   192
  0
VERTEX
  5
1822
  8
0
 10
-14.99988038617427
 20
16.64693012669368
 30
154.7000000000002
 70
   192
  0
VERTEX
  5
1823
  8
0
 10
-12.74999999775999
 20
17.24999999999946
 30
154.7000000000001
 70
   192
  0
VERTEX
  5
1824
  8
0
 10
-12.74999999864514
 20
17.24999999999086
 30
5.000000000000154
 70
   192
  0
VERTEX
  5
1825
  8
0
 10
-14.99961479935812
 20
16.6462493676775
 30
5.000000000000148
 70
   192
  0
VERTEX
  5
1826
  8
0
 10
-16.64624936667478
 20
14.99961480109479
 30
5.000000000000148
 70
   192
  0
VERTEX
  5
1827
  8
0
 10
0.0
 20
0.0
 30
0.0
 70
   128
 71
     9
 72
     8
 73
     7
  0
VERTEX
  5
1828
  8
0
 10
0.0
 20
0.0
 30
0.0
 70
   128
 71
     9
 72
     7
 73
     6
  0
VERTEX
  5
1829
  8
0
 10
0.0
 20
0.0
 30
0.0
 70
   128
 71
     6
 72
     5
 73
   -10
  0
VERTEX
  5
182A
  8
0
 10
0.0
 20
0.0
 30
0.0
 70
   128
 71
    -6
 72
    10
 73
     9
  0
VERTEX
  5
182B
  8
0
 10
0.0
 20
0.0
 30
0.0
 70
   128
 71
     2
 72
     1
 73
   -10
  0
VERTEX
  5
182C
  8
0
 10
0.0
 20
0.0
 30
0.0
 70
   128
 71
    10
 72
     5
 73
     3
  0
VERTEX
  5
182D
  8
0
 10
0.0
 20
0.0
 30
0.0
 70
   128
 71
    10
 72
     3
 73
    -2
  0
VERTEX
  5
182E
  8
0
 10
0.0
 20
0.0
 30
0.0
 70
   128
 71
     5
 72
     4
 73
     3
  0
SEQEND
  5
1ACB
  8
0
  0
POLYLINE
  5
182F
  8
0
 66
     1
 10
0.0
 20
0.0
 30
0.0
 70
    64
 71
     8
 72
     6
  0
VERTEX
  5
1830
  8
0
 10
-17.24999999999088
 20
12.75000000065251
 30
5.000000000000143
 70
   192
  0
VERTEX
  5
1831
  8
0
 10
-17.24999999999729
 20
12.75000000003556
 30
54.90000000000015
 70
   192
  0
VERTEX
  5
1832
  8
0
 10
-17.24999999999966
 20
12.7499999998364
 30
104.8000000000001
 70
   192
  0
VERTEX
  5
1833
  8
0
 10
-17.25
 20
12.74999999988446
 30
154.7000000000001
 70
   192
  0
VERTEX
  5
1834
  8
0
 10
-17.25
 20
-12.74999999976554
 30
154.7
 70
   192
  0
VERTEX
  5
1835
  8
0
 10
-17.24999999999966
 20
-12.74999999963272
 30
104.8000000000001
 70
   192
  0
VERTEX
  5
1836
  8
0
 10
-17.24999999999729
 20
-12.74999999980069
 30
54.90000000000003
 70
   192
  0
VERTEX
  5
1837
  8
0
 10
-17.24999999999088
 20
-12.75000000041359
 30
5.000000000000028
 70
   192
  0
VERTEX
  5
1838
  8
0
 10
0.0
 20
0.0
 30
0.0
 70
   128
 71
     4
 72
     5
 73
    -6
  0
VERTEX
  5
1839
  8
0
 10
0.0
 20
0.0
 30
0.0
 70
   128
 71
     3
 72
    -4
 73
    -6
  0
VERTEX
  5
183A
  8
0
 10
0.0
 20
0.0
 30
0.0
 70
   128
 71
    -7
 72
     2
 73
    -3
  0
VERTEX
  5
183B
  8
0
 10
0.0
 20
0.0
 30
0.0
 70
   128
 71
     6
 72
    -7
 73
    -3
  0
VERTEX
  5
183C
  8
0
 10
0.0
 20
0.0
 30
0.0
 70
   128
 71
     8
 72
     1
 73
    -2
  0
VERTEX
  5
183D
  8
0
 10
0.0
 20
0.0
 30
0.0
 70
   128
 71
     7
 72
    -8
 73
    -2
  0
SEQEND
  5
1ACC
  8
0
  0
ENDBLK
  5
1A9D
  8
0
  0
BLOCK
  8
0
  2
*X5
 70
     1
 10
0.0
 20
0.0
 30
0.0
  3
*X5
  1

  0
POLYLINE
  5
183F
  8
0
 66
     1
 10
0.0
 20
0.0
 30
0.0
 70
    64
 71
     4
 72
     2
  0
VERTEX
  5
1840
  8
0
 10
-8.825
 20
-3.075000000000629
 30
179.8134359866001
 70
   192
  0
VERTEX
  5
1841
  8
0
 10
-8.825
 20
2.924999999999373
 30
179.8134359866001
 70
   192
  0
VERTEX
  5
1842
  8
0
 10
-8.825
 20
2.924999999999414
 30
167.7000000000001
 70
   192
  0
VERTEX
  5
1843
  8
0
 10
-8.825
 20
-3.075000000000584
 30
167.7000000000001
 70
   192
  0
VERTEX
  5
1844
  8
0
 10
0.0
 20
0.0
 30
0.0
 70
   128
 71
     3
 72
     4
 73
    -1
  0
VERTEX
  5
1845
  8
0
 10
0.0
 20
0.0
 30
0.0
 70
   128
 71
     2
 72
    -3
 73
     1
  0
SEQEND
  5
1ACF
  8
0
  0
POLYLINE
  5
1846
  8
0
 66
     1
 10
0.0
 20
0.0
 30
0.0
 70
    64
 71
     8
 72
     6
  0
VERTEX
  5
1847
  8
0
 10
-7.77590505420687
 20
4.355623861148954
 30
167.7000000000001
 70
   192
  0
VERTEX
  5
1848
  8
0
 10
-8.321819030130607
 20
4.045215733028616
 30
167.7000000000001
 70
   192
  0
VERTEX
  5
1849
  8
0
 10
-8.344961054032353
 20
4.024853924194493
 30
179.8476407395783
 70
   192
  0
VERTEX
  5
184A
  8
0
 10
-8.825
 20
2.924999999999414
 30
167.7000000000001
 70
   192
  0
VERTEX
  5
184B
  8
0
 10
-8.825
 20
2.924999999999373
 30
179.8134359866001
 70
   192
  0
VERTEX
  5
184C
  8
0
 10
-8.696383799452782
 20
3.532701196462054
 30
179.822619218415
 70
   192
  0
VERTEX
  5
184D
  8
0
 10
-8.693052064081536
 20
3.538974769284716
 30
167.7000000000001
 70
   192
  0
VERTEX
  5
184E
  8
0
 10
-7.77590505420686
 20
4.355623861148915
 30
179.8880161960001
 70
   192
  0
VERTEX
  5
184F
  8
0
 10
0.0
 20
0.0
 30
0.0
 70
   128
 71
     1
 72
     2
 73
     3
  0
VERTEX
  5
1850
  8
0
 10
0.0
 20
0.0
 30
0.0
 70
   128
 71
     4
 72
     5
 73
     6
  0
VERTEX
  5
1851
  8
0
 10
0.0
 20
0.0
 30
0.0
 70
   128
 71
     4
 72
     6
 73
     7
  0
VERTEX
  5
1852
  8
0
 10
0.0
 20
0.0
 30
0.0
 70
   128
 71
     7
 72
     6
 73
     3
  0
VERTEX
  5
1853
  8
0
 10
0.0
 20
0.0
 30
0.0
 70
   128
 71
     7
 72
     3
 73
     2
  0
VERTEX
  5
1854
  8
0
 10
0.0
 20
0.0
 30
0.0
 70
   128
 71
     3
 72
     8
 73
     1
  0
SEQEND
  5
1AD0
  8
0
  0
POLYLINE
  5
1855
  8
0
 66
     1
 10
0.0
 20
0.0
 30
0.0
 70
    64
 71
     8
 72
     6
  0
VERTEX
  5
1856
  8
0
 10
-8.69081479551985
 20
-3.69389487586548
 30
167.7000000000001
 70
   192
  0
VERTEX
  5
1857
  8
0
 10
-8.313710627204744
 20
-4.202356296246429
 30
167.7000000000001
 70
   192
  0
VERTEX
  5
1858
  8
0
 10
-8.337846003190501
 20
-4.181409344606544
 30
179.8481545827284
 70
   192
  0
VERTEX
  5
1859
  8
0
 10
-7.76041434669331
 20
-4.510414346694146
 30
167.7000000000001
 70
   192
  0
VERTEX
  5
185A
  8
0
 10
-7.76041434669311
 20
-4.510414346694247
 30
179.8891174312
 70
   192
  0
VERTEX
  5
185B
  8
0
 10
-8.825
 20
-3.075000000000629
 30
179.8134359866001
 70
   192
  0
VERTEX
  5
185C
  8
0
 10
-8.825
 20
-3.075000000000584
 30
167.7000000000001
 70
   192
  0
VERTEX
  5
185D
  8
0
 10
-8.693679127576422
 20
-3.687632284530223
 30
179.8227714176371
 70
   192
  0
VERTEX
  5
185E
  8
0
 10
0.0
 20
0.0
 30
0.0
 70
   128
 71
     1
 72
     2
 73
     3
  0
VERTEX
  5
185F
  8
0
 10
0.0
 20
0.0
 30
0.0
 70
   128
 71
     2
 72
     4
 73
     5
  0
VERTEX
  5
1860
  8
0
 10
0.0
 20
0.0
 30
0.0
 70
   128
 71
     6
 72
     7
 73
     1
  0
VERTEX
  5
1861
  8
0
 10
0.0
 20
0.0
 30
0.0
 70
   128
 71
     6
 72
     1
 73
     8
  0
VERTEX
  5
1862
  8
0
 10
0.0
 20
0.0
 30
0.0
 70
   128
 71
     8
 72
     1
 73
     3
  0
VERTEX
  5
1863
  8
0
 10
0.0
 20
0.0
 30
0.0
 70
   128
 71
     3
 72
     2
 73
     5
  0
SEQEND
  5
1AD1
  8
0
  0
POLYLINE
  5
1864
  8
0
 66
     1
 10
0.0
 20
0.0
 30
0.0
 70
    64
 71
     8
 72
     6
  0
VERTEX
  5
1865
  8
0
 10
-8.757658835052043
 20
-3.075000000000584
 30
167.450157583677
 70
   192
  0
VERTEX
  5
1866
  8
0
 10
-8.757658835052043
 20
2.924999999999415
 30
167.450157583677
 70
   192
  0
VERTEX
  5
1867
  8
0
 10
-8.574842416323087
 20
2.924999999999416
 30
167.267341164948
 70
   192
  0
VERTEX
  5
1868
  8
0
 10
-8.57484241632309
 20
-3.075000000000584
 30
167.267341164948
 70
   192
  0
VERTEX
  5
1869
  8
0
 10
-8.825
 20
-3.075000000000584
 30
167.7000000000001
 70
   192
  0
VERTEX
  5
186A
  8
0
 10
-8.825
 20
2.924999999999414
 30
167.7000000000001
 70
   192
  0
VERTEX
  5
186B
  8
0
 10
-8.325000000000001
 20
2.924999999999418
 30
167.2000000000001
 70
   192
  0
VERTEX
  5
186C
  8
0
 10
-8.325000000000001
 20
-3.075000000000584
 30
167.2000000000001
 70
   192
  0
VERTEX
  5
186D
  8
0
 10
0.0
 20
0.0
 30
0.0
 70
   128
 71
     1
 72
     2
 73
    -3
  0
VERTEX
  5
186E
  8
0
 10
0.0
 20
0.0
 30
0.0
 70
   128
 71
    -1
 72
     3
 73
     4
  0
VERTEX
  5
186F
  8
0
 10
0.0
 20
0.0
 30
0.0
 70
   128
 71
     5
 72
     6
 73
    -2
  0
VERTEX
  5
1870
  8
0
 10
0.0
 20
0.0
 30
0.0
 70
   128
 71
    -5
 72
     2
 73
     1
  0
VERTEX
  5
1871
  8
0
 10
0.0
 20
0.0
 30
0.0
 70
   128
 71
     4
 72
     3
 73
    -7
  0
VERTEX
  5
1872
  8
0
 10
0.0
 20
0.0
 30
0.0
 70
   128
 71
    -4
 72
     7
 73
     8
  0
SEQEND
  5
1AD2
  8
0
  0
POLYLINE
  5
1873
  8
0
 66
     1
 10
0.0
 20
0.0
 30
0.0
 70
    64
 71
     8
 72
     6
  0
VERTEX
  5
1874
  8
0
 10
-7.329164191742627
 20
4.584733606556854
 30
167.7000000000001
 70
   192
  0
VERTEX
  5
1875
  8
0
 10
-7.286251064504206
 20
4.618074262248698
 30
179.9224324714159
 70
   192
  0
VERTEX
  5
1876
  8
0
 10
-6.982963093186051
 20
4.948244760041392
 30
167.7000000000001
 70
   192
  0
VERTEX
  5
1877
  8
0
 10
-6.953243368579741
 20
4.993889150604187
 30
179.9461291538827
 70
   192
  0
VERTEX
  5
1878
  8
0
 10
-6.77590505420695
 20
5.405623861149105
 30
167.7000000000001
 70
   192
  0
VERTEX
  5
1879
  8
0
 10
-6.77590505420688
 20
5.405623861149341
 30
179.9591062434001
 70
   192
  0
VERTEX
  5
187A
  8
0
 10
-7.77590505420686
 20
4.355623861148915
 30
179.8880161960001
 70
   192
  0
VERTEX
  5
187B
  8
0
 10
-7.77590505420687
 20
4.355623861148954
 30
167.7000000000001
 70
   192
  0
VERTEX
  5
187C
  8
0
 10
0.0
 20
0.0
 30
0.0
 70
   128
 71
     1
 72
     2
 73
     3
  0
VERTEX
  5
187D
  8
0
 10
0.0
 20
0.0
 30
0.0
 70
   128
 71
     3
 72
     4
 73
     5
  0
VERTEX
  5
187E
  8
0
 10
0.0
 20
0.0
 30
0.0
 70
   128
 71
     4
 72
     6
 73
     5
  0
VERTEX
  5
187F
  8
0
 10
0.0
 20
0.0
 30
0.0
 70
   128
 71
     2
 72
     4
 73
     3
  0
VERTEX
  5
1880
  8
0
 10
0.0
 20
0.0
 30
0.0
 70
   128
 71
     7
 72
     2
 73
     1
  0
VERTEX
  5
1881
  8
0
 10
0.0
 20
0.0
 30
0.0
 70
   128
 71
     8
 72
     7
 73
     1
  0
SEQEND
  5
1AD3
  8
0
  0
POLYLINE
  5
1882
  8
0
 66
     1
 10
0.0
 20
0.0
 30
0.0
 70
    64
 71
    12
 72
    10
  0
VERTEX
  5
1883
  8
0
 10
-7.755662073119305
 20
4.29139727620755
 30
167.4501575836769
 70
   192
  0
VERTEX
  5
1884
  8
0
 10
-8.574842416323087
 20
2.924999999999416
 30
167.267341164948
 70
   192
  0
VERTEX
  5
1885
  8
0
 10
-8.757658835052043
 20
2.924999999999415
 30
167.450157583677
 70
   192
  0
VERTEX
  5
1886
  8
0
 10
-7.700706841654633
 20
4.117036255645008
 30
167.2673411649479
 70
   192
  0
VERTEX
  5
1887
  8
0
 10
-8.237034709387672
 20
3.334316512856319
 30
167.2000000000001
 70
   192
  0
VERTEX
  5
1888
  8
0
 10
-8.325000000000001
 20
2.924999999999418
 30
167.2000000000001
 70
   192
  0
VERTEX
  5
1889
  8
0
 10
-7.989546020087015
 20
3.671810488685596
 30
167.2000000000001
 70
   192
  0
VERTEX
  5
188A
  8
0
 10
-7.62560336947112
 20
3.878749240765651
 30
167.2000000000001
 70
   192
  0
VERTEX
  5
188B
  8
0
 10
-8.693052064081536
 20
3.538974769284716
 30
167.7000000000001
 70
   192
  0
VERTEX
  5
188C
  8
0
 10
-8.825
 20
2.924999999999414
 30
167.7000000000001
 70
   192
  0
VERTEX
  5
188D
  8
0
 10
-8.321819030130607
 20
4.045215733028616
 30
167.7000000000001
 70
   192
  0
VERTEX
  5
188E
  8
0
 10
-7.77590505420687
 20
4.355623861148954
 30
167.7000000000001
 70
   192
  0
VERTEX
  5
188F
  8
0
 10
0.0
 20
0.0
 30
0.0
 70
   128
 71
    -1
 72
     2
 73
     3
  0
VERTEX
  5
1890
  8
0
 10
0.0
 20
0.0
 30
0.0
 70
   128
 71
     4
 72
    -2
 73
     1
  0
VERTEX
  5
1891
  8
0
 10
0.0
 20
0.0
 30
0.0
 70
   128
 71
     5
 72
     6
 73
     2
  0
VERTEX
  5
1892
  8
0
 10
0.0
 20
0.0
 30
0.0
 70
   128
 71
    -2
 72
     7
 73
     5
  0
VERTEX
  5
1893
  8
0
 10
0.0
 20
0.0
 30
0.0
 70
   128
 71
     4
 72
     8
 73
     7
  0
VERTEX
  5
1894
  8
0
 10
0.0
 20
0.0
 30
0.0
 70
   128
 71
     4
 72
    -7
 73
     2
  0
VERTEX
  5
1895
  8
0
 10
0.0
 20
0.0
 30
0.0
 70
   128
 71
     9
 72
     3
 73
    10
  0
VERTEX
  5
1896
  8
0
 10
0.0
 20
0.0
 30
0.0
 70
   128
 71
    11
 72
    12
 73
     1
  0
VERTEX
  5
1897
  8
0
 10
0.0
 20
0.0
 30
0.0
 70
   128
 71
     1
 72
     3
 73
    -9
  0
VERTEX
  5
1898
  8
0
 10
0.0
 20
0.0
 30
0.0
 70
   128
 71
    -1
 72
     9
 73
    11
  0
SEQEND
  5
1AD4
  8
0
  0
POLYLINE
  5
1899
  8
0
 66
     1
 10
0.0
 20
0.0
 30
0.0
 70
    64
 71
     8
 72
     6
  0
VERTEX
  5
189A
  8
0
 10
-7.76041434669311
 20
-4.510414346694247
 30
179.8891174312
 70
   192
  0
VERTEX
  5
189B
  8
0
 10
-7.76041434669331
 20
-4.510414346694146
 30
167.7000000000001
 70
   192
  0
VERTEX
  5
189C
  8
0
 10
-7.322209985355038
 20
-4.726707657660969
 30
167.7000000000001
 70
   192
  0
VERTEX
  5
189D
  8
0
 10
-6.976707657660189
 20
-5.072209985355893
 30
167.7000000000001
 70
   192
  0
VERTEX
  5
189E
  8
0
 10
-7.278908237172574
 20
-4.758975120467285
 30
179.922981917645
 70
   192
  0
VERTEX
  5
189F
  8
0
 10
-6.760414346693559
 20
-5.510414346693906
 30
167.7000000000001
 70
   192
  0
VERTEX
  5
18A0
  8
0
 10
-6.945877761495902
 20
-5.116692264433969
 30
179.9466786001117
 70
   192
  0
VERTEX
  5
18A1
  8
0
 10
-6.760414346693599
 20
-5.510414346693807
 30
179.9602074786001
 70
   192
  0
VERTEX
  5
18A2
  8
0
 10
0.0
 20
0.0
 30
0.0
 70
   128
 71
     1
 72
     2
 73
     3
  0
VERTEX
  5
18A3
  8
0
 10
0.0
 20
0.0
 30
0.0
 70
   128
 71
     4
 72
     5
 73
     1
  0
VERTEX
  5
18A4
  8
0
 10
0.0
 20
0.0
 30
0.0
 70
   128
 71
     3
 72
     4
 73
     1
  0
VERTEX
  5
18A5
  8
0
 10
0.0
 20
0.0
 30
0.0
 70
   128
 71
     6
 72
     7
 73
     5
  0
VERTEX
  5
18A6
  8
0
 10
0.0
 20
0.0
 30
0.0
 70
   128
 71
     4
 72
     6
 73
     5
  0
VERTEX
  5
18A7
  8
0
 10
0.0
 20
0.0
 30
0.0
 70
   128
 71
     6
 72
     8
 73
     7
  0
SEQEND
  5
1AD5
  8
0
  0
POLYLINE
  5
18A8
  8
0
 66
     1
 10
0.0
 20
0.0
 30
0.0
 70
    64
 71
    12
 72
    10
  0
VERTEX
  5
18A9
  8
0
 10
-8.757658835052043
 20
-3.075000000000584
 30
167.450157583677
 70
   192
  0
VERTEX
  5
18AA
  8
0
 10
-8.57484241632309
 20
-3.075000000000584
 30
167.267341164948
 70
   192
  0
VERTEX
  5
18AB
  8
0
 10
-7.687799546115373
 20
-4.271027823664928
 30
167.2673411649482
 70
   192
  0
VERTEX
  5
18AC
  8
0
 10
-7.740866807132472
 20
-4.445972697167917
 30
167.4501575836771
 70
   192
  0
VERTEX
  5
18AD
  8
0
 10
-7.984140418136513
 20
-3.82657086416447
 30
167.2000000000001
 70
   192
  0
VERTEX
  5
18AE
  8
0
 10
-7.61527623112898
 20
-4.031942897796372
 30
167.2000000000001
 70
   192
  0
VERTEX
  5
18AF
  8
0
 10
-8.235543197013236
 20
-3.487596583910504
 30
167.2000000000001
 70
   192
  0
VERTEX
  5
18B0
  8
0
 10
-8.325000000000001
 20
-3.075000000000584
 30
167.2000000000001
 70
   192
  0
VERTEX
  5
18B1
  8
0
 10
-8.313710627204744
 20
-4.202356296246429
 30
167.7000000000001
 70
   192
  0
VERTEX
  5
18B2
  8
0
 10
-7.76041434669331
 20
-4.510414346694146
 30
167.7000000000001
 70
   192
  0
VERTEX
  5
18B3
  8
0
 10
-8.69081479551985
 20
-3.69389487586548
 30
167.7000000000001
 70
   192
  0
VERTEX
  5
18B4
  8
0
 10
-8.825
 20
-3.075000000000584
 30
167.7000000000001
 70
   192
  0
VERTEX
  5
18B5
  8
0
 10
0.0
 20
0.0
 30
0.0
 70
   128
 71
     1
 72
     2
 73
    -3
  0
VERTEX
  5
18B6
  8
0
 10
0.0
 20
0.0
 30
0.0
 70
   128
 71
    -1
 72
     3
 73
     4
  0
VERTEX
  5
18B7
  8
0
 10
0.0
 20
0.0
 30
0.0
 70
   128
 71
     5
 72
     6
 73
     3
  0
VERTEX
  5
18B8
  8
0
 10
0.0
 20
0.0
 30
0.0
 70
   128
 71
    -3
 72
     7
 73
     5
  0
VERTEX
  5
18B9
  8
0
 10
0.0
 20
0.0
 30
0.0
 70
   128
 71
     2
 72
     8
 73
     7
  0
VERTEX
  5
18BA
  8
0
 10
0.0
 20
0.0
 30
0.0
 70
   128
 71
     2
 72
    -7
 73
     3
  0
VERTEX
  5
18BB
  8
0
 10
0.0
 20
0.0
 30
0.0
 70
   128
 71
     9
 72
     4
 73
    10
  0
VERTEX
  5
18BC
  8
0
 10
0.0
 20
0.0
 30
0.0
 70
   128
 71
    11
 72
    12
 73
     1
  0
VERTEX
  5
18BD
  8
0
 10
0.0
 20
0.0
 30
0.0
 70
   128
 71
     1
 72
     4
 73
    -9
  0
VERTEX
  5
18BE
  8
0
 10
0.0
 20
0.0
 30
0.0
 70
   128
 71
    -1
 72
     9
 73
    11
  0
SEQEND
  5
1AD6
  8
0
  0
POLYLINE
  5
18BF
  8
0
 66
     1
 10
0.0
 20
0.0
 30
0.0
 70
    64
 71
    30
 72
    28
  0
VERTEX
  5
18C0
  8
0
 10
-4.584809678448241
 20
-6.075000000000344
 30
167.2000000000001
 70
   192
  0
VERTEX
  5
18C1
  8
0
 10
-4.987819065939319
 20
-5.75407031976173
 30
167.2000000000001
 70
   192
  0
VERTEX
  5
18C2
  8
0
 10
-5.330324441074806
 20
-5.369159955403688
 30
167.2000000000001
 70
   192
  0
VERTEX
  5
18C3
  8
0
 10
-5.602252197916861
 20
-4.931589708331085
 30
167.2000000000001
 70
   192
  0
VERTEX
  5
18C4
  8
0
 10
-6.642480623823689
 20
-1.715205260855713
 30
167.2000000000001
 70
   192
  0
VERTEX
  5
18C5
  8
0
 10
-6.642480623823698
 20
1.665205260854509
 30
167.2000000000002
 70
   192
  0
VERTEX
  5
18C6
  8
0
 10
-5.602252197916891
 20
4.881589708329866
 30
167.2000000000001
 70
   192
  0
VERTEX
  5
18C7
  8
0
 10
-5.330324441074851
 20
5.319159955402496
 30
167.2000000000001
 70
   192
  0
VERTEX
  5
18C8
  8
0
 10
-4.987819065939417
 20
5.704070319760598
 30
167.2000000000001
 70
   192
  0
VERTEX
  5
18C9
  8
0
 10
-4.58480967844854
 20
6.024999999999299
 30
167.2000000000001
 70
   192
  0
VERTEX
  5
18CA
  8
0
 10
-5.325
 20
6.024999999999517
 30
167.2000000000001
 70
   192
  0
VERTEX
  5
18CB
  8
0
 10
-5.749071366248565
 20
5.93020983820235
 30
167.2000000000002
 70
   192
  0
VERTEX
  5
18CC
  8
0
 10
-6.092974565694574
 20
5.664887834934194
 30
167.2000000000001
 70
   192
  0
VERTEX
  5
18CD
  8
0
 10
-6.29227003613791
 20
5.278749240765928
 30
167.2000000000001
 70
   192
  0
VERTEX
  5
18CE
  8
0
 10
-6.5683474214434
 20
4.668910439289056
 30
167.2000000000002
 70
   192
  0
VERTEX
  5
18CF
  8
0
 10
-7.029948886185499
 20
4.184228901309666
 30
167.2000000000001
 70
   192
  0
VERTEX
  5
18D0
  8
0
 10
-7.62560336947112
 20
3.878749240765651
 30
167.2000000000001
 70
   192
  0
VERTEX
  5
18D1
  8
0
 10
-7.989546020087015
 20
3.671810488685596
 30
167.2000000000001
 70
   192
  0
VERTEX
  5
18D2
  8
0
 10
-8.237034709387672
 20
3.334316512856319
 30
167.2000000000001
 70
   192
  0
VERTEX
  5
18D3
  8
0
 10
-8.325000000000001
 20
2.924999999999418
 30
167.2000000000001
 70
   192
  0
VERTEX
  5
18D4
  8
0
 10
-8.325000000000001
 20
-3.075000000000584
 30
167.2000000000001
 70
   192
  0
VERTEX
  5
18D5
  8
0
 10
-8.235543197013236
 20
-3.487596583910504
 30
167.2000000000001
 70
   192
  0
VERTEX
  5
18D6
  8
0
 10
-7.984140418136513
 20
-3.82657086416447
 30
167.2000000000001
 70
   192
  0
VERTEX
  5
18D7
  8
0
 10
-7.61527623112898
 20
-4.031942897796372
 30
167.2000000000001
 70
   192
  0
VERTEX
  5
18D8
  8
0
 10
-7.031003749344566
 20
-4.320333979085301
 30
167.2
 70
   192
  0
VERTEX
  5
18D9
  8
0
 10
-6.57033397908465
 20
-4.78100374934524
 30
167.2
 70
   192
  0
VERTEX
  5
18DA
  8
0
 10
-6.281942897795791
 20
-5.365276231129564
 30
167.2000000000001
 70
   192
  0
VERTEX
  5
18DB
  8
0
 10
-6.076570864163937
 20
-5.734140418137047
 30
167.2
 70
   192
  0
VERTEX
  5
18DC
  8
0
 10
-5.737596583909953
 20
-5.98554319701381
 30
167.2
 70
   192
  0
VERTEX
  5
18DD
  8
0
 10
-5.325
 20
-6.075000000000584
 30
167.2000000000001
 70
   192
  0
VERTEX
  5
18DE
  8
0
 10
0.0
 20
0.0
 30
0.0
 70
   128
 71
     8
 72
    -7
 73
   -14
  0
VERTEX
  5
18DF
  8
0
 10
0.0
 20
0.0
 30
0.0
 70
   128
 71
    -8
 72
    14
 73
   -13
  0
VERTEX
  5
18E0
  8
0
 10
0.0
 20
0.0
 30
0.0
 70
   128
 71
    -8
 72
    13
 73
   -12
  0
VERTEX
  5
18E1
  8
0
 10
0.0
 20
0.0
 30
0.0
 70
   128
 71
    12
 72
   -11
 73
    -9
  0
VERTEX
  5
18E2
  8
0
 10
0.0
 20
0.0
 30
0.0
 70
   128
 71
   -12
 72
     9
 73
    -8
  0
VERTEX
  5
18E3
  8
0
 10
0.0
 20
0.0
 30
0.0
 70
   128
 71
    11
 72
    10
 73
    -9
  0
VERTEX
  5
18E4
  8
0
 10
0.0
 20
0.0
 30
0.0
 70
   128
 71
    -7
 72
    15
 73
   -14
  0
VERTEX
  5
18E5
  8
0
 10
0.0
 20
0.0
 30
0.0
 70
   128
 71
    -7
 72
    16
 73
   -15
  0
VERTEX
  5
18E6
  8
0
 10
0.0
 20
0.0
 30
0.0
 70
   128
 71
    -7
 72
    17
 73
   -16
  0
VERTEX
  5
18E7
  8
0
 10
0.0
 20
0.0
 30
0.0
 70
   128
 71
     6
 72
    -5
 73
   -24
  0
VERTEX
  5
18E8
  8
0
 10
0.0
 20
0.0
 30
0.0
 70
   128
 71
    -6
 72
    24
 73
   -23
  0
VERTEX
  5
18E9
  8
0
 10
0.0
 20
0.0
 30
0.0
 70
   128
 71
    -6
 72
    23
 73
   -22
  0
VERTEX
  5
18EA
  8
0
 10
0.0
 20
0.0
 30
0.0
 70
   128
 71
    -6
 72
    22
 73
   -21
  0
VERTEX
  5
18EB
  8
0
 10
0.0
 20
0.0
 30
0.0
 70
   128
 71
    -6
 72
    21
 73
   -20
  0
VERTEX
  5
18EC
  8
0
 10
0.0
 20
0.0
 30
0.0
 70
   128
 71
   -17
 72
     7
 73
    -6
  0
VERTEX
  5
18ED
  8
0
 10
0.0
 20
0.0
 30
0.0
 70
   128
 71
    -6
 72
    20
 73
   -19
  0
VERTEX
  5
18EE
  8
0
 10
0.0
 20
0.0
 30
0.0
 70
   128
 71
    -6
 72
    19
 73
   -18
  0
VERTEX
  5
18EF
  8
0
 10
0.0
 20
0.0
 30
0.0
 70
   128
 71
    -6
 72
    18
 73
   -17
  0
VERTEX
  5
18F0
  8
0
 10
0.0
 20
0.0
 30
0.0
 70
   128
 71
    -5
 72
    25
 73
   -24
  0
VERTEX
  5
18F1
  8
0
 10
0.0
 20
0.0
 30
0.0
 70
   128
 71
     5
 72
    -4
 73
   -25
  0
VERTEX
  5
18F2
  8
0
 10
0.0
 20
0.0
 30
0.0
 70
   128
 71
    -4
 72
    26
 73
   -25
  0
VERTEX
  5
18F3
  8
0
 10
0.0
 20
0.0
 30
0.0
 70
   128
 71
    -4
 72
    27
 73
   -26
  0
VERTEX
  5
18F4
  8
0
 10
0.0
 20
0.0
 30
0.0
 70
   128
 71
     2
 72
     1
 73
   -30
  0
VERTEX
  5
18F5
  8
0
 10
0.0
 20
0.0
 30
0.0
 70
   128
 71
    30
 72
   -29
 73
    -3
  0
VERTEX
  5
18F6
  8
0
 10
0.0
 20
0.0
 30
0.0
 70
   128
 71
   -30
 72
     3
 73
    -2
  0
VERTEX
  5
18F7
  8
0
 10
0.0
 20
0.0
 30
0.0
 70
   128
 71
    29
 72
    28
 73
   -27
  0
VERTEX
  5
18F8
  8
0
 10
0.0
 20
0.0
 30
0.0
 70
   128
 71
   -29
 72
   -27
 73
    -4
  0
VERTEX
  5
18F9
  8
0
 10
0.0
 20
0.0
 30
0.0
 70
   128
 71
   -29
 72
     4
 73
    -3
  0
SEQEND
  5
1AD7
  8
0
  0
POLYLINE
  5
18FA
  8
0
 66
     1
 10
0.0
 20
0.0
 30
0.0
 70
    64
 71
    12
 72
    10
  0
VERTEX
  5
18FB
  8
0
 10
-7.700706841654633
 20
4.117036255645008
 30
167.2673411649479
 70
   192
  0
VERTEX
  5
18FC
  8
0
 10
-6.71076796315421
 20
5.388536091670771
 30
167.4501575836771
 70
   192
  0
VERTEX
  5
18FD
  8
0
 10
-6.533935119203637
 20
5.342146564218665
 30
167.2673411649481
 70
   192
  0
VERTEX
  5
18FE
  8
0
 10
-7.755662073119305
 20
4.29139727620755
 30
167.4501575836769
 70
   192
  0
VERTEX
  5
18FF
  8
0
 10
-6.982963093186051
 20
4.948244760041392
 30
167.7000000000001
 70
   192
  0
VERTEX
  5
1900
  8
0
 10
-6.77590505420695
 20
5.405623861149105
 30
167.7000000000001
 70
   192
  0
VERTEX
  5
1901
  8
0
 10
-7.329164191742627
 20
4.584733606556854
 30
167.7000000000001
 70
   192
  0
VERTEX
  5
1902
  8
0
 10
-7.77590505420687
 20
4.355623861148954
 30
167.7000000000001
 70
   192
  0
VERTEX
  5
1903
  8
0
 10
-6.5683474214434
 20
4.668910439289056
 30
167.2000000000002
 70
   192
  0
VERTEX
  5
1904
  8
0
 10
-6.29227003613791
 20
5.278749240765928
 30
167.2000000000001
 70
   192
  0
VERTEX
  5
1905
  8
0
 10
-7.029948886185499
 20
4.184228901309666
 30
167.2000000000001
 70
   192
  0
VERTEX
  5
1906
  8
0
 10
-7.62560336947112
 20
3.878749240765651
 30
167.2000000000001
 70
   192
  0
VERTEX
  5
1907
  8
0
 10
0.0
 20
0.0
 30
0.0
 70
   128
 71
    -1
 72
     2
 73
     3
  0
VERTEX
  5
1908
  8
0
 10
0.0
 20
0.0
 30
0.0
 70
   128
 71
     1
 72
     4
 73
    -2
  0
VERTEX
  5
1909
  8
0
 10
0.0
 20
0.0
 30
0.0
 70
   128
 71
     5
 72
     6
 73
     2
  0
VERTEX
  5
190A
  8
0
 10
0.0
 20
0.0
 30
0.0
 70
   128
 71
     2
 72
     7
 73
     5
  0
VERTEX
  5
190B
  8
0
 10
0.0
 20
0.0
 30
0.0
 70
   128
 71
     8
 72
     7
 73
     2
  0
VERTEX
  5
190C
  8
0
 10
0.0
 20
0.0
 30
0.0
 70
   128
 71
     8
 72
     2
 73
     4
  0
VERTEX
  5
190D
  8
0
 10
0.0
 20
0.0
 30
0.0
 70
   128
 71
     9
 72
     3
 73
    10
  0
VERTEX
  5
190E
  8
0
 10
0.0
 20
0.0
 30
0.0
 70
   128
 71
    11
 72
    12
 73
     1
  0
VERTEX
  5
190F
  8
0
 10
0.0
 20
0.0
 30
0.0
 70
   128
 71
     1
 72
     3
 73
    -9
  0
VERTEX
  5
1910
  8
0
 10
0.0
 20
0.0
 30
0.0
 70
   128
 71
    -1
 72
     9
 73
    11
  0
SEQEND
  5
1AD8
  8
0
  0
POLYLINE
  5
1911
  8
0
 66
     1
 10
0.0
 20
0.0
 30
0.0
 70
    64
 71
     8
 72
     6
  0
VERTEX
  5
1912
  8
0
 10
-5.961107049372936
 20
6.382814757303764
 30
167.7000000000001
 70
   192
  0
VERTEX
  5
1913
  8
0
 10
-6.476961848541984
 20
5.98483175240144
 30
167.7000000000001
 70
   192
  0
VERTEX
  5
1914
  8
0
 10
-6.487424375169049
 20
5.97303137288687
 30
179.9796745462846
 70
   192
  0
VERTEX
  5
1915
  8
0
 10
-5.325
 20
6.524999999999417
 30
167.7000000000001
 70
   192
  0
VERTEX
  5
1916
  8
0
 10
-6.024361050046619
 20
6.352088251839164
 30
180.0127122101507
 70
   192
  0
VERTEX
  5
1917
  8
0
 10
-6.77590505420695
 20
5.405623861149105
 30
167.7000000000001
 70
   192
  0
VERTEX
  5
1918
  8
0
 10
-6.77590505420688
 20
5.405623861149341
 30
179.9591062434001
 70
   192
  0
VERTEX
  5
1919
  8
0
 10
-5.32500000000053
 20
6.524999999999372
 30
180.0622511525076
 70
   192
  0
VERTEX
  5
191A
  8
0
 10
0.0
 20
0.0
 30
0.0
 70
   128
 71
     1
 72
     2
 73
     3
  0
VERTEX
  5
191B
  8
0
 10
0.0
 20
0.0
 30
0.0
 70
   128
 71
     4
 72
     1
 73
     5
  0
VERTEX
  5
191C
  8
0
 10
0.0
 20
0.0
 30
0.0
 70
   128
 71
     2
 72
     6
 73
     7
  0
VERTEX
  5
191D
  8
0
 10
0.0
 20
0.0
 30
0.0
 70
   128
 71
     8
 72
     4
 73
     5
  0
VERTEX
  5
191E
  8
0
 10
0.0
 20
0.0
 30
0.0
 70
   128
 71
     5
 72
     1
 73
     3
  0
VERTEX
  5
191F
  8
0
 10
0.0
 20
0.0
 30
0.0
 70
   128
 71
     3
 72
     2
 73
     7
  0
SEQEND
  5
1AD9
  8
0
  0
POLYLINE
  5
1920
  8
0
 66
     1
 10
0.0
 20
0.0
 30
0.0
 70
    64
 71
    12
 72
    10
  0
VERTEX
  5
1921
  8
0
 10
-6.52102782366436
 20
-5.437799546115973
 30
167.2673411649482
 70
   192
  0
VERTEX
  5
1922
  8
0
 10
-7.740866807132472
 20
-4.445972697167917
 30
167.4501575836771
 70
   192
  0
VERTEX
  5
1923
  8
0
 10
-7.687799546115373
 20
-4.271027823664928
 30
167.2673411649482
 70
   192
  0
VERTEX
  5
1924
  8
0
 10
-6.69597269716736
 20
-5.490866807133076
 30
167.4501575836771
 70
   192
  0
VERTEX
  5
1925
  8
0
 10
-7.322209985355038
 20
-4.726707657660969
 30
167.7000000000001
 70
   192
  0
VERTEX
  5
1926
  8
0
 10
-7.76041434669331
 20
-4.510414346694146
 30
167.7000000000001
 70
   192
  0
VERTEX
  5
1927
  8
0
 10
-6.976707657660189
 20
-5.072209985355893
 30
167.7000000000001
 70
   192
  0
VERTEX
  5
1928
  8
0
 10
-6.760414346693559
 20
-5.510414346693906
 30
167.7000000000001
 70
   192
  0
VERTEX
  5
1929
  8
0
 10
-7.031003749344566
 20
-4.320333979085301
 30
167.2
 70
   192
  0
VERTEX
  5
192A
  8
0
 10
-7.61527623112898
 20
-4.031942897796372
 30
167.2000000000001
 70
   192
  0
VERTEX
  5
192B
  8
0
 10
-6.57033397908465
 20
-4.78100374934524
 30
167.2
 70
   192
  0
VERTEX
  5
192C
  8
0
 10
-6.281942897795791
 20
-5.365276231129564
 30
167.2000000000001
 70
   192
  0
VERTEX
  5
192D
  8
0
 10
0.0
 20
0.0
 30
0.0
 70
   128
 71
    -1
 72
     2
 73
     3
  0
VERTEX
  5
192E
  8
0
 10
0.0
 20
0.0
 30
0.0
 70
   128
 71
     1
 72
     4
 73
    -2
  0
VERTEX
  5
192F
  8
0
 10
0.0
 20
0.0
 30
0.0
 70
   128
 71
     5
 72
     6
 73
     2
  0
VERTEX
  5
1930
  8
0
 10
0.0
 20
0.0
 30
0.0
 70
   128
 71
    -2
 72
     7
 73
     5
  0
VERTEX
  5
1931
  8
0
 10
0.0
 20
0.0
 30
0.0
 70
   128
 71
     4
 72
     8
 73
     7
  0
VERTEX
  5
1932
  8
0
 10
0.0
 20
0.0
 30
0.0
 70
   128
 71
     4
 72
    -7
 73
     2
  0
VERTEX
  5
1933
  8
0
 10
0.0
 20
0.0
 30
0.0
 70
   128
 71
     9
 72
     3
 73
    10
  0
VERTEX
  5
1934
  8
0
 10
0.0
 20
0.0
 30
0.0
 70
   128
 71
    11
 72
    12
 73
     1
  0
VERTEX
  5
1935
  8
0
 10
0.0
 20
0.0
 30
0.0
 70
   128
 71
     1
 72
     3
 73
    -9
  0
VERTEX
  5
1936
  8
0
 10
0.0
 20
0.0
 30
0.0
 70
   128
 71
    -1
 72
     9
 73
    11
  0
SEQEND
  5
1ADA
  8
0
  0
POLYLINE
  5
1937
  8
0
 66
     1
 10
0.0
 20
0.0
 30
0.0
 70
    64
 71
     8
 72
     6
  0
VERTEX
  5
1938
  8
0
 10
-6.452356296245984
 20
-6.063710627205182
 30
167.7000000000001
 70
   192
  0
VERTEX
  5
1939
  8
0
 10
-5.943894875864991
 20
-6.440814795520394
 30
167.7000000000001
 70
   192
  0
VERTEX
  5
193A
  8
0
 10
-6.005877799502505
 20
-6.411569906485745
 30
180.0140170135782
 70
   192
  0
VERTEX
  5
193B
  8
0
 10
-5.325
 20
-6.575000000000585
 30
167.7000000000001
 70
   192
  0
VERTEX
  5
193C
  8
0
 10
-5.325
 20
-6.575000000000629
 30
180.0622511525001
 70
   192
  0
VERTEX
  5
193D
  8
0
 10
-6.760414346693599
 20
-5.510414346693807
 30
179.9602074786001
 70
   192
  0
VERTEX
  5
193E
  8
0
 10
-6.760414346693559
 20
-5.510414346693906
 30
167.7000000000001
 70
   192
  0
VERTEX
  5
193F
  8
0
 10
-6.463032442212456
 20
-6.05212912467205
 30
179.9813997676654
 70
   192
  0
VERTEX
  5
1940
  8
0
 10
0.0
 20
0.0
 30
0.0
 70
   128
 71
     1
 72
     2
 73
     3
  0
VERTEX
  5
1941
  8
0
 10
0.0
 20
0.0
 30
0.0
 70
   128
 71
     2
 72
     4
 73
     5
  0
VERTEX
  5
1942
  8
0
 10
0.0
 20
0.0
 30
0.0
 70
   128
 71
     6
 72
     7
 73
     1
  0
VERTEX
  5
1943
  8
0
 10
0.0
 20
0.0
 30
0.0
 70
   128
 71
     6
 72
     1
 73
     8
  0
VERTEX
  5
1944
  8
0
 10
0.0
 20
0.0
 30
0.0
 70
   128
 71
     8
 72
     1
 73
     3
  0
VERTEX
  5
1945
  8
0
 10
0.0
 20
0.0
 30
0.0
 70
   128
 71
     3
 72
     2
 73
     5
  0
SEQEND
  5
1ADB
  8
0
  0
POLYLINE
  5
1946
  8
0
 66
     1
 10
0.0
 20
0.0
 30
0.0
 70
    64
 71
    12
 72
    10
  0
VERTEX
  5
1947
  8
0
 10
-6.52102782366436
 20
-5.437799546115973
 30
167.2673411649482
 70
   192
  0
VERTEX
  5
1948
  8
0
 10
-5.324999999999999
 20
-6.32484241632367
 30
167.267341164948
 70
   192
  0
VERTEX
  5
1949
  8
0
 10
-5.325
 20
-6.507658835052624
 30
167.450157583677
 70
   192
  0
VERTEX
  5
194A
  8
0
 10
-6.69597269716736
 20
-5.490866807133076
 30
167.4501575836771
 70
   192
  0
VERTEX
  5
194B
  8
0
 10
-5.737596583909953
 20
-5.98554319701381
 30
167.2
 70
   192
  0
VERTEX
  5
194C
  8
0
 10
-5.325
 20
-6.075000000000584
 30
167.2000000000001
 70
   192
  0
VERTEX
  5
194D
  8
0
 10
-6.076570864163937
 20
-5.734140418137047
 30
167.2
 70
   192
  0
VERTEX
  5
194E
  8
0
 10
-6.281942897795791
 20
-5.365276231129564
 30
167.2000000000001
 70
   192
  0
VERTEX
  5
194F
  8
0
 10
-6.452356296245984
 20
-6.063710627205182
 30
167.7000000000001
 70
   192
  0
VERTEX
  5
1950
  8
0
 10
-6.760414346693559
 20
-5.510414346693906
 30
167.7000000000001
 70
   192
  0
VERTEX
  5
1951
  8
0
 10
-5.943894875864991
 20
-6.440814795520394
 30
167.7000000000001
 70
   192
  0
VERTEX
  5
1952
  8
0
 10
-5.325
 20
-6.575000000000585
 30
167.7000000000001
 70
   192
  0
VERTEX
  5
1953
  8
0
 10
0.0
 20
0.0
 30
0.0
 70
   128
 71
     1
 72
     2
 73
    -3
  0
VERTEX
  5
1954
  8
0
 10
0.0
 20
0.0
 30
0.0
 70
   128
 71
    -1
 72
     3
 73
     4
  0
VERTEX
  5
1955
  8
0
 10
0.0
 20
0.0
 30
0.0
 70
   128
 71
     5
 72
     6
 73
     2
  0
VERTEX
  5
1956
  8
0
 10
0.0
 20
0.0
 30
0.0
 70
   128
 71
    -2
 72
     7
 73
     5
  0
VERTEX
  5
1957
  8
0
 10
0.0
 20
0.0
 30
0.0
 70
   128
 71
     1
 72
     8
 73
     7
  0
VERTEX
  5
1958
  8
0
 10
0.0
 20
0.0
 30
0.0
 70
   128
 71
     1
 72
    -7
 73
     2
  0
VERTEX
  5
1959
  8
0
 10
0.0
 20
0.0
 30
0.0
 70
   128
 71
     9
 72
    10
 73
     4
  0
VERTEX
  5
195A
  8
0
 10
0.0
 20
0.0
 30
0.0
 70
   128
 71
     4
 72
     3
 73
   -11
  0
VERTEX
  5
195B
  8
0
 10
0.0
 20
0.0
 30
0.0
 70
   128
 71
    -4
 72
    11
 73
     9
  0
VERTEX
  5
195C
  8
0
 10
0.0
 20
0.0
 30
0.0
 70
   128
 71
     3
 72
    12
 73
    11
  0
SEQEND
  5
1ADC
  8
0
  0
POLYLINE
  5
195D
  8
0
 66
     1
 10
0.0
 20
0.0
 30
0.0
 70
    64
 71
    12
 72
    10
  0
VERTEX
  5
195E
  8
0
 10
-5.324999999999999
 20
6.457658835051457
 30
167.450157583677
 70
   192
  0
VERTEX
  5
195F
  8
0
 10
-5.325
 20
6.274842416322508
 30
167.267341164948
 70
   192
  0
VERTEX
  5
1960
  8
0
 10
-6.533935119203637
 20
5.342146564218665
 30
167.2673411649481
 70
   192
  0
VERTEX
  5
1961
  8
0
 10
-6.71076796315421
 20
5.388536091670771
 30
167.4501575836771
 70
   192
  0
VERTEX
  5
1962
  8
0
 10
-6.092974565694574
 20
5.664887834934194
 30
167.2000000000001
 70
   192
  0
VERTEX
  5
1963
  8
0
 10
-6.29227003613791
 20
5.278749240765928
 30
167.2000000000001
 70
   192
  0
VERTEX
  5
1964
  8
0
 10
-5.749071366248565
 20
5.93020983820235
 30
167.2000000000002
 70
   192
  0
VERTEX
  5
1965
  8
0
 10
-5.325
 20
6.024999999999517
 30
167.2000000000001
 70
   192
  0
VERTEX
  5
1966
  8
0
 10
-5.961107049372936
 20
6.382814757303764
 30
167.7000000000001
 70
   192
  0
VERTEX
  5
1967
  8
0
 10
-5.325
 20
6.524999999999417
 30
167.7000000000001
 70
   192
  0
VERTEX
  5
1968
  8
0
 10
-6.476961848541984
 20
5.98483175240144
 30
167.7000000000001
 70
   192
  0
VERTEX
  5
1969
  8
0
 10
-6.77590505420695
 20
5.405623861149105
 30
167.7000000000001
 70
   192
  0
VERTEX
  5
196A
  8
0
 10
0.0
 20
0.0
 30
0.0
 70
   128
 71
     1
 72
     2
 73
    -3
  0
VERTEX
  5
196B
  8
0
 10
0.0
 20
0.0
 30
0.0
 70
   128
 71
    -1
 72
     3
 73
     4
  0
VERTEX
  5
196C
  8
0
 10
0.0
 20
0.0
 30
0.0
 70
   128
 71
     5
 72
     6
 73
     3
  0
VERTEX
  5
196D
  8
0
 10
0.0
 20
0.0
 30
0.0
 70
   128
 71
     3
 72
     7
 73
     5
  0
VERTEX
  5
196E
  8
0
 10
0.0
 20
0.0
 30
0.0
 70
   128
 71
     8
 72
     7
 73
     3
  0
VERTEX
  5
196F
  8
0
 10
0.0
 20
0.0
 30
0.0
 70
   128
 71
     8
 72
     3
 73
     2
  0
VERTEX
  5
1970
  8
0
 10
0.0
 20
0.0
 30
0.0
 70
   128
 71
     9
 72
    10
 73
     1
  0
VERTEX
  5
1971
  8
0
 10
0.0
 20
0.0
 30
0.0
 70
   128
 71
     1
 72
     4
 73
   -11
  0
VERTEX
  5
1972
  8
0
 10
0.0
 20
0.0
 30
0.0
 70
   128
 71
    -1
 72
    11
 73
     9
  0
VERTEX
  5
1973
  8
0
 10
0.0
 20
0.0
 30
0.0
 70
   128
 71
     4
 72
    12
 73
    11
  0
SEQEND
  5
1ADD
  8
0
  0
POLYLINE
  5
1974
  8
0
 66
     1
 10
0.0
 20
0.0
 30
0.0
 70
    64
 71
     8
 72
     6
  0
VERTEX
  5
1975
  8
0
 10
-6.642480623823698
 20
1.665205260854509
 30
167.2000000000002
 70
   192
  0
VERTEX
  5
1976
  8
0
 10
-6.642480623823693
 20
1.66520526085456
 30
162.7000000000001
 70
   192
  0
VERTEX
  5
1977
  8
0
 10
-6.642480623823699
 20
-1.715205260855631
 30
162.7000000000001
 70
   192
  0
VERTEX
  5
1978
  8
0
 10
-6.642480623823689
 20
-1.715205260855713
 30
167.2000000000001
 70
   192
  0
VERTEX
  5
1979
  8
0
 10
-5.602252197916891
 20
4.881589708329866
 30
167.2000000000001
 70
   192
  0
VERTEX
  5
197A
  8
0
 10
-5.60225219791687
 20
4.881589708329921
 30
162.7000000000001
 70
   192
  0
VERTEX
  5
197B
  8
0
 10
-5.602252197916891
 20
-4.931589708331009
 30
162.7000000000001
 70
   192
  0
VERTEX
  5
197C
  8
0
 10
-5.602252197916861
 20
-4.931589708331085
 30
167.2000000000001
 70
   192
  0
VERTEX
  5
197D
  8
0
 10
0.0
 20
0.0
 30
0.0
 70
   128
 71
     1
 72
     2
 73
    -3
  0
VERTEX
  5
197E
  8
0
 10
0.0
 20
0.0
 30
0.0
 70
   128
 71
    -1
 72
     3
 73
     4
  0
VERTEX
  5
197F
  8
0
 10
0.0
 20
0.0
 30
0.0
 70
   128
 71
     5
 72
     6
 73
    -2
  0
VERTEX
  5
1980
  8
0
 10
0.0
 20
0.0
 30
0.0
 70
   128
 71
    -5
 72
     2
 73
     1
  0
VERTEX
  5
1981
  8
0
 10
0.0
 20
0.0
 30
0.0
 70
   128
 71
     4
 72
     3
 73
    -7
  0
VERTEX
  5
1982
  8
0
 10
0.0
 20
0.0
 30
0.0
 70
   128
 71
    -4
 72
     7
 73
     8
  0
SEQEND
  5
1ADE
  8
0
  0
POLYLINE
  5
1983
  8
0
 66
     1
 10
0.0
 20
0.0
 30
0.0
 70
    64
 71
     6
 72
     4
  0
VERTEX
  5
1984
  8
0
 10
5.275
 20
6.52499999999943
 30
162.7000000000001
 70
   192
  0
VERTEX
  5
1985
  8
0
 10
5.275
 20
6.524999999999368
 30
180.8158056549001
 70
   192
  0
VERTEX
  5
1986
  8
0
 10
-5.32500000000053
 20
6.524999999999372
 30
180.0622511525076
 70
   192
  0
VERTEX
  5
1987
  8
0
 10
-5.325
 20
6.524999999999417
 30
167.7000000000001
 70
   192
  0
VERTEX
  5
1988
  8
0
 10
-2.92649728327
 20
6.524999999999417
 30
167.7000000000001
 70
   192
  0
VERTEX
  5
1989
  8
0
 10
-2.92649728327
 20
6.52499999999943
 30
162.7000000000001
 70
   192
  0
VERTEX
  5
198A
  8
0
 10
0.0
 20
0.0
 30
0.0
 70
   128
 71
     5
 72
     4
 73
    -3
  0
VERTEX
  5
198B
  8
0
 10
0.0
 20
0.0
 30
0.0
 70
   128
 71
    -5
 72
     3
 73
    -2
  0
VERTEX
  5
198C
  8
0
 10
0.0
 20
0.0
 30
0.0
 70
   128
 71
    -5
 72
     2
 73
    -1
  0
VERTEX
  5
198D
  8
0
 10
0.0
 20
0.0
 30
0.0
 70
   128
 71
     1
 72
     6
 73
    -5
  0
SEQEND
  5
1ADF
  8
0
  0
POLYLINE
  5
198E
  8
0
 66
     1
 10
0.0
 20
0.0
 30
0.0
 70
    64
 71
     6
 72
     4
  0
VERTEX
  5
198F
  8
0
 10
5.27500000000053
 20
-6.575000000000633
 30
180.8158056548926
 70
   192
  0
VERTEX
  5
1990
  8
0
 10
5.275
 20
-6.575000000000569
 30
162.7000000000001
 70
   192
  0
VERTEX
  5
1991
  8
0
 10
-2.92649728327
 20
-6.575000000000569
 30
162.7000000000001
 70
   192
  0
VERTEX
  5
1992
  8
0
 10
-2.92649728327
 20
-6.575000000000585
 30
167.7000000000001
 70
   192
  0
VERTEX
  5
1993
  8
0
 10
-5.325
 20
-6.575000000000585
 30
167.7000000000001
 70
   192
  0
VERTEX
  5
1994
  8
0
 10
-5.325
 20
-6.575000000000629
 30
180.0622511525001
 70
   192
  0
VERTEX
  5
1995
  8
0
 10
0.0
 20
0.0
 30
0.0
 70
   128
 71
     4
 72
     3
 73
    -2
  0
VERTEX
  5
1996
  8
0
 10
0.0
 20
0.0
 30
0.0
 70
   128
 71
     2
 72
     1
 73
    -6
  0
VERTEX
  5
1997
  8
0
 10
0.0
 20
0.0
 30
0.0
 70
   128
 71
    -2
 72
    -6
 73
    -4
  0
VERTEX
  5
1998
  8
0
 10
0.0
 20
0.0
 30
0.0
 70
   128
 71
     6
 72
     5
 73
    -4
  0
SEQEND
  5
1AE0
  8
0
  0
POLYLINE
  5
1999
  8
0
 66
     1
 10
0.0
 20
0.0
 30
0.0
 70
    64
 71
    11
 72
     9
  0
VERTEX
  5
199A
  8
0
 10
-3.571819288444631
 20
6.454771300298677
 30
167.4443560362605
 70
   192
  0
VERTEX
  5
199B
  8
0
 10
-2.92649728327
 20
6.524999999999417
 30
167.7000000000001
 70
   192
  0
VERTEX
  5
199C
  8
0
 10
-2.92649728327
 20
6.52499999999943
 30
162.7000000000001
 70
   192
  0
VERTEX
  5
199D
  8
0
 10
-4.58480967844854
 20
6.024999999999299
 30
167.2000000000001
 70
   192
  0
VERTEX
  5
199E
  8
0
 10
-4.003315923533309
 20
6.324478548072378
 30
162.7000000000001
 70
   192
  0
VERTEX
  5
199F
  8
0
 10
-4.936469749381041
 20
5.751348851957452
 30
162.7000000000001
 70
   192
  0
VERTEX
  5
19A0
  8
0
 10
-4.987819065939417
 20
5.704070319760598
 30
167.2000000000001
 70
   192
  0
VERTEX
  5
19A1
  8
0
 10
-4.134267323667606
 20
6.271141666450884
 30
167.2649489565705
 70
   192
  0
VERTEX
  5
19A2
  8
0
 10
-5.330324441074851
 20
5.319159955402496
 30
167.2000000000001
 70
   192
  0
VERTEX
  5
19A3
  8
0
 10
-5.60225219791687
 20
4.881589708329921
 30
162.7000000000001
 70
   192
  0
VERTEX
  5
19A4
  8
0
 10
-5.602252197916891
 20
4.881589708329866
 30
167.2000000000001
 70
   192
  0
VERTEX
  5
19A5
  8
0
 10
0.0
 20
0.0
 30
0.0
 70
   128
 71
     1
 72
     2
 73
     3
  0
VERTEX
  5
19A6
  8
0
 10
0.0
 20
0.0
 30
0.0
 70
   128
 71
     4
 72
     5
 73
     6
  0
VERTEX
  5
19A7
  8
0
 10
0.0
 20
0.0
 30
0.0
 70
   128
 71
     6
 72
     7
 73
     4
  0
VERTEX
  5
19A8
  8
0
 10
0.0
 20
0.0
 30
0.0
 70
   128
 71
     3
 72
     5
 73
     8
  0
VERTEX
  5
19A9
  8
0
 10
0.0
 20
0.0
 30
0.0
 70
   128
 71
     9
 72
     6
 73
    10
  0
VERTEX
  5
19AA
  8
0
 10
0.0
 20
0.0
 30
0.0
 70
   128
 71
    10
 72
    11
 73
     9
  0
VERTEX
  5
19AB
  8
0
 10
0.0
 20
0.0
 30
0.0
 70
   128
 71
     1
 72
     3
 73
     8
  0
VERTEX
  5
19AC
  8
0
 10
0.0
 20
0.0
 30
0.0
 70
   128
 71
     8
 72
     5
 73
     4
  0
VERTEX
  5
19AD
  8
0
 10
0.0
 20
0.0
 30
0.0
 70
   128
 71
     7
 72
     6
 73
     9
  0
SEQEND
  5
1AE1
  8
0
  0
POLYLINE
  5
19AE
  8
0
 66
     1
 10
0.0
 20
0.0
 30
0.0
 70
    64
 71
    11
 72
     9
  0
VERTEX
  5
19AF
  8
0
 10
-5.330324441074806
 20
-5.369159955403688
 30
167.2000000000001
 70
   192
  0
VERTEX
  5
19B0
  8
0
 10
-5.602252197916861
 20
-4.931589708331085
 30
167.2000000000001
 70
   192
  0
VERTEX
  5
19B1
  8
0
 10
-5.602252197916891
 20
-4.931589708331009
 30
162.7000000000001
 70
   192
  0
VERTEX
  5
19B2
  8
0
 10
-4.936469749381128
 20
-5.801348851958513
 30
162.7000000000001
 70
   192
  0
VERTEX
  5
19B3
  8
0
 10
-4.584809678448241
 20
-6.075000000000344
 30
167.2000000000001
 70
   192
  0
VERTEX
  5
19B4
  8
0
 10
-4.987819065939319
 20
-5.75407031976173
 30
167.2000000000001
 70
   192
  0
VERTEX
  5
19B5
  8
0
 10
-2.92649728327
 20
-6.575000000000569
 30
162.7000000000001
 70
   192
  0
VERTEX
  5
19B6
  8
0
 10
-2.92649728327
 20
-6.575000000000585
 30
167.7000000000001
 70
   192
  0
VERTEX
  5
19B7
  8
0
 10
-3.571825896300553
 20
-6.504770981588192
 30
167.4443526222505
 70
   192
  0
VERTEX
  5
19B8
  8
0
 10
-4.003315923533356
 20
-6.374478548073496
 30
162.7000000000001
 70
   192
  0
VERTEX
  5
19B9
  8
0
 10
-4.134110346167555
 20
-6.321337388064669
 30
167.2649415399484
 70
   192
  0
VERTEX
  5
19BA
  8
0
 10
0.0
 20
0.0
 30
0.0
 70
   128
 71
     1
 72
     2
 73
     3
  0
VERTEX
  5
19BB
  8
0
 10
0.0
 20
0.0
 30
0.0
 70
   128
 71
     4
 72
     5
 73
     6
  0
VERTEX
  5
19BC
  8
0
 10
0.0
 20
0.0
 30
0.0
 70
   128
 71
     7
 72
     8
 73
     9
  0
VERTEX
  5
19BD
  8
0
 10
0.0
 20
0.0
 30
0.0
 70
   128
 71
     1
 72
     3
 73
     4
  0
VERTEX
  5
19BE
  8
0
 10
0.0
 20
0.0
 30
0.0
 70
   128
 71
     1
 72
     4
 73
     6
  0
VERTEX
  5
19BF
  8
0
 10
0.0
 20
0.0
 30
0.0
 70
   128
 71
     5
 72
     4
 73
    10
  0
VERTEX
  5
19C0
  8
0
 10
0.0
 20
0.0
 30
0.0
 70
   128
 71
     5
 72
    10
 73
    11
  0
VERTEX
  5
19C1
  8
0
 10
0.0
 20
0.0
 30
0.0
 70
   128
 71
    11
 72
    10
 73
     7
  0
VERTEX
  5
19C2
  8
0
 10
0.0
 20
0.0
 30
0.0
 70
   128
 71
    11
 72
     7
 73
     9
  0
SEQEND
  5
1AE2
  8
0
  0
POLYLINE
  5
19C3
  8
0
 66
     1
 10
0.0
 20
0.0
 30
0.0
 70
    64
 71
    10
 72
     8
  0
VERTEX
  5
19C4
  8
0
 10
6.275
 20
5.508333333332744
 30
168.7622985674001
 70
   192
  0
VERTEX
  5
19C5
  8
0
 10
6.275
 20
5.474999999999432
 30
162.7000000000001
 70
   192
  0
VERTEX
  5
19C6
  8
0
 10
6.140317670104079
 20
6.022832980793753
 30
162.7000000000002
 70
   192
  0
VERTEX
  5
19C7
  8
0
 10
6.275
 20
5.474999999999369
 30
180.8868957022001
 70
   192
  0
VERTEX
  5
19C8
  8
0
 10
6.275000000000002
 20
5.508333333332724
 30
174.8245971348001
 70
   192
  0
VERTEX
  5
19C9
  8
0
 10
6.145582385244948
 20
6.016913806537796
 30
180.8776333238002
 70
   192
  0
VERTEX
  5
19CA
  8
0
 10
5.822218663552495
 20
6.361993957413793
 30
180.8544999438211
 70
   192
  0
VERTEX
  5
19CB
  8
0
 10
5.774684832646173
 20
6.390317670103512
 30
162.7000000000001
 70
   192
  0
VERTEX
  5
19CC
  8
0
 10
5.275
 20
6.52499999999943
 30
162.7000000000001
 70
   192
  0
VERTEX
  5
19CD
  8
0
 10
5.275
 20
6.524999999999368
 30
180.8158056549001
 70
   192
  0
VERTEX
  5
19CE
  8
0
 10
0.0
 20
0.0
 30
0.0
 70
   128
 71
     1
 72
     2
 73
     3
  0
VERTEX
  5
19CF
  8
0
 10
0.0
 20
0.0
 30
0.0
 70
   128
 71
     4
 72
     5
 73
     6
  0
VERTEX
  5
19D0
  8
0
 10
0.0
 20
0.0
 30
0.0
 70
   128
 71
     1
 72
     3
 73
     7
  0
VERTEX
  5
19D1
  8
0
 10
0.0
 20
0.0
 30
0.0
 70
   128
 71
     7
 72
     5
 73
     1
  0
VERTEX
  5
19D2
  8
0
 10
0.0
 20
0.0
 30
0.0
 70
   128
 71
     7
 72
     6
 73
     5
  0
VERTEX
  5
19D3
  8
0
 10
0.0
 20
0.0
 30
0.0
 70
   128
 71
     8
 72
     9
 73
    10
  0
VERTEX
  5
19D4
  8
0
 10
0.0
 20
0.0
 30
0.0
 70
   128
 71
    10
 72
     7
 73
     3
  0
VERTEX
  5
19D5
  8
0
 10
0.0
 20
0.0
 30
0.0
 70
   128
 71
    10
 72
     3
 73
     8
  0
SEQEND
  5
1AE3
  8
0
  0
POLYLINE
  5
19D6
  8
0
 66
     1
 10
0.0
 20
0.0
 30
0.0
 70
    64
 71
     8
 72
     6
  0
VERTEX
  5
19D7
  8
0
 10
-5.325
 20
6.524999999999417
 30
167.7000000000001
 70
   192
  0
VERTEX
  5
19D8
  8
0
 10
-3.571819288444631
 20
6.454771300298677
 30
167.4443560362605
 70
   192
  0
VERTEX
  5
19D9
  8
0
 10
-5.324999999999999
 20
6.457658835051457
 30
167.450157583677
 70
   192
  0
VERTEX
  5
19DA
  8
0
 10
-2.92649728327
 20
6.524999999999417
 30
167.7000000000001
 70
   192
  0
VERTEX
  5
19DB
  8
0
 10
-4.134267323667606
 20
6.271141666450884
 30
167.2649489565705
 70
   192
  0
VERTEX
  5
19DC
  8
0
 10
-5.325
 20
6.274842416322508
 30
167.267341164948
 70
   192
  0
VERTEX
  5
19DD
  8
0
 10
-4.58480967844854
 20
6.024999999999299
 30
167.2000000000001
 70
   192
  0
VERTEX
  5
19DE
  8
0
 10
-5.325
 20
6.024999999999517
 30
167.2000000000001
 70
   192
  0
VERTEX
  5
19DF
  8
0
 10
0.0
 20
0.0
 30
0.0
 70
   128
 71
     1
 72
     2
 73
     3
  0
VERTEX
  5
19E0
  8
0
 10
0.0
 20
0.0
 30
0.0
 70
   128
 71
     1
 72
     4
 73
     2
  0
VERTEX
  5
19E1
  8
0
 10
0.0
 20
0.0
 30
0.0
 70
   128
 71
     3
 72
     2
 73
     5
  0
VERTEX
  5
19E2
  8
0
 10
0.0
 20
0.0
 30
0.0
 70
   128
 71
     3
 72
     5
 73
     6
  0
VERTEX
  5
19E3
  8
0
 10
0.0
 20
0.0
 30
0.0
 70
   128
 71
     6
 72
     5
 73
     7
  0
VERTEX
  5
19E4
  8
0
 10
0.0
 20
0.0
 30
0.0
 70
   128
 71
     6
 72
     7
 73
     8
  0
SEQEND
  5
1AE4
  8
0
  0
POLYLINE
  5
19E5
  8
0
 66
     1
 10
0.0
 20
0.0
 30
0.0
 70
    64
 71
     8
 72
     6
  0
VERTEX
  5
19E6
  8
0
 10
5.822143381310246
 20
-6.412130326978583
 30
180.8545013207402
 70
   192
  0
VERTEX
  5
19E7
  8
0
 10
5.774684832646173
 20
-6.440317670104648
 30
162.7
 70
   192
  0
VERTEX
  5
19E8
  8
0
 10
6.140317670104079
 20
-6.074684832646743
 30
162.7
 70
   192
  0
VERTEX
  5
19E9
  8
0
 10
5.27500000000053
 20
-6.575000000000633
 30
180.8158056548926
 70
   192
  0
VERTEX
  5
19EA
  8
0
 10
5.275
 20
-6.575000000000569
 30
162.7000000000001
 70
   192
  0
VERTEX
  5
19EB
  8
0
 10
6.145650885023112
 20
-6.06689535840318
 30
180.8776333238001
 70
   192
  0
VERTEX
  5
19EC
  8
0
 10
6.275
 20
-5.57500000000057
 30
162.7000000000001
 70
   192
  0
VERTEX
  5
19ED
  8
0
 10
6.275
 20
-5.575000000000632
 30
180.886895702225
 70
   192
  0
VERTEX
  5
19EE
  8
0
 10
0.0
 20
0.0
 30
0.0
 70
   128
 71
     1
 72
     2
 73
     3
  0
VERTEX
  5
19EF
  8
0
 10
0.0
 20
0.0
 30
0.0
 70
   128
 71
     4
 72
     5
 73
     2
  0
VERTEX
  5
19F0
  8
0
 10
0.0
 20
0.0
 30
0.0
 70
   128
 71
     6
 72
     3
 73
     7
  0
VERTEX
  5
19F1
  8
0
 10
0.0
 20
0.0
 30
0.0
 70
   128
 71
     4
 72
     2
 73
     1
  0
VERTEX
  5
19F2
  8
0
 10
0.0
 20
0.0
 30
0.0
 70
   128
 71
     1
 72
     3
 73
     6
  0
VERTEX
  5
19F3
  8
0
 10
0.0
 20
0.0
 30
0.0
 70
   128
 71
     6
 72
     7
 73
     8
  0
SEQEND
  5
1AE5
  8
0
  0
POLYLINE
  5
19F4
  8
0
 66
     1
 10
0.0
 20
0.0
 30
0.0
 70
    64
 71
     8
 72
     6
  0
VERTEX
  5
19F5
  8
0
 10
-5.325
 20
-6.507658835052624
 30
167.450157583677
 70
   192
  0
VERTEX
  5
19F6
  8
0
 10
-5.324999999999999
 20
-6.32484241632367
 30
167.267341164948
 70
   192
  0
VERTEX
  5
19F7
  8
0
 10
-4.134110346167555
 20
-6.321337388064669
 30
167.2649415399484
 70
   192
  0
VERTEX
  5
19F8
  8
0
 10
-5.325
 20
-6.575000000000585
 30
167.7000000000001
 70
   192
  0
VERTEX
  5
19F9
  8
0
 10
-3.571825896300553
 20
-6.504770981588192
 30
167.4443526222505
 70
   192
  0
VERTEX
  5
19FA
  8
0
 10
-2.92649728327
 20
-6.575000000000585
 30
167.7000000000001
 70
   192
  0
VERTEX
  5
19FB
  8
0
 10
-5.325
 20
-6.075000000000584
 30
167.2000000000001
 70
   192
  0
VERTEX
  5
19FC
  8
0
 10
-4.584809678448241
 20
-6.075000000000344
 30
167.2000000000001
 70
   192
  0
VERTEX
  5
19FD
  8
0
 10
0.0
 20
0.0
 30
0.0
 70
   128
 71
     1
 72
     2
 73
     3
  0
VERTEX
  5
19FE
  8
0
 10
0.0
 20
0.0
 30
0.0
 70
   128
 71
     4
 72
     1
 73
     5
  0
VERTEX
  5
19FF
  8
0
 10
0.0
 20
0.0
 30
0.0
 70
   128
 71
     6
 72
     4
 73
     5
  0
VERTEX
  5
1A00
  8
0
 10
0.0
 20
0.0
 30
0.0
 70
   128
 71
     5
 72
     1
 73
     3
  0
VERTEX
  5
1A01
  8
0
 10
0.0
 20
0.0
 30
0.0
 70
   128
 71
     3
 72
     2
 73
     7
  0
VERTEX
  5
1A02
  8
0
 10
0.0
 20
0.0
 30
0.0
 70
   128
 71
     3
 72
     7
 73
     8
  0
SEQEND
  5
1AE6
  8
0
  0
POLYLINE
  5
1A03
  8
0
 66
     1
 10
0.0
 20
0.0
 30
0.0
 70
    64
 71
     8
 72
     6
  0
VERTEX
  5
1A04
  8
0
 10
6.775315167353829
 20
-4.709682329896551
 30
180.8868957023
 70
   192
  0
VERTEX
  5
1A05
  8
0
 10
6.409682329895922
 20
-5.075315167354459
 30
180.8868957022973
 70
   192
  0
VERTEX
  5
1A06
  8
0
 10
6.409682329895922
 20
-5.075315167354395
 30
162.7
 70
   192
  0
VERTEX
  5
1A07
  8
0
 10
6.775315167353831
 20
-4.709682329896488
 30
162.7
 70
   192
  0
VERTEX
  5
1A08
  8
0
 10
6.275
 20
-5.575000000000632
 30
180.886895702225
 70
   192
  0
VERTEX
  5
1A09
  8
0
 10
6.275
 20
-5.57500000000057
 30
162.7000000000001
 70
   192
  0
VERTEX
  5
1A0A
  8
0
 10
7.275
 20
-4.575000000000631
 30
180.8868957023001
 70
   192
  0
VERTEX
  5
1A0B
  8
0
 10
7.275
 20
-4.575000000000569
 30
162.7000000000001
 70
   192
  0
VERTEX
  5
1A0C
  8
0
 10
0.0
 20
0.0
 30
0.0
 70
   128
 71
     1
 72
     2
 73
    -3
  0
VERTEX
  5
1A0D
  8
0
 10
0.0
 20
0.0
 30
0.0
 70
   128
 71
     4
 72
    -1
 73
     3
  0
VERTEX
  5
1A0E
  8
0
 10
0.0
 20
0.0
 30
0.0
 70
   128
 71
     2
 72
     5
 73
    -6
  0
VERTEX
  5
1A0F
  8
0
 10
0.0
 20
0.0
 30
0.0
 70
   128
 71
     3
 72
    -2
 73
     6
  0
VERTEX
  5
1A10
  8
0
 10
0.0
 20
0.0
 30
0.0
 70
   128
 71
     7
 72
     1
 73
    -4
  0
VERTEX
  5
1A11
  8
0
 10
0.0
 20
0.0
 30
0.0
 70
   128
 71
     8
 72
    -7
 73
     4
  0
SEQEND
  5
1AE7
  8
0
  0
POLYLINE
  5
1A12
  8
0
 66
     1
 10
0.0
 20
0.0
 30
0.0
 70
    64
 71
     8
 72
     6
  0
VERTEX
  5
1A13
  8
0
 10
8.140317670104082
 20
-4.07468483264674
 30
162.7000000000001
 70
   192
  0
VERTEX
  5
1A14
  8
0
 10
8.14031767010408
 20
-4.074684832646802
 30
180.8868957023001
 70
   192
  0
VERTEX
  5
1A15
  8
0
 10
7.77468483264617
 20
-4.440317670104707
 30
180.8868957023
 70
   192
  0
VERTEX
  5
1A16
  8
0
 10
7.774684832646174
 20
-4.440317670104647
 30
162.7
 70
   192
  0
VERTEX
  5
1A17
  8
0
 10
8.274999999999999
 20
-3.575000000000567
 30
162.7000000000001
 70
   192
  0
VERTEX
  5
1A18
  8
0
 10
8.274999999999999
 20
-3.57500000000063
 30
180.8868957023001
 70
   192
  0
VERTEX
  5
1A19
  8
0
 10
7.275
 20
-4.575000000000631
 30
180.8868957023001
 70
   192
  0
VERTEX
  5
1A1A
  8
0
 10
7.275
 20
-4.575000000000569
 30
162.7000000000001
 70
   192
  0
VERTEX
  5
1A1B
  8
0
 10
0.0
 20
0.0
 30
0.0
 70
   128
 71
     1
 72
     2
 73
    -3
  0
VERTEX
  5
1A1C
  8
0
 10
0.0
 20
0.0
 30
0.0
 70
   128
 71
    -1
 72
     3
 73
     4
  0
VERTEX
  5
1A1D
  8
0
 10
0.0
 20
0.0
 30
0.0
 70
   128
 71
     5
 72
     6
 73
    -2
  0
VERTEX
  5
1A1E
  8
0
 10
0.0
 20
0.0
 30
0.0
 70
   128
 71
    -5
 72
     2
 73
     1
  0
VERTEX
  5
1A1F
  8
0
 10
0.0
 20
0.0
 30
0.0
 70
   128
 71
     4
 72
     3
 73
    -7
  0
VERTEX
  5
1A20
  8
0
 10
0.0
 20
0.0
 30
0.0
 70
   128
 71
    -4
 72
     7
 73
     8
  0
SEQEND
  5
1AE8
  8
0
  0
POLYLINE
  5
1A21
  8
0
 66
     1
 10
0.0
 20
0.0
 30
0.0
 70
    64
 71
     4
 72
     2
  0
VERTEX
  5
1A22
  8
0
 10
8.274999999999999
 20
3.424999999999432
 30
162.7000000000001
 70
   192
  0
VERTEX
  5
1A23
  8
0
 10
8.274999999999999
 20
3.42499999999937
 30
180.8868957023001
 70
   192
  0
VERTEX
  5
1A24
  8
0
 10
8.274999999999999
 20
-3.57500000000063
 30
180.8868957023001
 70
   192
  0
VERTEX
  5
1A25
  8
0
 10
8.274999999999999
 20
-3.575000000000567
 30
162.7000000000001
 70
   192
  0
VERTEX
  5
1A26
  8
0
 10
0.0
 20
0.0
 30
0.0
 70
   128
 71
     3
 72
     4
 73
    -1
  0
VERTEX
  5
1A27
  8
0
 10
0.0
 20
0.0
 30
0.0
 70
   128
 71
     2
 72
    -3
 73
     1
  0
SEQEND
  5
1AE9
  8
0
  0
POLYLINE
  5
1A28
  8
0
 66
     1
 10
0.0
 20
0.0
 30
0.0
 70
    64
 71
     8
 72
     6
  0
VERTEX
  5
1A29
  8
0
 10
8.140317670104082
 20
3.924684832645542
 30
180.8868957023001
 70
   192
  0
VERTEX
  5
1A2A
  8
0
 10
8.14031767010408
 20
3.924684832645605
 30
162.7000000000001
 70
   192
  0
VERTEX
  5
1A2B
  8
0
 10
7.77468483264617
 20
4.290317670103511
 30
162.7
 70
   192
  0
VERTEX
  5
1A2C
  8
0
 10
7.774684832646174
 20
4.290317670103449
 30
180.8868957022992
 70
   192
  0
VERTEX
  5
1A2D
  8
0
 10
8.274999999999999
 20
3.42499999999937
 30
180.8868957023001
 70
   192
  0
VERTEX
  5
1A2E
  8
0
 10
8.274999999999999
 20
3.424999999999432
 30
162.7000000000001
 70
   192
  0
VERTEX
  5
1A2F
  8
0
 10
7.275
 20
4.424999999999433
 30
162.7000000000001
 70
   192
  0
VERTEX
  5
1A30
  8
0
 10
7.275
 20
4.42499999999937
 30
180.8868957022751
 70
   192
  0
VERTEX
  5
1A31
  8
0
 10
0.0
 20
0.0
 30
0.0
 70
   128
 71
     1
 72
     2
 73
    -3
  0
VERTEX
  5
1A32
  8
0
 10
0.0
 20
0.0
 30
0.0
 70
   128
 71
    -1
 72
     3
 73
     4
  0
VERTEX
  5
1A33
  8
0
 10
0.0
 20
0.0
 30
0.0
 70
   128
 71
     5
 72
     6
 73
    -2
  0
VERTEX
  5
1A34
  8
0
 10
0.0
 20
0.0
 30
0.0
 70
   128
 71
    -5
 72
     2
 73
     1
  0
VERTEX
  5
1A35
  8
0
 10
0.0
 20
0.0
 30
0.0
 70
   128
 71
     4
 72
     3
 73
    -7
  0
VERTEX
  5
1A36
  8
0
 10
0.0
 20
0.0
 30
0.0
 70
   128
 71
    -4
 72
     7
 73
     8
  0
SEQEND
  5
1AEA
  8
0
  0
POLYLINE
  5
1A37
  8
0
 66
     1
 10
0.0
 20
0.0
 30
0.0
 70
    64
 71
    10
 72
     8
  0
VERTEX
  5
1A38
  8
0
 10
6.775315167353829
 20
4.559682329895353
 30
162.7000000000001
 70
   192
  0
VERTEX
  5
1A39
  8
0
 10
6.409682329895922
 20
4.927167019205112
 30
162.7000000000002
 70
   192
  0
VERTEX
  5
1A3A
  8
0
 10
6.409682329895922
 20
4.927167019205049
 30
180.8868957022002
 70
   192
  0
VERTEX
  5
1A3B
  8
0
 10
6.775315167353831
 20
4.559682329895291
 30
180.886895702203
 70
   192
  0
VERTEX
  5
1A3C
  8
0
 10
6.275000000000002
 20
5.508333333332724
 30
174.8245971348001
 70
   192
  0
VERTEX
  5
1A3D
  8
0
 10
6.275
 20
5.474999999999369
 30
180.8868957022001
 70
   192
  0
VERTEX
  5
1A3E
  8
0
 10
6.275
 20
5.474999999999432
 30
162.7000000000001
 70
   192
  0
VERTEX
  5
1A3F
  8
0
 10
6.275
 20
5.508333333332744
 30
168.7622985674001
 70
   192
  0
VERTEX
  5
1A40
  8
0
 10
7.275
 20
4.424999999999433
 30
162.7000000000001
 70
   192
  0
VERTEX
  5
1A41
  8
0
 10
7.275
 20
4.42499999999937
 30
180.8868957022751
 70
   192
  0
VERTEX
  5
1A42
  8
0
 10
0.0
 20
0.0
 30
0.0
 70
   128
 71
     1
 72
     2
 73
    -3
  0
VERTEX
  5
1A43
  8
0
 10
0.0
 20
0.0
 30
0.0
 70
   128
 71
     4
 72
    -1
 73
     3
  0
VERTEX
  5
1A44
  8
0
 10
0.0
 20
0.0
 30
0.0
 70
   128
 71
     5
 72
     6
 73
     3
  0
VERTEX
  5
1A45
  8
0
 10
0.0
 20
0.0
 30
0.0
 70
   128
 71
     2
 72
     7
 73
     8
  0
VERTEX
  5
1A46
  8
0
 10
0.0
 20
0.0
 30
0.0
 70
   128
 71
     8
 72
    -5
 73
     2
  0
VERTEX
  5
1A47
  8
0
 10
0.0
 20
0.0
 30
0.0
 70
   128
 71
     5
 72
     3
 73
    -2
  0
VERTEX
  5
1A48
  8
0
 10
0.0
 20
0.0
 30
0.0
 70
   128
 71
     9
 72
     1
 73
    -4
  0
VERTEX
  5
1A49
  8
0
 10
0.0
 20
0.0
 30
0.0
 70
   128
 71
    10
 72
    -9
 73
     4
  0
SEQEND
  5
1AEB
  8
0
  0
ENDBLK
  5
1ACE
  8
0
  0
ENDSEC
  0
SECTION
  2
ENTITIES
  0
INSERT
  5
BE
  8
0
  2
*X1
 10
0.0
 20
0.0
 30
0.0
  0
INSERT
  5
BF
  8
0
  2
*X2
 10
0.0
 20
0.0
 30
0.0
  0
POLYLINE
  5
C0
  8
0
 66
     1
 10
0.0
 20
0.0
 30
0.0
 70
    64
 71
     6
 72
     4
  0
VERTEX
  5
133E
  8
0
 10
4.771959389599346
 20
24.10300116322617
 30
193.8000000000001
 70
   192
  0
VERTEX
  5
133F
  8
0
 10
4.68492299628346
 20
24.17772782684273
 30
193.8000000000001
 70
   192
  0
VERTEX
  5
1340
  8
0
 10
4.771707126182842
 20
24.103265234469
 30
193.7977573722551
 70
   192
  0
VERTEX
  5
1341
  8
0
 10
4.852839518121526
 20
24.02216744415279
 30
193.797757372255
 70
   192
  0
VERTEX
  5
1342
  8
0
 10
4.92778880674386
 20
23.9348459509923
 30
193.8000000000001
 70
   192
  0
VERTEX
  5
1343
  8
0
 10
4.853069806974246
 20
24.02188780002286
 30
193.8000000000001
 70
   192
  0
VERTEX
  5
1344
  8
0
 10
0.0
 20
0.0
 30
0.0
 70
   128
 71
     1
 72
     2
 73
     3
  0
VERTEX
  5
1345
  8
0
 10
0.0
 20
0.0
 30
0.0
 70
   128
 71
     4
 72
     5
 73
     6
  0
VERTEX
  5
1346
  8
0
 10
0.0
 20
0.0
 30
0.0
 70
   128
 71
     6
 72
     1
 73
     4
  0
VERTEX
  5
1347
  8
0
 10
0.0
 20
0.0
 30
0.0
 70
   128
 71
     1
 72
     3
 73
     4
  0
SEQEND
  5
1AEC
  8
0
  0
POLYLINE
  5
C1
  8
0
 66
     1
 10
0.0
 20
0.0
 30
0.0
 70
    64
 71
     9
 72
     7
  0
VERTEX
  5
1348
  8
0
 10
4.171631592972949
 20
24.4407237495263
 30
193.7967177288942
 70
   192
  0
VERTEX
  5
1349
  8
0
 10
4.244936549834975
 20
24.41755080194559
 30
193.7957174087501
 70
   192
  0
VERTEX
  5
134A
  8
0
 10
4.193261875602094
 20
24.43430475687919
 30
193.8000000000001
 70
   192
  0
VERTEX
  5
134B
  8
0
 10
4.083003783112985
 20
24.46345135657734
 30
193.8000000000001
 70
   192
  0
VERTEX
  5
134C
  8
0
 10
4.30105272628363
 20
24.39703606510901
 30
193.8000000000002
 70
   192
  0
VERTEX
  5
134D
  8
0
 10
4.3098945578851
 20
24.39370336340571
 30
193.796840032728
 70
   192
  0
VERTEX
  5
134E
  8
0
 10
4.354133814525971
 20
24.37538614842318
 30
193.7981653484523
 70
   192
  0
VERTEX
  5
134F
  8
0
 10
4.405780378483994
 20
24.35187530875439
 30
193.8000000000001
 70
   192
  0
VERTEX
  5
1350
  8
0
 10
4.273387254381421
 20
24.40752542436037
 30
193.7960240528272
 70
   192
  0
VERTEX
  5
1351
  8
0
 10
0.0
 20
0.0
 30
0.0
 70
   128
 71
     1
 72
     2
 73
     3
  0
VERTEX
  5
1352
  8
0
 10
0.0
 20
0.0
 30
0.0
 70
   128
 71
     3
 72
     4
 73
     1
  0
VERTEX
  5
1353
  8
0
 10
0.0
 20
0.0
 30
0.0
 70
   128
 71
     5
 72
     6
 73
     7
  0
VERTEX
  5
1354
  8
0
 10
0.0
 20
0.0
 30
0.0
 70
   128
 71
     7
 72
     8
 73
     5
  0
VERTEX
  5
1355
  8
0
 10
0.0
 20
0.0
 30
0.0
 70
   128
 71
     5
 72
     3
 73
     6
  0
VERTEX
  5
1356
  8
0
 10
0.0
 20
0.0
 30
0.0
 70
   128
 71
     6
 72
     3
 73
     2
  0
VERTEX
  5
1357
  8
0
 10
0.0
 20
0.0
 30
0.0
 70
   128
 71
     9
 72
     6
 73
     2
  0
SEQEND
  5
1AED
  8
0
  0
POLYLINE
  5
C2
  8
0
 66
     1
 10
0.0
 20
0.0
 30
0.0
 70
    64
 71
     9
 72
     7
  0
VERTEX
  5
1358
  8
0
 10
5.143727201442136
 20
23.55951641452188
 30
193.7968368019483
 70
   192
  0
VERTEX
  5
1359
  8
0
 10
5.157504007385063
 20
23.52325800004604
 30
193.7960193677894
 70
   192
  0
VERTEX
  5
135A
  8
0
 10
5.147001756287964
 20
23.55114206932076
 30
193.8000000000001
 70
   192
  0
VERTEX
  5
135B
  8
0
 10
5.10190288335712
 20
23.65572305205047
 30
193.8000000000001
 70
   192
  0
VERTEX
  5
135C
  8
0
 10
5.125464465665464
 20
23.60380494422916
 30
193.7981636793519
 70
   192
  0
VERTEX
  5
135D
  8
0
 10
5.19058655945515
 20
23.4221799094724
 30
193.7967101335711
 70
   192
  0
VERTEX
  5
135E
  8
0
 10
5.21336139088897
 20
23.33340695314541
 30
193.8000000000001
 70
   192
  0
VERTEX
  5
135F
  8
0
 10
5.184230484764361
 20
23.44350521127607
 30
193.8000000000001
 70
   192
  0
VERTEX
  5
1360
  8
0
 10
5.167426849475246
 20
23.49529611660988
 30
193.7957113768751
 70
   192
  0
VERTEX
  5
1361
  8
0
 10
0.0
 20
0.0
 30
0.0
 70
   128
 71
     1
 72
     2
 73
     3
  0
VERTEX
  5
1362
  8
0
 10
0.0
 20
0.0
 30
0.0
 70
   128
 71
     3
 72
     4
 73
     5
  0
VERTEX
  5
1363
  8
0
 10
0.0
 20
0.0
 30
0.0
 70
   128
 71
     5
 72
     1
 73
     3
  0
VERTEX
  5
1364
  8
0
 10
0.0
 20
0.0
 30
0.0
 70
   128
 71
     6
 72
     7
 73
     8
  0
VERTEX
  5
1365
  8
0
 10
0.0
 20
0.0
 30
0.0
 70
   128
 71
     8
 72
     3
 73
     6
  0
VERTEX
  5
1366
  8
0
 10
0.0
 20
0.0
 30
0.0
 70
   128
 71
     3
 72
     2
 73
     9
  0
VERTEX
  5
1367
  8
0
 10
0.0
 20
0.0
 30
0.0
 70
   128
 71
     6
 72
     3
 73
     9
  0
SEQEND
  5
1AEE
  8
0
  0
INSERT
  5
C3
  8
0
  2
*X3
 10
0.0
 20
0.0
 30
0.0
  0
INSERT
  5
C4
  8
0
  2
*X4
 10
0.0
 20
0.0
 30
0.0
  0
INSERT
  5
C5
  8
0
  2
*X5
 10
0.0
 20
0.0
 30
0.0
  0
ENDSEC
  0
EOF
