  0
SECTION
  2
HEADER
  9
$ACADVER
  1
AC1009
  9
$DWGCODEPAGE
  3
ansi_1250
  9
$INSBASE
 10
0.0
 20
0.0
 30
0.0
  9
$EXTMIN
 10
-25.0
 20
-25.00000000000003
 30
-0.0000000000000013
  9
$EXTMAX
 10
200.0
 20
25.0
 30
278.6631931199001
  9
$LIMMIN
 10
0.0
 20
0.0
  9
$LIMMAX
 10
420.0
 20
297.0
  9
$ORTHOMODE
 70
     0
  9
$REGENMODE
 70
     1
  9
$FILLMODE
 70
     1
  9
$QTEXTMODE
 70
     0
  9
$MIRRTEXT
 70
     0
  9
$DRAGMODE
 70
     2
  9
$LTSCALE
 40
1.0
  9
$OSMODE
 70
   511
  9
$ATTMODE
 70
     1
  9
$TEXTSIZE
 40
2.5
  9
$TRACEWID
 40
1.0
  9
$TEXTSTYLE
  7
STANDARD
  9
$CLAYER
  8
0
  9
$CELTYPE
  6
BYLAYER
  9
$CECOLOR
 62
   256
  9
$DIMSCALE
 40
1.0
  9
$DIMASZ
 40
2.5
  9
$DIMEXO
 40
0.625
  9
$DIMDLI
 40
3.75
  9
$DIMRND
 40
0.0
  9
$DIMDLE
 40
0.0
  9
$DIMEXE
 40
1.25
  9
$DIMTP
 40
0.0
  9
$DIMTM
 40
0.0
  9
$DIMTXT
 40
2.5
  9
$DIMCEN
 40
-2.5
  9
$DIMTSZ
 40
0.0
  9
$DIMTOL
 70
     0
  9
$DIMLIM
 70
     0
  9
$DIMTIH
 70
     0
  9
$DIMTOH
 70
     0
  9
$DIMSE1
 70
     0
  9
$DIMSE2
 70
     0
  9
$DIMTAD
 70
     1
  9
$DIMZIN
 70
     8
  9
$DIMBLK
  1

  9
$DIMASO
 70
     1
  9
$DIMSHO
 70
     1
  9
$DIMPOST
  1

  9
$DIMAPOST
  1

  9
$DIMALT
 70
     0
  9
$DIMALTD
 70
     3
  9
$DIMALTF
 40
0.03937007874016
  9
$DIMLFAC
 40
1.0
  9
$DIMTOFL
 70
     1
  9
$DIMTVP
 40
0.0
  9
$DIMTIX
 70
     0
  9
$DIMSOXD
 70
     0
  9
$DIMSAH
 70
     0
  9
$DIMBLK1
  1

  9
$DIMBLK2
  1

  9
$DIMSTYLE
  2
ISO-25
  9
$DIMCLRD
 70
     0
  9
$DIMCLRE
 70
     0
  9
$DIMCLRT
 70
     0
  9
$DIMTFAC
 40
1.0
  9
$DIMGAP
 40
0.625
  9
$LUNITS
 70
     2
  9
$LUPREC
 70
     3
  9
$SKETCHINC
 40
1.0
  9
$FILLETRAD
 40
10.0
  9
$AUNITS
 70
     0
  9
$AUPREC
 70
     0
  9
$MENU
  1
.
  9
$ELEVATION
 40
0.0
  9
$PELEVATION
 40
0.0
  9
$THICKNESS
 40
0.0
  9
$LIMCHECK
 70
     0
  9
$CHAMFERA
 40
10.0
  9
$CHAMFERB
 40
10.0
  9
$SKPOLY
 70
     0
  9
$TDCREATE
 40
2455022.720692848
  9
$TDUPDATE
 40
2460482.583246586
  9
$TDINDWG
 40
0.000175706
  9
$TDUSRTIMER
 40
0.000175706
  9
$USRTIMER
 70
     1
  9
$ANGBASE
 50
0.0
  9
$ANGDIR
 70
     0
  9
$PDMODE
 70
     0
  9
$PDSIZE
 40
0.0
  9
$PLINEWID
 40
0.0
  9
$COORDS
 70
     1
  9
$SPLFRAME
 70
     0
  9
$SPLINETYPE
 70
     6
  9
$SPLINESEGS
 70
     8
  9
$ATTDIA
 70
     0
  9
$ATTREQ
 70
     1
  9
$HANDLING
 70
     1
  9
$HANDSEED
  5
1CAC
  9
$SURFTAB1
 70
     6
  9
$SURFTAB2
 70
     6
  9
$SURFTYPE
 70
     6
  9
$SURFU
 70
     6
  9
$SURFV
 70
     6
  9
$UCSNAME
  2

  9
$UCSORG
 10
0.0
 20
0.0
 30
0.0
  9
$UCSXDIR
 10
1.0
 20
0.0
 30
0.0
  9
$UCSYDIR
 10
0.0
 20
1.0
 30
0.0
  9
$PUCSNAME
  2

  9
$PUCSORG
 10
0.0
 20
0.0
 30
0.0
  9
$PUCSXDIR
 10
1.0
 20
0.0
 30
0.0
  9
$PUCSYDIR
 10
0.0
 20
1.0
 30
0.0
  9
$USERI1
 70
     0
  9
$USERI2
 70
     0
  9
$USERI3
 70
     0
  9
$USERI4
 70
     0
  9
$USERI5
 70
     0
  9
$USERR1
 40
0.0
  9
$USERR2
 40
0.0
  9
$USERR3
 40
0.0
  9
$USERR4
 40
0.0
  9
$USERR5
 40
0.0
  9
$WORLDVIEW
 70
     1
  9
$SHADEDGE
 70
     3
  9
$SHADEDIF
 70
    70
  9
$TILEMODE
 70
     1
  9
$MAXACTVP
 70
    64
  9
$PLIMCHECK
 70
     0
  9
$PEXTMIN
 10
1.000000000000000E+20
 20
1.000000000000000E+20
 30
1.000000000000000E+20
  9
$PEXTMAX
 10
-1.000000000000000E+20
 20
-1.000000000000000E+20
 30
-1.000000000000000E+20
  9
$PLIMMIN
 10
0.0
 20
0.0
  9
$PLIMMAX
 10
0.0
 20
0.0
  9
$UNITMODE
 70
     0
  9
$VISRETAIN
 70
     1
  9
$PLINEGEN
 70
     0
  9
$PSLTSCALE
 70
     1
  0
ENDSEC
  0
SECTION
  2
TABLES
  0
TABLE
  2
VPORT
 70
     1
  0
VPORT
  2
*ACTIVE
 70
     0
 10
0.0
 20
0.0
 11
1.0
 21
1.0
 12
-156.7563215246308
 22
23.26046777697941
 13
0.0
 23
0.0
 14
10.0
 24
10.0
 15
10.0
 25
10.0
 16
0.5773502691896226
 26
0.5773502691896226
 36
0.5773502691896262
 17
-134.1869158878503
 27
-0.0000000000000391
 37
-0.0000000000000213
 40
346.5917407761706
 41
1.88293897882939
 42
50.0
 43
0.0
 44
0.0
 50
0.0
 51
0.0
 71
    16
 72
  1000
 73
     1
 74
     3
 75
     0
 76
     0
 77
     0
 78
     0
  0
ENDTAB
  0
TABLE
  2
LTYPE
 70
     1
  0
LTYPE
  2
CONTINUOUS
 70
     0
  3
Solid line
 72
    65
 73
     0
 40
0.0
  0
ENDTAB
  0
TABLE
  2
LAYER
 70
     1
  0
LAYER
  2
0
 70
     0
 62
     7
  6
CONTINUOUS
  0
ENDTAB
  0
TABLE
  2
STYLE
 70
     2
  0
STYLE
  2
STANDARD
 70
     0
 40
0.0
 41
1.0
 50
0.0
 71
     0
 42
2.5
  3
arial.ttf
  4

  0
STYLE
  2
ANNOTATIVE
 70
     0
 40
0.0
 41
1.0
 50
0.0
 71
     0
 42
2.5
  3
arial.ttf
  4

  0
ENDTAB
  0
TABLE
  2
VIEW
 70
     0
  0
ENDTAB
  0
TABLE
  2
UCS
 70
     0
  0
ENDTAB
  0
TABLE
  2
APPID
 70
     2
  0
APPID
  2
ACAD
 70
     0
  0
APPID
  2
ACADANNOTATIVE
 70
     0
  0
ENDTAB
  0
TABLE
  2
DIMSTYLE
 70
     2
  0
DIMSTYLE
  2
ISO-25
 70
     0
  3

  4

  5

  6

  7

 40
1.0
 41
2.5
 42
0.625
 43
3.75
 44
1.25
 45
0.0
 46
0.0
 47
0.0
 48
0.0
140
2.5
141
-2.5
142
0.0
143
0.03937007874016
144
1.0
145
0.0
146
1.0
147
0.625
 71
     0
 72
     0
 73
     0
 74
     0
 75
     0
 76
     0
 77
     1
 78
     8
170
     0
171
     3
172
     1
173
     0
174
     0
175
     0
176
     0
177
     0
178
     0
  0
DIMSTYLE
  2
ANNOTATIVE
 70
     0
  3

  4

  5

  6

  7

 40
0.0
 41
2.5
 42
0.625
 43
3.75
 44
1.25
 45
0.0
 46
0.0
 47
0.0
 48
0.0
140
2.5
141
-2.5
142
0.0
143
0.03937007874016
144
1.0
145
0.0
146
1.0
147
0.625
 71
     0
 72
     0
 73
     0
 74
     0
 75
     0
 76
     0
 77
     1
 78
     8
170
     0
171
     3
172
     1
173
     0
174
     0
175
     0
176
     0
177
     0
178
     0
  0
ENDTAB
  0
ENDSEC
  0
SECTION
  2
BLOCKS
  0
BLOCK
  8
0
  2
$MODEL_SPACE
 70
     0
 10
0.0
 20
0.0
 30
0.0
  3
$MODEL_SPACE
  1

  0
ENDBLK
  5
21
  8
0
  0
BLOCK
 67
     1
  8
0
  2
$PAPER_SPACE
 70
     0
 10
0.0
 20
0.0
 30
0.0
  3
$PAPER_SPACE
  1

  0
ENDBLK
  5
1D
 67
     1
  8
0
  0
BLOCK
  8
0
  2
*X1
 70
     1
 10
0.0
 20
0.0
 30
0.0
  3
*X1
  1

  0
POLYLINE
  5
EC0
  8
0
 66
     1
 10
0.0
 20
0.0
 30
0.0
 70
    64
 71
     4
 72
     2
  0
VERTEX
  5
EC1
  8
0
 10
-20.5
 20
-25.00000000000001
 30
4.500000000000001
 70
   192
  0
VERTEX
  5
EC2
  8
0
 10
20.5
 20
-25.00000000000001
 30
4.500000000000001
 70
   192
  0
VERTEX
  5
EC3
  8
0
 10
20.5
 20
-25.0
 30
0.0
 70
   192
  0
VERTEX
  5
EC4
  8
0
 10
-20.5
 20
-25.0
 30
0.0
 70
   192
  0
VERTEX
  5
EC5
  8
0
 10
0.0
 20
0.0
 30
0.0
 70
   128
 71
     1
 72
     4
 73
    -3
  0
VERTEX
  5
EC6
  8
0
 10
0.0
 20
0.0
 30
0.0
 70
   128
 71
    -1
 72
     3
 73
     2
  0
SEQEND
  5
1C00
  8
0
  0
POLYLINE
  5
EC7
  8
0
 66
     1
 10
0.0
 20
0.0
 30
0.0
 70
    64
 71
     8
 72
     6
  0
VERTEX
  5
EC8
  8
0
 10
20.5
 20
-24.7498424163231
 30
4.932658835052042
 70
   192
  0
VERTEX
  5
EC9
  8
0
 10
-20.5
 20
-24.7498424163231
 30
4.932658835052042
 70
   192
  0
VERTEX
  5
ECA
  8
0
 10
-20.5
 20
-24.93265883505205
 30
4.749842416323088
 70
   192
  0
VERTEX
  5
ECB
  8
0
 10
20.5
 20
-24.93265883505205
 30
4.749842416323089
 70
   192
  0
VERTEX
  5
ECC
  8
0
 10
20.5
 20
-24.50000000000002
 30
5.000000000000001
 70
   192
  0
VERTEX
  5
ECD
  8
0
 10
-20.5
 20
-24.50000000000002
 30
5.000000000000001
 70
   192
  0
VERTEX
  5
ECE
  8
0
 10
-20.5
 20
-25.00000000000001
 30
4.500000000000001
 70
   192
  0
VERTEX
  5
ECF
  8
0
 10
20.5
 20
-25.00000000000001
 30
4.500000000000001
 70
   192
  0
VERTEX
  5
ED0
  8
0
 10
0.0
 20
0.0
 30
0.0
 70
   128
 71
     1
 72
     2
 73
    -3
  0
VERTEX
  5
ED1
  8
0
 10
0.0
 20
0.0
 30
0.0
 70
   128
 71
    -1
 72
     3
 73
     4
  0
VERTEX
  5
ED2
  8
0
 10
0.0
 20
0.0
 30
0.0
 70
   128
 71
     5
 72
     6
 73
    -2
  0
VERTEX
  5
ED3
  8
0
 10
0.0
 20
0.0
 30
0.0
 70
   128
 71
    -5
 72
     2
 73
     1
  0
VERTEX
  5
ED4
  8
0
 10
0.0
 20
0.0
 30
0.0
 70
   128
 71
     4
 72
     3
 73
    -7
  0
VERTEX
  5
ED5
  8
0
 10
0.0
 20
0.0
 30
0.0
 70
   128
 71
    -4
 72
     7
 73
     8
  0
SEQEND
  5
1C01
  8
0
  0
POLYLINE
  5
ED6
  8
0
 66
     1
 10
0.0
 20
0.0
 30
0.0
 70
    64
 71
     8
 72
     6
  0
VERTEX
  5
ED7
  8
0
 10
-24.39693012598617
 20
-22.74988038740128
 30
4.500000000000006
 70
   192
  0
VERTEX
  5
ED8
  8
0
 10
-24.39693012598616
 20
-22.74988038740126
 30
0.000000000000006
 70
   192
  0
VERTEX
  5
ED9
  8
0
 10
-22.74988038740126
 20
-24.39693012598617
 30
0.0000000000000003
 70
   192
  0
VERTEX
  5
EDA
  8
0
 10
-22.74988038740126
 20
-24.39693012598618
 30
4.5
 70
   192
  0
VERTEX
  5
EDB
  8
0
 10
-25.0
 20
-20.50000000000001
 30
4.500000000000018
 70
   192
  0
VERTEX
  5
EDC
  8
0
 10
-25.0
 20
-20.5
 30
0.0000000000000139
 70
   192
  0
VERTEX
  5
EDD
  8
0
 10
-20.5
 20
-25.0
 30
0.0
 70
   192
  0
VERTEX
  5
EDE
  8
0
 10
-20.5
 20
-25.00000000000001
 30
4.500000000000001
 70
   192
  0
VERTEX
  5
EDF
  8
0
 10
0.0
 20
0.0
 30
0.0
 70
   128
 71
     1
 72
     2
 73
    -3
  0
VERTEX
  5
EE0
  8
0
 10
0.0
 20
0.0
 30
0.0
 70
   128
 71
    -1
 72
     3
 73
     4
  0
VERTEX
  5
EE1
  8
0
 10
0.0
 20
0.0
 30
0.0
 70
   128
 71
     5
 72
     6
 73
    -2
  0
VERTEX
  5
EE2
  8
0
 10
0.0
 20
0.0
 30
0.0
 70
   128
 71
    -5
 72
     2
 73
     1
  0
VERTEX
  5
EE3
  8
0
 10
0.0
 20
0.0
 30
0.0
 70
   128
 71
     4
 72
     3
 73
    -7
  0
VERTEX
  5
EE4
  8
0
 10
0.0
 20
0.0
 30
0.0
 70
   128
 71
    -4
 72
     7
 73
     8
  0
SEQEND
  5
1C02
  8
0
  0
POLYLINE
  5
EE5
  8
0
 66
     1
 10
0.0
 20
0.0
 30
0.0
 70
    64
 71
    16
 72
    14
  0
VERTEX
  5
EE6
  8
0
 10
-20.5
 20
25.0
 30
0.0000000000001735
 70
   192
  0
VERTEX
  5
EE7
  8
0
 10
-22.74988038740126
 20
24.39693012598617
 30
0.0000000000001732
 70
   192
  0
VERTEX
  5
EE8
  8
0
 10
-24.39693012598617
 20
22.74988038740126
 30
0.0000000000001674
 70
   192
  0
VERTEX
  5
EE9
  8
0
 10
-25.0
 20
20.5
 30
0.0000000000001596
 70
   192
  0
VERTEX
  5
EEA
  8
0
 10
-25.0
 20
-20.5
 30
0.0000000000000139
 70
   192
  0
VERTEX
  5
EEB
  8
0
 10
-24.39693012598616
 20
-22.74988038740126
 30
0.000000000000006
 70
   192
  0
VERTEX
  5
EEC
  8
0
 10
-22.74988038740126
 20
-24.39693012598617
 30
0.0000000000000003
 70
   192
  0
VERTEX
  5
EED
  8
0
 10
-20.5
 20
-25.0
 30
0.0
 70
   192
  0
VERTEX
  5
EEE
  8
0
 10
20.5
 20
-25.0
 30
0.0
 70
   192
  0
VERTEX
  5
EEF
  8
0
 10
22.74988038740127
 20
-24.39693012598616
 30
0.0000000000000003
 70
   192
  0
VERTEX
  5
EF0
  8
0
 10
24.39693012598618
 20
-22.74988038740125
 30
0.000000000000006
 70
   192
  0
VERTEX
  5
EF1
  8
0
 10
25.0
 20
-20.5
 30
0.0000000000000139
 70
   192
  0
VERTEX
  5
EF2
  8
0
 10
25.0
 20
20.5
 30
0.0000000000001596
 70
   192
  0
VERTEX
  5
EF3
  8
0
 10
24.39693012598618
 20
22.74988038740125
 30
0.0000000000001674
 70
   192
  0
VERTEX
  5
EF4
  8
0
 10
22.74988038740126
 20
24.39693012598617
 30
0.0000000000001732
 70
   192
  0
VERTEX
  5
EF5
  8
0
 10
20.5
 20
25.0
 30
0.0000000000001735
 70
   192
  0
VERTEX
  5
EF6
  8
0
 10
0.0
 20
0.0
 30
0.0
 70
   128
 71
     1
 72
    16
 73
   -15
  0
VERTEX
  5
EF7
  8
0
 10
0.0
 20
0.0
 30
0.0
 70
   128
 71
    -1
 72
    15
 73
   -14
  0
VERTEX
  5
EF8
  8
0
 10
0.0
 20
0.0
 30
0.0
 70
   128
 71
    -1
 72
    14
 73
   -13
  0
VERTEX
  5
EF9
  8
0
 10
0.0
 20
0.0
 30
0.0
 70
   128
 71
    -1
 72
    13
 73
   -12
  0
VERTEX
  5
EFA
  8
0
 10
0.0
 20
0.0
 30
0.0
 70
   128
 71
    -1
 72
    12
 73
   -11
  0
VERTEX
  5
EFB
  8
0
 10
0.0
 20
0.0
 30
0.0
 70
   128
 71
    -1
 72
    11
 73
   -10
  0
VERTEX
  5
EFC
  8
0
 10
0.0
 20
0.0
 30
0.0
 70
   128
 71
    -1
 72
    10
 73
    -9
  0
VERTEX
  5
EFD
  8
0
 10
0.0
 20
0.0
 30
0.0
 70
   128
 71
    -1
 72
     9
 73
    -8
  0
VERTEX
  5
EFE
  8
0
 10
0.0
 20
0.0
 30
0.0
 70
   128
 71
    -1
 72
     8
 73
    -7
  0
VERTEX
  5
EFF
  8
0
 10
0.0
 20
0.0
 30
0.0
 70
   128
 71
    -1
 72
     7
 73
    -6
  0
VERTEX
  5
F00
  8
0
 10
0.0
 20
0.0
 30
0.0
 70
   128
 71
    -1
 72
     6
 73
    -5
  0
VERTEX
  5
F01
  8
0
 10
0.0
 20
0.0
 30
0.0
 70
   128
 71
    -1
 72
     5
 73
    -4
  0
VERTEX
  5
F02
  8
0
 10
0.0
 20
0.0
 30
0.0
 70
   128
 71
    -1
 72
     4
 73
    -3
  0
VERTEX
  5
F03
  8
0
 10
0.0
 20
0.0
 30
0.0
 70
   128
 71
    -1
 72
     3
 73
     2
  0
SEQEND
  5
1C03
  8
0
  0
POLYLINE
  5
F04
  8
0
 66
     1
 10
0.0
 20
0.0
 30
0.0
 70
    64
 71
     8
 72
     6
  0
VERTEX
  5
F05
  8
0
 10
22.74988038740127
 20
-24.39693012598618
 30
4.500000000000001
 70
   192
  0
VERTEX
  5
F06
  8
0
 10
22.74988038740127
 20
-24.39693012598616
 30
0.0000000000000003
 70
   192
  0
VERTEX
  5
F07
  8
0
 10
24.39693012598618
 20
-22.74988038740125
 30
0.000000000000006
 70
   192
  0
VERTEX
  5
F08
  8
0
 10
24.39693012598617
 20
-22.74988038740127
 30
4.500000000000004
 70
   192
  0
VERTEX
  5
F09
  8
0
 10
20.5
 20
-25.00000000000001
 30
4.500000000000001
 70
   192
  0
VERTEX
  5
F0A
  8
0
 10
20.5
 20
-25.0
 30
0.0
 70
   192
  0
VERTEX
  5
F0B
  8
0
 10
25.0
 20
-20.5
 30
0.0000000000000139
 70
   192
  0
VERTEX
  5
F0C
  8
0
 10
25.0
 20
-20.50000000000001
 30
4.500000000000018
 70
   192
  0
VERTEX
  5
F0D
  8
0
 10
0.0
 20
0.0
 30
0.0
 70
   128
 71
     1
 72
     2
 73
    -3
  0
VERTEX
  5
F0E
  8
0
 10
0.0
 20
0.0
 30
0.0
 70
   128
 71
    -1
 72
     3
 73
     4
  0
VERTEX
  5
F0F
  8
0
 10
0.0
 20
0.0
 30
0.0
 70
   128
 71
     5
 72
     6
 73
    -2
  0
VERTEX
  5
F10
  8
0
 10
0.0
 20
0.0
 30
0.0
 70
   128
 71
    -5
 72
     2
 73
     1
  0
VERTEX
  5
F11
  8
0
 10
0.0
 20
0.0
 30
0.0
 70
   128
 71
     4
 72
     3
 73
    -7
  0
VERTEX
  5
F12
  8
0
 10
0.0
 20
0.0
 30
0.0
 70
   128
 71
    -4
 72
     7
 73
     8
  0
SEQEND
  5
1C04
  8
0
  0
POLYLINE
  5
F13
  8
0
 66
     1
 10
0.0
 20
0.0
 30
0.0
 70
    64
 71
    16
 72
    14
  0
VERTEX
  5
F14
  8
0
 10
-24.5
 20
-20.50000000000002
 30
5.000000000000015
 70
   192
  0
VERTEX
  5
F15
  8
0
 10
-23.96387263126528
 20
-22.50153399905041
 30
5.000000000000009
 70
   192
  0
VERTEX
  5
F16
  8
0
 10
-22.50161039305942
 20
-23.96380324442738
 30
5.000000000000004
 70
   192
  0
VERTEX
  5
F17
  8
0
 10
-20.5
 20
-24.50000000000002
 30
5.000000000000001
 70
   192
  0
VERTEX
  5
F18
  8
0
 10
20.5
 20
-24.50000000000002
 30
5.000000000000001
 70
   192
  0
VERTEX
  5
F19
  8
0
 10
22.50153399905038
 20
-23.9638726312653
 30
5.000000000000004
 70
   192
  0
VERTEX
  5
F1A
  8
0
 10
23.96380324442737
 20
-22.50161039305944
 30
5.00000000000001
 70
   192
  0
VERTEX
  5
F1B
  8
0
 10
24.5
 20
-20.50000000000002
 30
5.000000000000015
 70
   192
  0
VERTEX
  5
F1C
  8
0
 10
24.5
 20
20.49999999999998
 30
5.000000000000161
 70
   192
  0
VERTEX
  5
F1D
  8
0
 10
23.96387263126528
 20
22.50153399905037
 30
5.000000000000166
 70
   192
  0
VERTEX
  5
F1E
  8
0
 10
22.50161039305942
 20
23.96380324442735
 30
5.000000000000171
 70
   192
  0
VERTEX
  5
F1F
  8
0
 10
20.5
 20
24.49999999999998
 30
5.000000000000174
 70
   192
  0
VERTEX
  5
F20
  8
0
 10
-20.5
 20
24.49999999999998
 30
5.000000000000174
 70
   192
  0
VERTEX
  5
F21
  8
0
 10
-22.50153399905038
 20
23.96387263126526
 30
5.000000000000171
 70
   192
  0
VERTEX
  5
F22
  8
0
 10
-23.96380324442737
 20
22.5016103930594
 30
5.000000000000167
 70
   192
  0
VERTEX
  5
F23
  8
0
 10
-24.5
 20
20.49999999999998
 30
5.000000000000161
 70
   192
  0
VERTEX
  5
F24
  8
0
 10
0.0
 20
0.0
 30
0.0
 70
   128
 71
    15
 72
    16
 73
    -1
  0
VERTEX
  5
F25
  8
0
 10
0.0
 20
0.0
 30
0.0
 70
   128
 71
    14
 72
   -15
 73
    -1
  0
VERTEX
  5
F26
  8
0
 10
0.0
 20
0.0
 30
0.0
 70
   128
 71
    13
 72
   -14
 73
    -1
  0
VERTEX
  5
F27
  8
0
 10
0.0
 20
0.0
 30
0.0
 70
   128
 71
    12
 72
   -13
 73
    -1
  0
VERTEX
  5
F28
  8
0
 10
0.0
 20
0.0
 30
0.0
 70
   128
 71
    11
 72
   -12
 73
    -1
  0
VERTEX
  5
F29
  8
0
 10
0.0
 20
0.0
 30
0.0
 70
   128
 71
    10
 72
   -11
 73
    -1
  0
VERTEX
  5
F2A
  8
0
 10
0.0
 20
0.0
 30
0.0
 70
   128
 71
     9
 72
   -10
 73
    -1
  0
VERTEX
  5
F2B
  8
0
 10
0.0
 20
0.0
 30
0.0
 70
   128
 71
     8
 72
    -9
 73
    -1
  0
VERTEX
  5
F2C
  8
0
 10
0.0
 20
0.0
 30
0.0
 70
   128
 71
     7
 72
    -8
 73
    -1
  0
VERTEX
  5
F2D
  8
0
 10
0.0
 20
0.0
 30
0.0
 70
   128
 71
     6
 72
    -7
 73
    -1
  0
VERTEX
  5
F2E
  8
0
 10
0.0
 20
0.0
 30
0.0
 70
   128
 71
     5
 72
    -6
 73
    -1
  0
VERTEX
  5
F2F
  8
0
 10
0.0
 20
0.0
 30
0.0
 70
   128
 71
     4
 72
    -5
 73
    -1
  0
VERTEX
  5
F30
  8
0
 10
0.0
 20
0.0
 30
0.0
 70
   128
 71
     3
 72
    -4
 73
    -1
  0
VERTEX
  5
F31
  8
0
 10
0.0
 20
0.0
 30
0.0
 70
   128
 71
     2
 72
    -3
 73
     1
  0
SEQEND
  5
1C05
  8
0
  0
POLYLINE
  5
F32
  8
0
 66
     1
 10
0.0
 20
0.0
 30
0.0
 70
    64
 71
     4
 72
     2
  0
VERTEX
  5
F33
  8
0
 10
-25.0
 20
20.49999999999999
 30
4.50000000000016
 70
   192
  0
VERTEX
  5
F34
  8
0
 10
-25.0
 20
-20.50000000000001
 30
4.500000000000018
 70
   192
  0
VERTEX
  5
F35
  8
0
 10
-25.0
 20
-20.5
 30
0.0000000000000139
 70
   192
  0
VERTEX
  5
F36
  8
0
 10
-25.0
 20
20.5
 30
0.0000000000001596
 70
   192
  0
VERTEX
  5
F37
  8
0
 10
0.0
 20
0.0
 30
0.0
 70
   128
 71
     1
 72
     4
 73
    -3
  0
VERTEX
  5
F38
  8
0
 10
0.0
 20
0.0
 30
0.0
 70
   128
 71
    -1
 72
     3
 73
     2
  0
SEQEND
  5
1C06
  8
0
  0
POLYLINE
  5
F39
  8
0
 66
     1
 10
0.0
 20
0.0
 30
0.0
 70
    64
 71
    12
 72
    10
  0
VERTEX
  5
F3A
  8
0
 10
-24.74984241632308
 20
-20.50000000000002
 30
4.932658835052059
 70
   192
  0
VERTEX
  5
F3B
  8
0
 10
-20.5
 20
-24.93265883505205
 30
4.749842416323088
 70
   192
  0
VERTEX
  5
F3C
  8
0
 10
-20.5
 20
-24.7498424163231
 30
4.932658835052042
 70
   192
  0
VERTEX
  5
F3D
  8
0
 10
-24.93265883505204
 20
-20.50000000000002
 30
4.749842416323106
 70
   192
  0
VERTEX
  5
F3E
  8
0
 10
-22.74988038740126
 20
-24.39693012598618
 30
4.5
 70
   192
  0
VERTEX
  5
F3F
  8
0
 10
-20.5
 20
-25.00000000000001
 30
4.500000000000001
 70
   192
  0
VERTEX
  5
F40
  8
0
 10
-24.39693012598617
 20
-22.74988038740128
 30
4.500000000000006
 70
   192
  0
VERTEX
  5
F41
  8
0
 10
-25.0
 20
-20.50000000000001
 30
4.500000000000018
 70
   192
  0
VERTEX
  5
F42
  8
0
 10
-22.50161039305942
 20
-23.96380324442738
 30
5.000000000000004
 70
   192
  0
VERTEX
  5
F43
  8
0
 10
-20.5
 20
-24.50000000000002
 30
5.000000000000001
 70
   192
  0
VERTEX
  5
F44
  8
0
 10
-23.96387263126528
 20
-22.50153399905041
 30
5.000000000000009
 70
   192
  0
VERTEX
  5
F45
  8
0
 10
-24.5
 20
-20.50000000000002
 30
5.000000000000015
 70
   192
  0
VERTEX
  5
F46
  8
0
 10
0.0
 20
0.0
 30
0.0
 70
   128
 71
    -1
 72
     2
 73
     3
  0
VERTEX
  5
F47
  8
0
 10
0.0
 20
0.0
 30
0.0
 70
   128
 71
     4
 72
    -2
 73
     1
  0
VERTEX
  5
F48
  8
0
 10
0.0
 20
0.0
 30
0.0
 70
   128
 71
     5
 72
     6
 73
     2
  0
VERTEX
  5
F49
  8
0
 10
0.0
 20
0.0
 30
0.0
 70
   128
 71
     2
 72
     7
 73
     5
  0
VERTEX
  5
F4A
  8
0
 10
0.0
 20
0.0
 30
0.0
 70
   128
 71
     8
 72
     7
 73
     2
  0
VERTEX
  5
F4B
  8
0
 10
0.0
 20
0.0
 30
0.0
 70
   128
 71
     8
 72
     2
 73
     4
  0
VERTEX
  5
F4C
  8
0
 10
0.0
 20
0.0
 30
0.0
 70
   128
 71
     9
 72
     3
 73
    10
  0
VERTEX
  5
F4D
  8
0
 10
0.0
 20
0.0
 30
0.0
 70
   128
 71
    11
 72
    12
 73
     1
  0
VERTEX
  5
F4E
  8
0
 10
0.0
 20
0.0
 30
0.0
 70
   128
 71
     1
 72
     3
 73
     9
  0
VERTEX
  5
F4F
  8
0
 10
0.0
 20
0.0
 30
0.0
 70
   128
 71
     1
 72
     9
 73
    11
  0
SEQEND
  5
1C07
  8
0
  0
POLYLINE
  5
F50
  8
0
 66
     1
 10
0.0
 20
0.0
 30
0.0
 70
    64
 71
     8
 72
     6
  0
VERTEX
  5
F51
  8
0
 10
-22.74988038740126
 20
24.39693012598616
 30
4.500000000000174
 70
   192
  0
VERTEX
  5
F52
  8
0
 10
-22.74988038740126
 20
24.39693012598617
 30
0.0000000000001732
 70
   192
  0
VERTEX
  5
F53
  8
0
 10
-24.39693012598617
 20
22.74988038740126
 30
0.0000000000001674
 70
   192
  0
VERTEX
  5
F54
  8
0
 10
-24.39693012598617
 20
22.74988038740124
 30
4.500000000000167
 70
   192
  0
VERTEX
  5
F55
  8
0
 10
-20.5
 20
24.99999999999999
 30
4.500000000000174
 70
   192
  0
VERTEX
  5
F56
  8
0
 10
-20.5
 20
25.0
 30
0.0000000000001735
 70
   192
  0
VERTEX
  5
F57
  8
0
 10
-25.0
 20
20.5
 30
0.0000000000001596
 70
   192
  0
VERTEX
  5
F58
  8
0
 10
-25.0
 20
20.49999999999999
 30
4.50000000000016
 70
   192
  0
VERTEX
  5
F59
  8
0
 10
0.0
 20
0.0
 30
0.0
 70
   128
 71
     1
 72
     2
 73
    -3
  0
VERTEX
  5
F5A
  8
0
 10
0.0
 20
0.0
 30
0.0
 70
   128
 71
    -1
 72
     3
 73
     4
  0
VERTEX
  5
F5B
  8
0
 10
0.0
 20
0.0
 30
0.0
 70
   128
 71
     5
 72
     6
 73
    -2
  0
VERTEX
  5
F5C
  8
0
 10
0.0
 20
0.0
 30
0.0
 70
   128
 71
    -5
 72
     2
 73
     1
  0
VERTEX
  5
F5D
  8
0
 10
0.0
 20
0.0
 30
0.0
 70
   128
 71
     4
 72
     3
 73
    -7
  0
VERTEX
  5
F5E
  8
0
 10
0.0
 20
0.0
 30
0.0
 70
   128
 71
    -4
 72
     7
 73
     8
  0
SEQEND
  5
1C08
  8
0
  0
POLYLINE
  5
F5F
  8
0
 66
     1
 10
0.0
 20
0.0
 30
0.0
 70
    64
 71
     4
 72
     2
  0
VERTEX
  5
F60
  8
0
 10
20.5
 20
24.99999999999999
 30
4.500000000000174
 70
   192
  0
VERTEX
  5
F61
  8
0
 10
-20.5
 20
24.99999999999999
 30
4.500000000000174
 70
   192
  0
VERTEX
  5
F62
  8
0
 10
-20.5
 20
25.0
 30
0.0000000000001735
 70
   192
  0
VERTEX
  5
F63
  8
0
 10
20.5
 20
25.0
 30
0.0000000000001735
 70
   192
  0
VERTEX
  5
F64
  8
0
 10
0.0
 20
0.0
 30
0.0
 70
   128
 71
     1
 72
     4
 73
    -3
  0
VERTEX
  5
F65
  8
0
 10
0.0
 20
0.0
 30
0.0
 70
   128
 71
    -1
 72
     3
 73
     2
  0
SEQEND
  5
1C09
  8
0
  0
POLYLINE
  5
F66
  8
0
 66
     1
 10
0.0
 20
0.0
 30
0.0
 70
    64
 71
     8
 72
     6
  0
VERTEX
  5
F67
  8
0
 10
24.39693012598617
 20
22.74988038740124
 30
4.500000000000167
 70
   192
  0
VERTEX
  5
F68
  8
0
 10
24.39693012598618
 20
22.74988038740125
 30
0.0000000000001674
 70
   192
  0
VERTEX
  5
F69
  8
0
 10
22.74988038740126
 20
24.39693012598617
 30
0.0000000000001732
 70
   192
  0
VERTEX
  5
F6A
  8
0
 10
22.74988038740126
 20
24.39693012598615
 30
4.500000000000173
 70
   192
  0
VERTEX
  5
F6B
  8
0
 10
25.0
 20
20.49999999999999
 30
4.50000000000016
 70
   192
  0
VERTEX
  5
F6C
  8
0
 10
25.0
 20
20.5
 30
0.0000000000001596
 70
   192
  0
VERTEX
  5
F6D
  8
0
 10
20.5
 20
25.0
 30
0.0000000000001735
 70
   192
  0
VERTEX
  5
F6E
  8
0
 10
20.5
 20
24.99999999999999
 30
4.500000000000174
 70
   192
  0
VERTEX
  5
F6F
  8
0
 10
0.0
 20
0.0
 30
0.0
 70
   128
 71
     1
 72
     2
 73
    -3
  0
VERTEX
  5
F70
  8
0
 10
0.0
 20
0.0
 30
0.0
 70
   128
 71
    -1
 72
     3
 73
     4
  0
VERTEX
  5
F71
  8
0
 10
0.0
 20
0.0
 30
0.0
 70
   128
 71
     5
 72
     6
 73
    -2
  0
VERTEX
  5
F72
  8
0
 10
0.0
 20
0.0
 30
0.0
 70
   128
 71
    -5
 72
     2
 73
     1
  0
VERTEX
  5
F73
  8
0
 10
0.0
 20
0.0
 30
0.0
 70
   128
 71
     4
 72
     3
 73
    -7
  0
VERTEX
  5
F74
  8
0
 10
0.0
 20
0.0
 30
0.0
 70
   128
 71
    -4
 72
     7
 73
     8
  0
SEQEND
  5
1C0A
  8
0
  0
POLYLINE
  5
F75
  8
0
 66
     1
 10
0.0
 20
0.0
 30
0.0
 70
    64
 71
     4
 72
     2
  0
VERTEX
  5
F76
  8
0
 10
25.0
 20
-20.50000000000001
 30
4.500000000000018
 70
   192
  0
VERTEX
  5
F77
  8
0
 10
25.0
 20
20.49999999999999
 30
4.50000000000016
 70
   192
  0
VERTEX
  5
F78
  8
0
 10
25.0
 20
20.5
 30
0.0000000000001596
 70
   192
  0
VERTEX
  5
F79
  8
0
 10
25.0
 20
-20.5
 30
0.0000000000000139
 70
   192
  0
VERTEX
  5
F7A
  8
0
 10
0.0
 20
0.0
 30
0.0
 70
   128
 71
     1
 72
     4
 73
    -3
  0
VERTEX
  5
F7B
  8
0
 10
0.0
 20
0.0
 30
0.0
 70
   128
 71
    -1
 72
     3
 73
     2
  0
SEQEND
  5
1C0B
  8
0
  0
POLYLINE
  5
F7C
  8
0
 66
     1
 10
0.0
 20
0.0
 30
0.0
 70
    64
 71
    12
 72
    10
  0
VERTEX
  5
F7D
  8
0
 10
20.5
 20
-24.7498424163231
 30
4.932658835052042
 70
   192
  0
VERTEX
  5
F7E
  8
0
 10
24.93265883505204
 20
-20.5
 30
4.749842416323105
 70
   192
  0
VERTEX
  5
F7F
  8
0
 10
24.74984241632309
 20
-20.5
 30
4.932658835052057
 70
   192
  0
VERTEX
  5
F80
  8
0
 10
20.5
 20
-24.93265883505205
 30
4.749842416323089
 70
   192
  0
VERTEX
  5
F81
  8
0
 10
24.39693012598617
 20
-22.74988038740127
 30
4.500000000000004
 70
   192
  0
VERTEX
  5
F82
  8
0
 10
25.0
 20
-20.50000000000001
 30
4.500000000000018
 70
   192
  0
VERTEX
  5
F83
  8
0
 10
22.74988038740127
 20
-24.39693012598618
 30
4.500000000000001
 70
   192
  0
VERTEX
  5
F84
  8
0
 10
20.5
 20
-25.00000000000001
 30
4.500000000000001
 70
   192
  0
VERTEX
  5
F85
  8
0
 10
22.50153399905038
 20
-23.9638726312653
 30
5.000000000000004
 70
   192
  0
VERTEX
  5
F86
  8
0
 10
20.5
 20
-24.50000000000002
 30
5.000000000000001
 70
   192
  0
VERTEX
  5
F87
  8
0
 10
23.96380324442737
 20
-22.50161039305944
 30
5.00000000000001
 70
   192
  0
VERTEX
  5
F88
  8
0
 10
24.5
 20
-20.50000000000002
 30
5.000000000000015
 70
   192
  0
VERTEX
  5
F89
  8
0
 10
0.0
 20
0.0
 30
0.0
 70
   128
 71
    -1
 72
     2
 73
     3
  0
VERTEX
  5
F8A
  8
0
 10
0.0
 20
0.0
 30
0.0
 70
   128
 71
     4
 72
    -2
 73
     1
  0
VERTEX
  5
F8B
  8
0
 10
0.0
 20
0.0
 30
0.0
 70
   128
 71
     5
 72
     6
 73
     2
  0
VERTEX
  5
F8C
  8
0
 10
0.0
 20
0.0
 30
0.0
 70
   128
 71
     2
 72
     7
 73
     5
  0
VERTEX
  5
F8D
  8
0
 10
0.0
 20
0.0
 30
0.0
 70
   128
 71
     8
 72
     7
 73
     2
  0
VERTEX
  5
F8E
  8
0
 10
0.0
 20
0.0
 30
0.0
 70
   128
 71
     8
 72
     2
 73
     4
  0
VERTEX
  5
F8F
  8
0
 10
0.0
 20
0.0
 30
0.0
 70
   128
 71
     9
 72
    10
 73
     1
  0
VERTEX
  5
F90
  8
0
 10
0.0
 20
0.0
 30
0.0
 70
   128
 71
     1
 72
     3
 73
    11
  0
VERTEX
  5
F91
  8
0
 10
0.0
 20
0.0
 30
0.0
 70
   128
 71
     1
 72
    11
 73
     9
  0
VERTEX
  5
F92
  8
0
 10
0.0
 20
0.0
 30
0.0
 70
   128
 71
     3
 72
    12
 73
    11
  0
SEQEND
  5
1C0C
  8
0
  0
POLYLINE
  5
F93
  8
0
 66
     1
 10
0.0
 20
0.0
 30
0.0
 70
    64
 71
     8
 72
     6
  0
VERTEX
  5
F94
  8
0
 10
-24.74984241632308
 20
-20.50000000000002
 30
4.932658835052059
 70
   192
  0
VERTEX
  5
F95
  8
0
 10
-24.74984241632309
 20
20.49999999999998
 30
4.932658835052199
 70
   192
  0
VERTEX
  5
F96
  8
0
 10
-24.93265883505204
 20
20.49999999999998
 30
4.749842416323245
 70
   192
  0
VERTEX
  5
F97
  8
0
 10
-24.93265883505204
 20
-20.50000000000002
 30
4.749842416323106
 70
   192
  0
VERTEX
  5
F98
  8
0
 10
-24.5
 20
-20.50000000000002
 30
5.000000000000015
 70
   192
  0
VERTEX
  5
F99
  8
0
 10
-24.5
 20
20.49999999999998
 30
5.000000000000161
 70
   192
  0
VERTEX
  5
F9A
  8
0
 10
-25.0
 20
20.49999999999999
 30
4.50000000000016
 70
   192
  0
VERTEX
  5
F9B
  8
0
 10
-25.0
 20
-20.50000000000001
 30
4.500000000000018
 70
   192
  0
VERTEX
  5
F9C
  8
0
 10
0.0
 20
0.0
 30
0.0
 70
   128
 71
     1
 72
     2
 73
    -3
  0
VERTEX
  5
F9D
  8
0
 10
0.0
 20
0.0
 30
0.0
 70
   128
 71
    -1
 72
     3
 73
     4
  0
VERTEX
  5
F9E
  8
0
 10
0.0
 20
0.0
 30
0.0
 70
   128
 71
     5
 72
     6
 73
    -2
  0
VERTEX
  5
F9F
  8
0
 10
0.0
 20
0.0
 30
0.0
 70
   128
 71
    -5
 72
     2
 73
     1
  0
VERTEX
  5
FA0
  8
0
 10
0.0
 20
0.0
 30
0.0
 70
   128
 71
     4
 72
     3
 73
    -7
  0
VERTEX
  5
FA1
  8
0
 10
0.0
 20
0.0
 30
0.0
 70
   128
 71
    -4
 72
     7
 73
     8
  0
SEQEND
  5
1C0D
  8
0
  0
POLYLINE
  5
FA2
  8
0
 66
     1
 10
0.0
 20
0.0
 30
0.0
 70
    64
 71
    12
 72
    10
  0
VERTEX
  5
FA3
  8
0
 10
-20.49999999999999
 20
24.74984241632307
 30
4.932658835052215
 70
   192
  0
VERTEX
  5
FA4
  8
0
 10
-20.5
 20
24.93265883505202
 30
4.749842416323262
 70
   192
  0
VERTEX
  5
FA5
  8
0
 10
-24.93265883505204
 20
20.49999999999998
 30
4.749842416323245
 70
   192
  0
VERTEX
  5
FA6
  8
0
 10
-24.74984241632309
 20
20.49999999999998
 30
4.932658835052199
 70
   192
  0
VERTEX
  5
FA7
  8
0
 10
-24.39693012598617
 20
22.74988038740124
 30
4.500000000000167
 70
   192
  0
VERTEX
  5
FA8
  8
0
 10
-25.0
 20
20.49999999999999
 30
4.50000000000016
 70
   192
  0
VERTEX
  5
FA9
  8
0
 10
-22.74988038740126
 20
24.39693012598616
 30
4.500000000000174
 70
   192
  0
VERTEX
  5
FAA
  8
0
 10
-20.5
 20
24.99999999999999
 30
4.500000000000174
 70
   192
  0
VERTEX
  5
FAB
  8
0
 10
-23.96380324442737
 20
22.5016103930594
 30
5.000000000000167
 70
   192
  0
VERTEX
  5
FAC
  8
0
 10
-24.5
 20
20.49999999999998
 30
5.000000000000161
 70
   192
  0
VERTEX
  5
FAD
  8
0
 10
-22.50153399905038
 20
23.96387263126526
 30
5.000000000000171
 70
   192
  0
VERTEX
  5
FAE
  8
0
 10
-20.5
 20
24.49999999999998
 30
5.000000000000174
 70
   192
  0
VERTEX
  5
FAF
  8
0
 10
0.0
 20
0.0
 30
0.0
 70
   128
 71
     1
 72
     2
 73
    -3
  0
VERTEX
  5
FB0
  8
0
 10
0.0
 20
0.0
 30
0.0
 70
   128
 71
    -1
 72
     3
 73
     4
  0
VERTEX
  5
FB1
  8
0
 10
0.0
 20
0.0
 30
0.0
 70
   128
 71
     5
 72
     6
 73
     3
  0
VERTEX
  5
FB2
  8
0
 10
0.0
 20
0.0
 30
0.0
 70
   128
 71
     3
 72
     7
 73
     5
  0
VERTEX
  5
FB3
  8
0
 10
0.0
 20
0.0
 30
0.0
 70
   128
 71
     8
 72
     7
 73
     3
  0
VERTEX
  5
FB4
  8
0
 10
0.0
 20
0.0
 30
0.0
 70
   128
 71
     8
 72
     3
 73
     2
  0
VERTEX
  5
FB5
  8
0
 10
0.0
 20
0.0
 30
0.0
 70
   128
 71
     9
 72
     4
 73
    10
  0
VERTEX
  5
FB6
  8
0
 10
0.0
 20
0.0
 30
0.0
 70
   128
 71
    11
 72
    12
 73
     1
  0
VERTEX
  5
FB7
  8
0
 10
0.0
 20
0.0
 30
0.0
 70
   128
 71
     1
 72
     4
 73
     9
  0
VERTEX
  5
FB8
  8
0
 10
0.0
 20
0.0
 30
0.0
 70
   128
 71
     1
 72
     9
 73
    11
  0
SEQEND
  5
1C0E
  8
0
  0
POLYLINE
  5
FB9
  8
0
 66
     1
 10
0.0
 20
0.0
 30
0.0
 70
    64
 71
     8
 72
     6
  0
VERTEX
  5
FBA
  8
0
 10
-20.49999999999999
 20
24.74984241632307
 30
4.932658835052215
 70
   192
  0
VERTEX
  5
FBB
  8
0
 10
20.5
 20
24.74984241632307
 30
4.932658835052216
 70
   192
  0
VERTEX
  5
FBC
  8
0
 10
20.5
 20
24.93265883505202
 30
4.749842416323263
 70
   192
  0
VERTEX
  5
FBD
  8
0
 10
-20.5
 20
24.93265883505202
 30
4.749842416323262
 70
   192
  0
VERTEX
  5
FBE
  8
0
 10
-20.5
 20
24.49999999999998
 30
5.000000000000174
 70
   192
  0
VERTEX
  5
FBF
  8
0
 10
20.5
 20
24.49999999999998
 30
5.000000000000174
 70
   192
  0
VERTEX
  5
FC0
  8
0
 10
20.5
 20
24.99999999999999
 30
4.500000000000174
 70
   192
  0
VERTEX
  5
FC1
  8
0
 10
-20.5
 20
24.99999999999999
 30
4.500000000000174
 70
   192
  0
VERTEX
  5
FC2
  8
0
 10
0.0
 20
0.0
 30
0.0
 70
   128
 71
     1
 72
     2
 73
    -3
  0
VERTEX
  5
FC3
  8
0
 10
0.0
 20
0.0
 30
0.0
 70
   128
 71
    -1
 72
     3
 73
     4
  0
VERTEX
  5
FC4
  8
0
 10
0.0
 20
0.0
 30
0.0
 70
   128
 71
     5
 72
     6
 73
    -2
  0
VERTEX
  5
FC5
  8
0
 10
0.0
 20
0.0
 30
0.0
 70
   128
 71
    -5
 72
     2
 73
     1
  0
VERTEX
  5
FC6
  8
0
 10
0.0
 20
0.0
 30
0.0
 70
   128
 71
     4
 72
     3
 73
    -7
  0
VERTEX
  5
FC7
  8
0
 10
0.0
 20
0.0
 30
0.0
 70
   128
 71
    -4
 72
     7
 73
     8
  0
SEQEND
  5
1C0F
  8
0
  0
POLYLINE
  5
FC8
  8
0
 66
     1
 10
0.0
 20
0.0
 30
0.0
 70
    64
 71
    12
 72
    10
  0
VERTEX
  5
FC9
  8
0
 10
24.74984241632309
 20
20.49999999999998
 30
4.9326588350522
 70
   192
  0
VERTEX
  5
FCA
  8
0
 10
20.5
 20
24.93265883505202
 30
4.749842416323263
 70
   192
  0
VERTEX
  5
FCB
  8
0
 10
20.5
 20
24.74984241632307
 30
4.932658835052216
 70
   192
  0
VERTEX
  5
FCC
  8
0
 10
24.93265883505204
 20
20.49999999999999
 30
4.749842416323246
 70
   192
  0
VERTEX
  5
FCD
  8
0
 10
22.74988038740126
 20
24.39693012598615
 30
4.500000000000173
 70
   192
  0
VERTEX
  5
FCE
  8
0
 10
20.5
 20
24.99999999999999
 30
4.500000000000174
 70
   192
  0
VERTEX
  5
FCF
  8
0
 10
24.39693012598617
 20
22.74988038740124
 30
4.500000000000167
 70
   192
  0
VERTEX
  5
FD0
  8
0
 10
25.0
 20
20.49999999999999
 30
4.50000000000016
 70
   192
  0
VERTEX
  5
FD1
  8
0
 10
22.50161039305942
 20
23.96380324442735
 30
5.000000000000171
 70
   192
  0
VERTEX
  5
FD2
  8
0
 10
20.5
 20
24.49999999999998
 30
5.000000000000174
 70
   192
  0
VERTEX
  5
FD3
  8
0
 10
23.96387263126528
 20
22.50153399905037
 30
5.000000000000166
 70
   192
  0
VERTEX
  5
FD4
  8
0
 10
24.5
 20
20.49999999999998
 30
5.000000000000161
 70
   192
  0
VERTEX
  5
FD5
  8
0
 10
0.0
 20
0.0
 30
0.0
 70
   128
 71
    -1
 72
     2
 73
     3
  0
VERTEX
  5
FD6
  8
0
 10
0.0
 20
0.0
 30
0.0
 70
   128
 71
     1
 72
     4
 73
    -2
  0
VERTEX
  5
FD7
  8
0
 10
0.0
 20
0.0
 30
0.0
 70
   128
 71
     5
 72
     6
 73
     2
  0
VERTEX
  5
FD8
  8
0
 10
0.0
 20
0.0
 30
0.0
 70
   128
 71
     2
 72
     7
 73
     5
  0
VERTEX
  5
FD9
  8
0
 10
0.0
 20
0.0
 30
0.0
 70
   128
 71
     8
 72
     7
 73
     2
  0
VERTEX
  5
FDA
  8
0
 10
0.0
 20
0.0
 30
0.0
 70
   128
 71
     8
 72
     2
 73
     4
  0
VERTEX
  5
FDB
  8
0
 10
0.0
 20
0.0
 30
0.0
 70
   128
 71
     9
 72
     3
 73
    10
  0
VERTEX
  5
FDC
  8
0
 10
0.0
 20
0.0
 30
0.0
 70
   128
 71
    11
 72
    12
 73
     1
  0
VERTEX
  5
FDD
  8
0
 10
0.0
 20
0.0
 30
0.0
 70
   128
 71
     1
 72
     3
 73
     9
  0
VERTEX
  5
FDE
  8
0
 10
0.0
 20
0.0
 30
0.0
 70
   128
 71
     1
 72
     9
 73
    11
  0
SEQEND
  5
1C10
  8
0
  0
POLYLINE
  5
FDF
  8
0
 66
     1
 10
0.0
 20
0.0
 30
0.0
 70
    64
 71
     8
 72
     6
  0
VERTEX
  5
FE0
  8
0
 10
24.74984241632309
 20
20.49999999999998
 30
4.9326588350522
 70
   192
  0
VERTEX
  5
FE1
  8
0
 10
24.74984241632309
 20
-20.5
 30
4.932658835052057
 70
   192
  0
VERTEX
  5
FE2
  8
0
 10
24.93265883505204
 20
-20.5
 30
4.749842416323105
 70
   192
  0
VERTEX
  5
FE3
  8
0
 10
24.93265883505204
 20
20.49999999999999
 30
4.749842416323246
 70
   192
  0
VERTEX
  5
FE4
  8
0
 10
24.5
 20
20.49999999999998
 30
5.000000000000161
 70
   192
  0
VERTEX
  5
FE5
  8
0
 10
24.5
 20
-20.50000000000002
 30
5.000000000000015
 70
   192
  0
VERTEX
  5
FE6
  8
0
 10
25.0
 20
-20.50000000000001
 30
4.500000000000018
 70
   192
  0
VERTEX
  5
FE7
  8
0
 10
25.0
 20
20.49999999999999
 30
4.50000000000016
 70
   192
  0
VERTEX
  5
FE8
  8
0
 10
0.0
 20
0.0
 30
0.0
 70
   128
 71
     1
 72
     2
 73
    -3
  0
VERTEX
  5
FE9
  8
0
 10
0.0
 20
0.0
 30
0.0
 70
   128
 71
    -1
 72
     3
 73
     4
  0
VERTEX
  5
FEA
  8
0
 10
0.0
 20
0.0
 30
0.0
 70
   128
 71
     5
 72
     6
 73
    -2
  0
VERTEX
  5
FEB
  8
0
 10
0.0
 20
0.0
 30
0.0
 70
   128
 71
    -5
 72
     2
 73
     1
  0
VERTEX
  5
FEC
  8
0
 10
0.0
 20
0.0
 30
0.0
 70
   128
 71
     4
 72
     3
 73
    -7
  0
VERTEX
  5
FED
  8
0
 10
0.0
 20
0.0
 30
0.0
 70
   128
 71
    -4
 72
     7
 73
     8
  0
SEQEND
  5
1C11
  8
0
  0
ENDBLK
  5
1BFF
  8
0
  0
BLOCK
  8
0
  2
*X2
 70
     1
 10
0.0
 20
0.0
 30
0.0
  3
*X2
  1

  0
POLYLINE
  5
FEF
  8
0
 66
     1
 10
0.0
 20
0.0
 30
0.0
 70
    64
 71
     4
 72
     2
  0
VERTEX
  5
FF0
  8
0
 10
-16.9794222776056
 20
-13.16531310362038
 30
270.734283167375
 70
   192
  0
VERTEX
  5
FF1
  8
0
 10
-16.97942227768605
 20
-13.16531310362135
 30
254.7438071031805
 70
   192
  0
VERTEX
  5
FF2
  8
0
 10
-17.5604679587462
 20
12.32806615289563
 30
254.7438071031806
 70
   192
  0
VERTEX
  5
FF3
  8
0
 10
-17.56046795866495
 20
12.32806615290015
 30
270.7342831673751
 70
   192
  0
VERTEX
  5
FF4
  8
0
 10
0.0
 20
0.0
 30
0.0
 70
   128
 71
     1
 72
     4
 73
    -3
  0
VERTEX
  5
FF5
  8
0
 10
0.0
 20
0.0
 30
0.0
 70
   128
 71
    -1
 72
     3
 73
     2
  0
SEQEND
  5
1C14
  8
0
  0
POLYLINE
  5
FF6
  8
0
 66
     1
 10
0.0
 20
0.0
 30
0.0
 70
    64
 71
     8
 72
     6
  0
VERTEX
  5
FF7
  8
0
 10
-16.9794222776056
 20
-13.16531310362038
 30
270.734283167375
 70
   192
  0
VERTEX
  5
FF8
  8
0
 10
-16.97942227768605
 20
-13.16531310362135
 30
254.7438071031805
 70
   192
  0
VERTEX
  5
FF9
  8
0
 10
-16.2532462571692
 20
-15.5157343389548
 30
254.430269258852
 70
   192
  0
VERTEX
  5
FFA
  8
0
 10
-16.34656616963225
 20
-15.36540028150942
 30
270.7713809532227
 70
   192
  0
VERTEX
  5
FFB
  8
0
 10
-14.70058120034892
 20
-16.97706227821512
 30
253.7217818482681
 70
   192
  0
VERTEX
  5
FFC
  8
0
 10
-14.81199326702145
 20
-16.91175029520535
 30
270.8661914041726
 70
   192
  0
VERTEX
  5
FFD
  8
0
 10
-12.378053171056
 20
-17.56160726399258
 30
252.6454226414815
 70
   192
  0
VERTEX
  5
FFE
  8
0
 10
-12.3780531710576
 20
-17.5616072639138
 30
271.0186433570015
 70
   192
  0
VERTEX
  5
FFF
  8
0
 10
0.0
 20
0.0
 30
0.0
 70
   128
 71
     1
 72
     2
 73
     3
  0
VERTEX
  5
1000
  8
0
 10
0.0
 20
0.0
 30
0.0
 70
   128
 71
     1
 72
     3
 73
     4
  0
VERTEX
  5
1001
  8
0
 10
0.0
 20
0.0
 30
0.0
 70
   128
 71
     4
 72
     3
 73
     5
  0
VERTEX
  5
1002
  8
0
 10
0.0
 20
0.0
 30
0.0
 70
   128
 71
     4
 72
     5
 73
     6
  0
VERTEX
  5
1003
  8
0
 10
0.0
 20
0.0
 30
0.0
 70
   128
 71
     6
 72
     5
 73
     7
  0
VERTEX
  5
1004
  8
0
 10
0.0
 20
0.0
 30
0.0
 70
   128
 71
     6
 72
     7
 73
     8
  0
SEQEND
  5
1C15
  8
0
  0
POLYLINE
  5
1005
  8
0
 66
     1
 10
0.0
 20
0.0
 30
0.0
 70
    64
 71
     8
 72
     6
  0
VERTEX
  5
1006
  8
0
 10
-17.50177831009485
 20
12.32940380871112
 30
270.9691338106031
 70
   192
  0
VERTEX
  5
1007
  8
0
 10
-16.9207326290347
 20
-13.16397544781074
 30
270.969133810625
 70
   192
  0
VERTEX
  5
1008
  8
0
 10
-16.74503524519121
 20
-13.15997094903615
 30
271.1578140466811
 70
   192
  0
VERTEX
  5
1009
  8
0
 10
-17.32608092625344
 20
12.33340830748639
 30
271.1578140466577
 70
   192
  0
VERTEX
  5
100A
  8
0
 10
-17.56046795866495
 20
12.32806615290015
 30
270.7342831673751
 70
   192
  0
VERTEX
  5
100B
  8
0
 10
-16.9794222776056
 20
-13.16531310362038
 30
270.734283167375
 70
   192
  0
VERTEX
  5
100C
  8
0
 10
-16.51499843469125
 20
-13.15472794480271
 30
271.233024487409
 70
   192
  0
VERTEX
  5
100D
  8
0
 10
-17.0960441157498
 20
12.33865131171065
 30
271.2330244873966
 70
   192
  0
VERTEX
  5
100E
  8
0
 10
0.0
 20
0.0
 30
0.0
 70
   128
 71
     1
 72
     2
 73
    -3
  0
VERTEX
  5
100F
  8
0
 10
0.0
 20
0.0
 30
0.0
 70
   128
 71
    -1
 72
     3
 73
     4
  0
VERTEX
  5
1010
  8
0
 10
0.0
 20
0.0
 30
0.0
 70
   128
 71
     5
 72
     6
 73
    -2
  0
VERTEX
  5
1011
  8
0
 10
0.0
 20
0.0
 30
0.0
 70
   128
 71
    -5
 72
     2
 73
     1
  0
VERTEX
  5
1012
  8
0
 10
0.0
 20
0.0
 30
0.0
 70
   128
 71
     4
 72
     3
 73
    -7
  0
VERTEX
  5
1013
  8
0
 10
0.0
 20
0.0
 30
0.0
 70
   128
 71
    -4
 72
     7
 73
     8
  0
SEQEND
  5
1C16
  8
0
  0
POLYLINE
  5
1014
  8
0
 66
     1
 10
0.0
 20
0.0
 30
0.0
 70
    64
 71
     8
 72
     6
  0
VERTEX
  5
1015
  8
0
 10
-17.5604679587462
 20
12.32806615289563
 30
254.7438071031806
 70
   192
  0
VERTEX
  5
1016
  8
0
 10
-17.56046795866495
 20
12.32806615290015
 30
270.7342831673751
 70
   192
  0
VERTEX
  5
1017
  8
0
 10
-17.02872776983087
 20
14.55476557845615
 30
270.771386439368
 70
   192
  0
VERTEX
  5
1018
  8
0
 10
-16.94212981062221
 20
14.70914830772809
 30
254.4302611667215
 70
   192
  0
VERTEX
  5
1019
  8
0
 10
-15.56562271745865
 20
16.16978049024849
 30
270.8661874959253
 70
   192
  0
VERTEX
  5
101A
  8
0
 10
-15.45760759795406
 20
16.23970762919775
 30
253.7217708464339
 70
   192
  0
VERTEX
  5
101B
  8
0
 10
-13.16417379836708
 20
16.9294352594441
 30
271.0186433570001
 70
   192
  0
VERTEX
  5
101C
  8
0
 10
-13.16417379837064
 20
16.92943525952587
 30
252.6454226414772
 70
   192
  0
VERTEX
  5
101D
  8
0
 10
0.0
 20
0.0
 30
0.0
 70
   128
 71
     1
 72
     2
 73
     3
  0
VERTEX
  5
101E
  8
0
 10
0.0
 20
0.0
 30
0.0
 70
   128
 71
     1
 72
     3
 73
     4
  0
VERTEX
  5
101F
  8
0
 10
0.0
 20
0.0
 30
0.0
 70
   128
 71
     4
 72
     3
 73
     5
  0
VERTEX
  5
1020
  8
0
 10
0.0
 20
0.0
 30
0.0
 70
   128
 71
     4
 72
     5
 73
     6
  0
VERTEX
  5
1021
  8
0
 10
0.0
 20
0.0
 30
0.0
 70
   128
 71
     6
 72
     7
 73
     8
  0
VERTEX
  5
1022
  8
0
 10
0.0
 20
0.0
 30
0.0
 70
   128
 71
     6
 72
     5
 73
     7
  0
SEQEND
  5
1C17
  8
0
  0
POLYLINE
  5
1023
  8
0
 66
     1
 10
0.0
 20
0.0
 30
0.0
 70
    64
 71
    26
 72
    24
  0
VERTEX
  5
1024
  8
0
 10
-13.16417379837064
 20
16.92943525952587
 30
252.6454226414772
 70
   192
  0
VERTEX
  5
1025
  8
0
 10
-0.4174841701108455
 20
17.21995810005849
 30
246.6999999999877
 70
   192
  0
VERTEX
  5
1026
  8
0
 10
-0.4015338965117015
 20
16.52013984595804
 30
246.6999999999907
 70
   192
  0
VERTEX
  5
1027
  8
0
 10
-13.13274089329736
 20
15.55031654944647
 30
252.6454226414806
 70
   192
  0
VERTEX
  5
1028
  8
0
 10
-13.9681640046171
 20
15.37017195503904
 30
253.0367997874855
 70
   192
  0
VERTEX
  5
1029
  8
0
 10
-14.73718507151177
 20
14.96137324609589
 30
253.3996507176905
 70
   192
  0
VERTEX
  5
102A
  8
0
 10
-15.3675122236008
 20
14.34970141960478
 30
253.6999999999872
 70
   192
  0
VERTEX
  5
102B
  8
0
 10
-15.75252421486118
 20
13.75738772695861
 30
253.8857809578841
 70
   192
  0
VERTEX
  5
102C
  8
0
 10
-15.99068734458263
 20
13.0811021651165
 30
254.0039951754522
 70
   192
  0
VERTEX
  5
102D
  8
0
 10
-16.0608574142379
 20
12.36224531060915
 30
254.0443456158991
 70
   192
  0
VERTEX
  5
102E
  8
0
 10
-15.4798117331777
 20
-13.13113394591083
 30
254.044345615899
 70
   192
  0
VERTEX
  5
102F
  8
0
 10
-15.37696819712514
 20
-13.84582542961412
 30
254.0039951754524
 70
   192
  0
VERTEX
  5
1030
  8
0
 10
-15.10838555671306
 20
-14.51061540137942
 30
253.8858491672474
 70
   192
  0
VERTEX
  5
1031
  8
0
 10
-14.6966372696418
 20
-15.08493718530529
 30
253.6999999999871
 70
   192
  0
VERTEX
  5
1032
  8
0
 10
-14.03922973877899
 20
-15.6670998219143
 30
253.3997110998161
 70
   192
  0
VERTEX
  5
1033
  8
0
 10
-13.25245535141828
 20
-16.04058693459012
 30
253.0368958589058
 70
   192
  0
VERTEX
  5
1034
  8
0
 10
-12.40948607613156
 20
-16.18248855391493
 30
252.6454226414776
 70
   192
  0
VERTEX
  5
1035
  8
0
 10
0.3526861836079619
 20
-16.57126616936111
 30
246.6999999999876
 70
   192
  0
VERTEX
  5
1036
  8
0
 10
0.368636457207254
 20
-17.27108442346151
 30
246.6999999999906
 70
   192
  0
VERTEX
  5
1037
  8
0
 10
-12.378053171056
 20
-17.56160726399258
 30
252.6454226414815
 70
   192
  0
VERTEX
  5
1038
  8
0
 10
-14.70058120034892
 20
-16.97706227821512
 30
253.7217818482681
 70
   192
  0
VERTEX
  5
1039
  8
0
 10
-16.2532462571692
 20
-15.5157343389548
 30
254.430269258852
 70
   192
  0
VERTEX
  5
103A
  8
0
 10
-16.97942227768605
 20
-13.16531310362135
 30
254.7438071031805
 70
   192
  0
VERTEX
  5
103B
  8
0
 10
-17.5604679587462
 20
12.32806615289563
 30
254.7438071031806
 70
   192
  0
VERTEX
  5
103C
  8
0
 10
-16.94212981062221
 20
14.70914830772809
 30
254.4302611667215
 70
   192
  0
VERTEX
  5
103D
  8
0
 10
-15.45760759795406
 20
16.23970762919775
 30
253.7217708464339
 70
   192
  0
VERTEX
  5
103E
  8
0
 10
0.0
 20
0.0
 30
0.0
 70
   128
 71
     2
 72
     3
 73
    -4
  0
VERTEX
  5
103F
  8
0
 10
0.0
 20
0.0
 30
0.0
 70
   128
 71
     1
 72
    -2
 73
    -4
  0
VERTEX
  5
1040
  8
0
 10
0.0
 20
0.0
 30
0.0
 70
   128
 71
     4
 72
    -5
 73
    -1
  0
VERTEX
  5
1041
  8
0
 10
0.0
 20
0.0
 30
0.0
 70
   128
 71
    -6
 72
    26
 73
    -1
  0
VERTEX
  5
1042
  8
0
 10
0.0
 20
0.0
 30
0.0
 70
   128
 71
     5
 72
    -6
 73
    -1
  0
VERTEX
  5
1043
  8
0
 10
0.0
 20
0.0
 30
0.0
 70
   128
 71
    -7
 72
    25
 73
   -26
  0
VERTEX
  5
1044
  8
0
 10
0.0
 20
0.0
 30
0.0
 70
   128
 71
     6
 72
    -7
 73
   -26
  0
VERTEX
  5
1045
  8
0
 10
0.0
 20
0.0
 30
0.0
 70
   128
 71
     7
 72
    -8
 73
   -25
  0
VERTEX
  5
1046
  8
0
 10
0.0
 20
0.0
 30
0.0
 70
   128
 71
    -9
 72
    24
 73
   -25
  0
VERTEX
  5
1047
  8
0
 10
0.0
 20
0.0
 30
0.0
 70
   128
 71
     8
 72
    -9
 73
   -25
  0
VERTEX
  5
1048
  8
0
 10
0.0
 20
0.0
 30
0.0
 70
   128
 71
     9
 72
   -10
 73
   -24
  0
VERTEX
  5
1049
  8
0
 10
0.0
 20
0.0
 30
0.0
 70
   128
 71
   -11
 72
    23
 73
   -24
  0
VERTEX
  5
104A
  8
0
 10
0.0
 20
0.0
 30
0.0
 70
   128
 71
    10
 72
   -11
 73
   -24
  0
VERTEX
  5
104B
  8
0
 10
0.0
 20
0.0
 30
0.0
 70
   128
 71
    11
 72
   -12
 73
   -23
  0
VERTEX
  5
104C
  8
0
 10
0.0
 20
0.0
 30
0.0
 70
   128
 71
   -13
 72
    22
 73
   -23
  0
VERTEX
  5
104D
  8
0
 10
0.0
 20
0.0
 30
0.0
 70
   128
 71
    12
 72
   -13
 73
   -23
  0
VERTEX
  5
104E
  8
0
 10
0.0
 20
0.0
 30
0.0
 70
   128
 71
    13
 72
   -14
 73
   -22
  0
VERTEX
  5
104F
  8
0
 10
0.0
 20
0.0
 30
0.0
 70
   128
 71
   -15
 72
    21
 73
   -22
  0
VERTEX
  5
1050
  8
0
 10
0.0
 20
0.0
 30
0.0
 70
   128
 71
    14
 72
   -15
 73
   -22
  0
VERTEX
  5
1051
  8
0
 10
0.0
 20
0.0
 30
0.0
 70
   128
 71
   -16
 72
    20
 73
   -21
  0
VERTEX
  5
1052
  8
0
 10
0.0
 20
0.0
 30
0.0
 70
   128
 71
    15
 72
   -16
 73
   -21
  0
VERTEX
  5
1053
  8
0
 10
0.0
 20
0.0
 30
0.0
 70
   128
 71
    16
 72
   -17
 73
   -20
  0
VERTEX
  5
1054
  8
0
 10
0.0
 20
0.0
 30
0.0
 70
   128
 71
    18
 72
    19
 73
   -20
  0
VERTEX
  5
1055
  8
0
 10
0.0
 20
0.0
 30
0.0
 70
   128
 71
    17
 72
   -18
 73
   -20
  0
SEQEND
  5
1C18
  8
0
  0
POLYLINE
  5
1056
  8
0
 66
     1
 10
0.0
 20
0.0
 30
0.0
 70
    64
 71
    14
 72
    12
  0
VERTEX
  5
1057
  8
0
 10
23.1127297121404
 20
-16.75270053163376
 30
273.5423400863
 70
   192
  0
VERTEX
  5
1058
  8
0
 10
-12.3780531710576
 20
-17.5616072639138
 30
271.0186433570015
 70
   192
  0
VERTEX
  5
1059
  8
0
 10
-12.378053171056
 20
-17.56160726399258
 30
252.6454226414815
 70
   192
  0
VERTEX
  5
105A
  8
0
 10
0.368636457207254
 20
-17.27108442346151
 30
246.6999999999906
 70
   192
  0
VERTEX
  5
105B
  8
0
 10
13.1153260854689
 20
-16.98056158293276
 30
246.7
 70
   192
  0
VERTEX
  5
105C
  8
0
 10
13.11532608784219
 20
-16.98056142615969
 30
251.6836411421369
 70
   192
  0
VERTEX
  5
105D
  8
0
 10
13.11532606784634
 20
-16.98056032958351
 30
256.6672822840941
 70
   192
  0
VERTEX
  5
105E
  8
0
 10
13.11532600311072
 20
-16.98055735340101
 30
261.6509234256924
 70
   192
  0
VERTEX
  5
105F
  8
0
 10
14.08775385800107
 20
-16.95839798697746
 30
265.4357576418619
 70
   192
  0
VERTEX
  5
1060
  8
0
 10
16.61947665744026
 20
-16.90069490322958
 30
268.7219149983402
 70
   192
  0
VERTEX
  5
1061
  8
0
 10
21.21222308099985
 20
-16.79601692206424
 30
270.6165042033
 70
   192
  0
VERTEX
  5
1062
  8
0
 10
21.84472366807736
 20
-16.78160095426477
 30
270.6504019154851
 70
   192
  0
VERTEX
  5
1063
  8
0
 10
22.48022706213294
 20
-16.76711654641906
 30
270.6560371309801
 70
   192
  0
VERTEX
  5
1064
  8
0
 10
23.11272766618585
 20
-16.75270057823644
 30
270.6899346834
 70
   192
  0
VERTEX
  5
1065
  8
0
 10
0.0
 20
0.0
 30
0.0
 70
   128
 71
     4
 72
     5
 73
    -6
  0
VERTEX
  5
1066
  8
0
 10
0.0
 20
0.0
 30
0.0
 70
   128
 71
    -7
 72
     3
 73
    -4
  0
VERTEX
  5
1067
  8
0
 10
0.0
 20
0.0
 30
0.0
 70
   128
 71
     6
 72
    -7
 73
    -4
  0
VERTEX
  5
1068
  8
0
 10
0.0
 20
0.0
 30
0.0
 70
   128
 71
    -8
 72
     2
 73
    -3
  0
VERTEX
  5
1069
  8
0
 10
0.0
 20
0.0
 30
0.0
 70
   128
 71
     7
 72
    -8
 73
    -3
  0
VERTEX
  5
106A
  8
0
 10
0.0
 20
0.0
 30
0.0
 70
   128
 71
     8
 72
    -9
 73
    -2
  0
VERTEX
  5
106B
  8
0
 10
0.0
 20
0.0
 30
0.0
 70
   128
 71
     9
 72
   -10
 73
    -2
  0
VERTEX
  5
106C
  8
0
 10
0.0
 20
0.0
 30
0.0
 70
   128
 71
   -10
 72
     1
 73
    -2
  0
VERTEX
  5
106D
  8
0
 10
0.0
 20
0.0
 30
0.0
 70
   128
 71
    10
 72
   -11
 73
    -1
  0
VERTEX
  5
106E
  8
0
 10
0.0
 20
0.0
 30
0.0
 70
   128
 71
    11
 72
   -12
 73
    -1
  0
VERTEX
  5
106F
  8
0
 10
0.0
 20
0.0
 30
0.0
 70
   128
 71
    12
 72
   -13
 73
    -1
  0
VERTEX
  5
1070
  8
0
 10
0.0
 20
0.0
 30
0.0
 70
   128
 71
    13
 72
    14
 73
    -1
  0
SEQEND
  5
1C19
  8
0
  0
POLYLINE
  5
1071
  8
0
 66
     1
 10
0.0
 20
0.0
 30
0.0
 70
    64
 71
    22
 72
    20
  0
VERTEX
  5
1072
  8
0
 10
84.33265956923591
 20
-12.22415548380269
 30
278.4019352697425
 70
   192
  0
VERTEX
  5
1073
  8
0
 10
63.9515818249099
 20
-14.15104316732299
 30
276.9502983743225
 70
   192
  0
VERTEX
  5
1074
  8
0
 10
43.52377486446046
 20
-15.49457604299663
 30
275.4962853155108
 70
   192
  0
VERTEX
  5
1075
  8
0
 10
23.0658907953183
 20
-16.25365890485261
 30
274.0410813591455
 70
   192
  0
VERTEX
  5
1076
  8
0
 10
-12.42489256213066
 20
-17.06254497624855
 30
271.517384676967
 70
   192
  0
VERTEX
  5
1077
  8
0
 10
-14.40107095930516
 20
-16.59159133940446
 30
271.3776889111729
 70
   192
  0
VERTEX
  5
1078
  8
0
 10
-15.946951734227
 20
-15.1200630459202
 30
271.270204548204
 70
   192
  0
VERTEX
  5
1079
  8
0
 10
-16.51499843469125
 20
-13.15472794480271
 30
271.233024487409
 70
   192
  0
VERTEX
  5
107A
  8
0
 10
-17.0960441157498
 20
12.33865131171065
 30
271.2330244873966
 70
   192
  0
VERTEX
  5
107B
  8
0
 10
-16.66401188758514
 20
14.24014647362699
 30
271.2668003297264
 70
   192
  0
VERTEX
  5
107C
  8
0
 10
-15.18221248753718
 20
15.84262068621383
 30
271.3747137639211
 70
   192
  0
VERTEX
  5
107D
  8
0
 10
-13.18822708430794
 20
16.42875718427061
 30
271.5173846769761
 70
   192
  0
VERTEX
  5
107E
  8
0
 10
22.302555331327
 20
17.23768457783694
 30
274.0410813591367
 70
   192
  0
VERTEX
  5
107F
  8
0
 10
42.77377976628642
 20
17.4114588897455
 30
275.4962853154915
 70
   192
  0
VERTEX
  5
1080
  8
0
 10
63.24158608855985
 20
17.00001976399674
 30
276.9502983743104
 70
   192
  0
VERTEX
  5
1081
  8
0
 10
83.6892895845754
 20
16.00370259329738
 30
278.4019352697491
 70
   192
  0
VERTEX
  5
1082
  8
0
 10
85.5465773857732
 20
15.41082721627328
 30
278.5329683705011
 70
   192
  0
VERTEX
  5
1083
  8
0
 10
86.92466103897878
 20
13.97121109243738
 30
278.6285804491565
 70
   192
  0
VERTEX
  5
1084
  8
0
 10
87.43647147757949
 20
12.10275822672727
 30
278.6619344399996
 70
   192
  0
VERTEX
  5
1085
  8
0
 10
87.89822183911079
 20
-8.156538885643032
 30
278.661934440014
 70
   192
  0
VERTEX
  5
1086
  8
0
 10
87.51204266759935
 20
-9.964694984393658
 30
278.6315528931653
 70
   192
  0
VERTEX
  5
1087
  8
0
 10
86.1754184289179
 20
-11.53650678389754
 30
278.5340134144467
 70
   192
  0
VERTEX
  5
1088
  8
0
 10
0.0
 20
0.0
 30
0.0
 70
   128
 71
    13
 72
    12
 73
   -11
  0
VERTEX
  5
1089
  8
0
 10
0.0
 20
0.0
 30
0.0
 70
   128
 71
   -13
 72
    11
 73
   -10
  0
VERTEX
  5
108A
  8
0
 10
0.0
 20
0.0
 30
0.0
 70
   128
 71
   -13
 72
    10
 73
    -9
  0
VERTEX
  5
108B
  8
0
 10
0.0
 20
0.0
 30
0.0
 70
   128
 71
   -13
 72
     9
 73
    -8
  0
VERTEX
  5
108C
  8
0
 10
0.0
 20
0.0
 30
0.0
 70
   128
 71
   -13
 72
     8
 73
    -7
  0
VERTEX
  5
108D
  8
0
 10
0.0
 20
0.0
 30
0.0
 70
   128
 71
   -13
 72
     7
 73
    -6
  0
VERTEX
  5
108E
  8
0
 10
0.0
 20
0.0
 30
0.0
 70
   128
 71
   -13
 72
     6
 73
    -5
  0
VERTEX
  5
108F
  8
0
 10
0.0
 20
0.0
 30
0.0
 70
   128
 71
   -13
 72
     5
 73
    -4
  0
VERTEX
  5
1090
  8
0
 10
0.0
 20
0.0
 30
0.0
 70
   128
 71
     4
 72
    -3
 73
   -14
  0
VERTEX
  5
1091
  8
0
 10
0.0
 20
0.0
 30
0.0
 70
   128
 71
    -4
 72
    14
 73
   -13
  0
VERTEX
  5
1092
  8
0
 10
0.0
 20
0.0
 30
0.0
 70
   128
 71
     3
 72
    -2
 73
   -15
  0
VERTEX
  5
1093
  8
0
 10
0.0
 20
0.0
 30
0.0
 70
   128
 71
    -3
 72
    15
 73
   -14
  0
VERTEX
  5
1094
  8
0
 10
0.0
 20
0.0
 30
0.0
 70
   128
 71
     2
 72
     1
 73
   -22
  0
VERTEX
  5
1095
  8
0
 10
0.0
 20
0.0
 30
0.0
 70
   128
 71
    -2
 72
    22
 73
   -21
  0
VERTEX
  5
1096
  8
0
 10
0.0
 20
0.0
 30
0.0
 70
   128
 71
    -2
 72
    21
 73
   -20
  0
VERTEX
  5
1097
  8
0
 10
0.0
 20
0.0
 30
0.0
 70
   128
 71
    -2
 72
    20
 73
   -19
  0
VERTEX
  5
1098
  8
0
 10
0.0
 20
0.0
 30
0.0
 70
   128
 71
    -2
 72
    19
 73
   -18
  0
VERTEX
  5
1099
  8
0
 10
0.0
 20
0.0
 30
0.0
 70
   128
 71
    -2
 72
    18
 73
   -17
  0
VERTEX
  5
109A
  8
0
 10
0.0
 20
0.0
 30
0.0
 70
   128
 71
    -2
 72
    17
 73
   -16
  0
VERTEX
  5
109B
  8
0
 10
0.0
 20
0.0
 30
0.0
 70
   128
 71
    -2
 72
    16
 73
   -15
  0
SEQEND
  5
1C1A
  8
0
  0
POLYLINE
  5
109C
  8
0
 66
     1
 10
0.0
 20
0.0
 30
0.0
 70
    64
 71
    18
 72
    16
  0
VERTEX
  5
109D
  8
0
 10
-13.16417379836708
 20
16.9294352594441
 30
271.0186433570001
 70
   192
  0
VERTEX
  5
109E
  8
0
 10
-13.16417379837064
 20
16.92943525952587
 30
252.6454226414772
 70
   192
  0
VERTEX
  5
109F
  8
0
 10
-0.4174841701108455
 20
17.21995810005849
 30
246.6999999999877
 70
   192
  0
VERTEX
  5
10A0
  8
0
 10
12.32920545815062
 20
17.51048094058494
 30
246.7000000000002
 70
   192
  0
VERTEX
  5
10A1
  8
0
 10
12.32920546766544
 20
17.51048078408094
 30
251.683641142137
 70
   192
  0
VERTEX
  5
10A2
  8
0
 10
12.3292054976517
 20
17.51047968773305
 30
256.6672822840943
 70
   192
  0
VERTEX
  5
10A3
  8
0
 10
12.3292055685806
 20
17.51047671169529
 30
261.6509234256926
 70
   192
  0
VERTEX
  5
10A4
  8
0
 10
13.28529404412287
 20
17.53227210952159
 30
265.3986989427484
 70
   192
  0
VERTEX
  5
10A5
  8
0
 10
15.82259696003298
 20
17.59010239101616
 30
268.712693495381
 70
   192
  0
VERTEX
  5
10A6
  8
0
 10
20.42610245349
 20
17.6950256014496
 30
270.6165042033001
 70
   192
  0
VERTEX
  5
10A7
  8
0
 10
21.05860308447009
 20
17.70944157024357
 30
270.6504016748893
 70
   192
  0
VERTEX
  5
10A8
  8
0
 10
21.69410663146466
 20
17.72392598156107
 30
270.6560366556882
 70
   192
  0
VERTEX
  5
10A9
  8
0
 10
22.32660760776995
 20
17.73834195822166
 30
270.6899339734001
 70
   192
  0
VERTEX
  5
10AA
  8
0
 10
22.3266087953981
 20
17.73834198532887
 30
271.6407360110337
 70
   192
  0
VERTEX
  5
10AB
  8
0
 10
22.32660888662515
 20
17.73834198741566
 30
272.5915380486691
 70
   192
  0
VERTEX
  5
10AC
  8
0
 10
22.3266090856549
 20
17.73834199193475
 30
273.5423400863081
 70
   192
  0
VERTEX
  5
10AD
  8
0
 10
10.49634812400291
 20
17.46870641444932
 30
272.7011078432141
 70
   192
  0
VERTEX
  5
10AE
  8
0
 10
-1.333912837276093
 20
17.19907083696059
 30
271.8598756001096
 70
   192
  0
VERTEX
  5
10AF
  8
0
 10
0.0
 20
0.0
 30
0.0
 70
   128
 71
     7
 72
     6
 73
    -5
  0
VERTEX
  5
10B0
  8
0
 10
0.0
 20
0.0
 30
0.0
 70
   128
 71
    -7
 72
    -5
 73
   -17
  0
VERTEX
  5
10B1
  8
0
 10
0.0
 20
0.0
 30
0.0
 70
   128
 71
   -17
 72
     8
 73
    -7
  0
VERTEX
  5
10B2
  8
0
 10
0.0
 20
0.0
 30
0.0
 70
   128
 71
   -17
 72
     9
 73
    -8
  0
VERTEX
  5
10B3
  8
0
 10
0.0
 20
0.0
 30
0.0
 70
   128
 71
   -17
 72
   -14
 73
   -10
  0
VERTEX
  5
10B4
  8
0
 10
0.0
 20
0.0
 30
0.0
 70
   128
 71
   -17
 72
    10
 73
    -9
  0
VERTEX
  5
10B5
  8
0
 10
0.0
 20
0.0
 30
0.0
 70
   128
 71
   -14
 72
    11
 73
   -10
  0
VERTEX
  5
10B6
  8
0
 10
0.0
 20
0.0
 30
0.0
 70
   128
 71
   -14
 72
    12
 73
   -11
  0
VERTEX
  5
10B7
  8
0
 10
0.0
 20
0.0
 30
0.0
 70
   128
 71
    14
 72
    13
 73
   -12
  0
VERTEX
  5
10B8
  8
0
 10
0.0
 20
0.0
 30
0.0
 70
   128
 71
   -17
 72
    15
 73
   -14
  0
VERTEX
  5
10B9
  8
0
 10
0.0
 20
0.0
 30
0.0
 70
   128
 71
    17
 72
    16
 73
   -15
  0
VERTEX
  5
10BA
  8
0
 10
0.0
 20
0.0
 30
0.0
 70
   128
 71
     5
 72
     4
 73
    -3
  0
VERTEX
  5
10BB
  8
0
 10
0.0
 20
0.0
 30
0.0
 70
   128
 71
    -3
 72
    18
 73
   -17
  0
VERTEX
  5
10BC
  8
0
 10
0.0
 20
0.0
 30
0.0
 70
   128
 71
    -3
 72
   -17
 73
    -5
  0
VERTEX
  5
10BD
  8
0
 10
0.0
 20
0.0
 30
0.0
 70
   128
 71
     3
 72
     2
 73
    -1
  0
VERTEX
  5
10BE
  8
0
 10
0.0
 20
0.0
 30
0.0
 70
   128
 71
    -3
 72
     1
 73
   -18
  0
SEQEND
  5
1C1B
  8
0
  0
POLYLINE
  5
10BF
  8
0
 66
     1
 10
0.0
 20
0.0
 30
0.0
 70
    64
 71
     5
 72
     3
  0
VERTEX
  5
10C0
  8
0
 10
13.0811469277593
 20
-15.48095103843179
 30
253.7
 70
   192
  0
VERTEX
  5
10C1
  8
0
 10
-12.41223232876
 20
-16.06199671949083
 30
253.7
 70
   192
  0
VERTEX
  5
10C2
  8
0
 10
-12.40948607613156
 20
-16.18248855391493
 30
252.6454226414776
 70
   192
  0
VERTEX
  5
10C3
  8
0
 10
0.3526861836079619
 20
-16.57126616936111
 30
246.6999999999876
 70
   192
  0
VERTEX
  5
10C4
  8
0
 10
13.0993758118702
 20
-16.28074332883206
 30
246.7
 70
   192
  0
VERTEX
  5
10C5
  8
0
 10
0.0
 20
0.0
 30
0.0
 70
   128
 71
     1
 72
     5
 73
    -4
  0
VERTEX
  5
10C6
  8
0
 10
0.0
 20
0.0
 30
0.0
 70
   128
 71
    -1
 72
     4
 73
    -3
  0
VERTEX
  5
10C7
  8
0
 10
0.0
 20
0.0
 30
0.0
 70
   128
 71
    -1
 72
     3
 73
     2
  0
SEQEND
  5
1C1C
  8
0
  0
POLYLINE
  5
10C8
  8
0
 66
     1
 10
0.0
 20
0.0
 30
0.0
 70
    64
 71
     7
 72
     5
  0
VERTEX
  5
10C9
  8
0
 10
-14.03922973877899
 20
-15.6670998219143
 30
253.3997110998161
 70
   192
  0
VERTEX
  5
10CA
  8
0
 10
-14.03952257244885
 20
-15.62568538376795
 30
253.699999999999
 70
   192
  0
VERTEX
  5
10CB
  8
0
 10
-13.2571403500607
 20
-15.9603169528415
 30
253.6999999999995
 70
   192
  0
VERTEX
  5
10CC
  8
0
 10
-12.41223232876
 20
-16.06199671949083
 30
253.7
 70
   192
  0
VERTEX
  5
10CD
  8
0
 10
-12.40948607613156
 20
-16.18248855391493
 30
252.6454226414776
 70
   192
  0
VERTEX
  5
10CE
  8
0
 10
-13.25245535141828
 20
-16.04058693459012
 30
253.0368958589058
 70
   192
  0
VERTEX
  5
10CF
  8
0
 10
-14.6966372696418
 20
-15.08493718530529
 30
253.6999999999871
 70
   192
  0
VERTEX
  5
10D0
  8
0
 10
0.0
 20
0.0
 30
0.0
 70
   128
 71
     1
 72
     2
 73
     3
  0
VERTEX
  5
10D1
  8
0
 10
0.0
 20
0.0
 30
0.0
 70
   128
 71
     4
 72
     5
 73
     6
  0
VERTEX
  5
10D2
  8
0
 10
0.0
 20
0.0
 30
0.0
 70
   128
 71
     3
 72
     4
 73
     6
  0
VERTEX
  5
10D3
  8
0
 10
0.0
 20
0.0
 30
0.0
 70
   128
 71
     1
 72
     3
 73
     6
  0
VERTEX
  5
10D4
  8
0
 10
0.0
 20
0.0
 30
0.0
 70
   128
 71
     7
 72
     2
 73
     1
  0
SEQEND
  5
1C1D
  8
0
  0
POLYLINE
  5
10D5
  8
0
 66
     1
 10
0.0
 20
0.0
 30
0.0
 70
    64
 71
     4
 72
     2
  0
VERTEX
  5
10D6
  8
0
 10
-16.0608574142363
 20
12.36224531060916
 30
269.3015876453846
 70
   192
  0
VERTEX
  5
10D7
  8
0
 10
-16.0608574142379
 20
12.36224531060915
 30
254.0443456158991
 70
   192
  0
VERTEX
  5
10D8
  8
0
 10
-15.4798117331777
 20
-13.13113394591083
 30
254.044345615899
 70
   192
  0
VERTEX
  5
10D9
  8
0
 10
-15.47981173317615
 20
-13.13113394591086
 30
269.3015876453845
 70
   192
  0
VERTEX
  5
10DA
  8
0
 10
0.0
 20
0.0
 30
0.0
 70
   128
 71
     1
 72
     4
 73
    -3
  0
VERTEX
  5
10DB
  8
0
 10
0.0
 20
0.0
 30
0.0
 70
   128
 71
    -1
 72
     3
 73
     2
  0
SEQEND
  5
1C1E
  8
0
  0
POLYLINE
  5
10DC
  8
0
 66
     1
 10
0.0
 20
0.0
 30
0.0
 70
    64
 71
     7
 72
     5
  0
VERTEX
  5
10DD
  8
0
 10
-14.73718507151177
 20
14.96137324609589
 30
253.3996507176905
 70
   192
  0
VERTEX
  5
10DE
  8
0
 10
-14.73571657531565
 20
14.91982649204555
 30
253.6999999999996
 70
   192
  0
VERTEX
  5
10DF
  8
0
 10
-15.3675122236008
 20
14.34970141960478
 30
253.6999999999872
 70
   192
  0
VERTEX
  5
10E0
  8
0
 10
-13.9693927297246
 20
15.28975620511918
 30
253.7000000000001
 70
   192
  0
VERTEX
  5
10E1
  8
0
 10
-13.9681640046171
 20
15.37017195503904
 30
253.0367997874855
 70
   192
  0
VERTEX
  5
10E2
  8
0
 10
-13.12999464064984
 20
15.42982471502391
 30
253.7000000000002
 70
   192
  0
VERTEX
  5
10E3
  8
0
 10
-13.13274089329736
 20
15.55031654944647
 30
252.6454226414806
 70
   192
  0
VERTEX
  5
10E4
  8
0
 10
0.0
 20
0.0
 30
0.0
 70
   128
 71
     1
 72
     2
 73
     3
  0
VERTEX
  5
10E5
  8
0
 10
0.0
 20
0.0
 30
0.0
 70
   128
 71
     4
 72
     2
 73
     1
  0
VERTEX
  5
10E6
  8
0
 10
0.0
 20
0.0
 30
0.0
 70
   128
 71
     5
 72
     4
 73
     1
  0
VERTEX
  5
10E7
  8
0
 10
0.0
 20
0.0
 30
0.0
 70
   128
 71
     6
 72
     4
 73
     5
  0
VERTEX
  5
10E8
  8
0
 10
0.0
 20
0.0
 30
0.0
 70
   128
 71
     7
 72
     6
 73
     5
  0
SEQEND
  5
1C1F
  8
0
  0
POLYLINE
  5
10E9
  8
0
 66
     1
 10
0.0
 20
0.0
 30
0.0
 70
    64
 71
     5
 72
     3
  0
VERTEX
  5
10EA
  8
0
 10
-13.12999464064984
 20
15.42982471502391
 30
253.7000000000002
 70
   192
  0
VERTEX
  5
10EB
  8
0
 10
12.3633846158606
 20
16.01087039608501
 30
253.7000000000002
 70
   192
  0
VERTEX
  5
10EC
  8
0
 10
12.34515573174956
 20
16.81066268648534
 30
246.7000000000002
 70
   192
  0
VERTEX
  5
10ED
  8
0
 10
-0.4015338965117015
 20
16.52013984595804
 30
246.6999999999907
 70
   192
  0
VERTEX
  5
10EE
  8
0
 10
-13.13274089329736
 20
15.55031654944647
 30
252.6454226414806
 70
   192
  0
VERTEX
  5
10EF
  8
0
 10
0.0
 20
0.0
 30
0.0
 70
   128
 71
     1
 72
     5
 73
    -4
  0
VERTEX
  5
10F0
  8
0
 10
0.0
 20
0.0
 30
0.0
 70
   128
 71
    -1
 72
     4
 73
    -3
  0
VERTEX
  5
10F1
  8
0
 10
0.0
 20
0.0
 30
0.0
 70
   128
 71
    -1
 72
     3
 73
     2
  0
SEQEND
  5
1C20
  8
0
  0
POLYLINE
  5
10F2
  8
0
 66
     1
 10
0.0
 20
0.0
 30
0.0
 70
    64
 71
     8
 72
     6
  0
VERTEX
  5
10F3
  8
0
 10
23.07635801196729
 20
-16.5033188925242
 30
273.9739028944501
 70
   192
  0
VERTEX
  5
10F4
  8
0
 10
-12.41442563111679
 20
-17.31221371518657
 30
271.4502130340074
 70
   192
  0
VERTEX
  5
10F5
  8
0
 10
-12.397299611654
 20
-17.49468727551484
 30
271.2678568300257
 70
   192
  0
VERTEX
  5
10F6
  8
0
 10
23.09348377338209
 20
-16.68578399671795
 30
273.7915476090039
 70
   192
  0
VERTEX
  5
10F7
  8
0
 10
23.0658907953183
 20
-16.25365890485261
 30
274.0410813591455
 70
   192
  0
VERTEX
  5
10F8
  8
0
 10
-12.42489256213066
 20
-17.06254497624855
 30
271.517384676967
 70
   192
  0
VERTEX
  5
10F9
  8
0
 10
-12.3780531710576
 20
-17.5616072639138
 30
271.0186433570015
 70
   192
  0
VERTEX
  5
10FA
  8
0
 10
23.1127297121404
 20
-16.75270053163376
 30
273.5423400863
 70
   192
  0
VERTEX
  5
10FB
  8
0
 10
0.0
 20
0.0
 30
0.0
 70
   128
 71
     1
 72
     2
 73
     3
  0
VERTEX
  5
10FC
  8
0
 10
0.0
 20
0.0
 30
0.0
 70
   128
 71
     1
 72
     3
 73
     4
  0
VERTEX
  5
10FD
  8
0
 10
0.0
 20
0.0
 30
0.0
 70
   128
 71
     5
 72
     6
 73
     2
  0
VERTEX
  5
10FE
  8
0
 10
0.0
 20
0.0
 30
0.0
 70
   128
 71
     5
 72
     2
 73
     1
  0
VERTEX
  5
10FF
  8
0
 10
0.0
 20
0.0
 30
0.0
 70
   128
 71
     4
 72
     3
 73
     7
  0
VERTEX
  5
1100
  8
0
 10
0.0
 20
0.0
 30
0.0
 70
   128
 71
     4
 72
     7
 73
     8
  0
SEQEND
  5
1C21
  8
0
  0
POLYLINE
  5
1101
  8
0
 66
     1
 10
0.0
 20
0.0
 30
0.0
 70
    64
 71
     8
 72
     6
  0
VERTEX
  5
1102
  8
0
 10
84.422277992474
 20
-12.7203834608066
 30
274.2610003704
 70
   192
  0
VERTEX
  5
1103
  8
0
 10
68.56166651791673
 20
-14.27083814416246
 30
276.7740290557992
 70
   192
  0
VERTEX
  5
1104
  8
0
 10
64.23823423041891
 20
-14.63173474824497
 30
272.8613067200481
 70
   192
  0
VERTEX
  5
1105
  8
0
 10
84.4222782854417
 20
-12.72038342900619
 30
277.9031938714
 70
   192
  0
VERTEX
  5
1106
  8
0
 10
48.12852423194614
 20
-15.74510018115381
 30
275.3204111274326
 70
   192
  0
VERTEX
  5
1107
  8
0
 10
43.37113271610929
 20
-16.00412758666627
 30
272.0837929635865
 70
   192
  0
VERTEX
  5
1108
  8
0
 10
23.1127297121404
 20
-16.75270053163376
 30
273.5423400863
 70
   192
  0
VERTEX
  5
1109
  8
0
 10
23.11272766618585
 20
-16.75270057823644
 30
270.6899346834
 70
   192
  0
VERTEX
  5
110A
  8
0
 10
0.0
 20
0.0
 30
0.0
 70
   128
 71
     1
 72
     2
 73
     3
  0
VERTEX
  5
110B
  8
0
 10
0.0
 20
0.0
 30
0.0
 70
   128
 71
     1
 72
     4
 73
     2
  0
VERTEX
  5
110C
  8
0
 10
0.0
 20
0.0
 30
0.0
 70
   128
 71
     3
 72
     2
 73
     5
  0
VERTEX
  5
110D
  8
0
 10
0.0
 20
0.0
 30
0.0
 70
   128
 71
     3
 72
     5
 73
     6
  0
VERTEX
  5
110E
  8
0
 10
0.0
 20
0.0
 30
0.0
 70
   128
 71
     6
 72
     5
 73
     7
  0
VERTEX
  5
110F
  8
0
 10
0.0
 20
0.0
 30
0.0
 70
   128
 71
     6
 72
     7
 73
     8
  0
SEQEND
  5
1C22
  8
0
  0
POLYLINE
  5
1110
  8
0
 66
     1
 10
0.0
 20
0.0
 30
0.0
 70
    64
 71
     9
 72
     7
  0
VERTEX
  5
1111
  8
0
 10
21.5071791955583
 20
-13.22889623039699
 30
267.0769588100566
 70
   192
  0
VERTEX
  5
1112
  8
0
 10
21.49880045010848
 20
-14.9702745364905
 30
267.5291404292011
 70
   192
  0
VERTEX
  5
1113
  8
0
 10
21.38576897041046
 20
-16.33721698622169
 30
268.8855161902193
 70
   192
  0
VERTEX
  5
1114
  8
0
 10
21.21222308099985
 20
-16.79601692206424
 30
270.6165042033
 70
   192
  0
VERTEX
  5
1115
  8
0
 10
16.61947665744026
 20
-16.90069490322958
 30
268.7219149983402
 70
   192
  0
VERTEX
  5
1116
  8
0
 10
14.08775385800107
 20
-16.95839798697746
 30
265.4357576418619
 70
   192
  0
VERTEX
  5
1117
  8
0
 10
13.11532600311072
 20
-16.98055735340101
 30
261.6509234256924
 70
   192
  0
VERTEX
  5
1118
  8
0
 10
16.57665573097868
 20
-15.37939773131501
 30
263.2932902261899
 70
   192
  0
VERTEX
  5
1119
  8
0
 10
18.23706692328012
 20
-13.82298407455607
 30
265.2653961941794
 70
   192
  0
VERTEX
  5
111A
  8
0
 10
0.0
 20
0.0
 30
0.0
 70
   128
 71
     6
 72
     7
 73
     8
  0
VERTEX
  5
111B
  8
0
 10
0.0
 20
0.0
 30
0.0
 70
   128
 71
     9
 72
     5
 73
     6
  0
VERTEX
  5
111C
  8
0
 10
0.0
 20
0.0
 30
0.0
 70
   128
 71
     8
 72
     9
 73
     6
  0
VERTEX
  5
111D
  8
0
 10
0.0
 20
0.0
 30
0.0
 70
   128
 71
     9
 72
     1
 73
     2
  0
VERTEX
  5
111E
  8
0
 10
0.0
 20
0.0
 30
0.0
 70
   128
 71
     3
 72
     5
 73
     9
  0
VERTEX
  5
111F
  8
0
 10
0.0
 20
0.0
 30
0.0
 70
   128
 71
     2
 72
     3
 73
     9
  0
VERTEX
  5
1120
  8
0
 10
0.0
 20
0.0
 30
0.0
 70
   128
 71
     3
 72
     4
 73
     5
  0
SEQEND
  5
1C23
  8
0
  0
POLYLINE
  5
1121
  8
0
 66
     1
 10
0.0
 20
0.0
 30
0.0
 70
    64
 71
    10
 72
     8
  0
VERTEX
  5
1122
  8
0
 10
16.95997296214054
 20
-14.64223032506635
 30
246.7000000000001
 70
   192
  0
VERTEX
  5
1123
  8
0
 10
15.39981068288845
 20
-16.2964543652357
 30
262.1395821166323
 70
   192
  0
VERTEX
  5
1124
  8
0
 10
15.35088070712192
 20
-16.32638227711274
 30
246.7
 70
   192
  0
VERTEX
  5
1125
  8
0
 10
17.51162024584185
 20
-12.37919247630142
 30
246.7
 70
   192
  0
VERTEX
  5
1126
  8
0
 10
16.97643868357045
 20
-14.61231400471428
 30
262.4827990352179
 70
   192
  0
VERTEX
  5
1127
  8
0
 10
13.11532608784219
 20
-16.98056142615969
 30
251.6836411421369
 70
   192
  0
VERTEX
  5
1128
  8
0
 10
13.1153260854689
 20
-16.98056158293276
 30
246.7
 70
   192
  0
VERTEX
  5
1129
  8
0
 10
13.11532606784634
 20
-16.98056032958351
 30
256.6672822840941
 70
   192
  0
VERTEX
  5
112A
  8
0
 10
17.51162024584115
 20
-12.3791924763005
 30
262.6073952341
 70
   192
  0
VERTEX
  5
112B
  8
0
 10
13.11532600311072
 20
-16.98055735340101
 30
261.6509234256924
 70
   192
  0
VERTEX
  5
112C
  8
0
 10
0.0
 20
0.0
 30
0.0
 70
   128
 71
     1
 72
     2
 73
     3
  0
VERTEX
  5
112D
  8
0
 10
0.0
 20
0.0
 30
0.0
 70
   128
 71
     4
 72
     5
 73
     1
  0
VERTEX
  5
112E
  8
0
 10
0.0
 20
0.0
 30
0.0
 70
   128
 71
     6
 72
     7
 73
     3
  0
VERTEX
  5
112F
  8
0
 10
0.0
 20
0.0
 30
0.0
 70
   128
 71
     3
 72
     8
 73
     6
  0
VERTEX
  5
1130
  8
0
 10
0.0
 20
0.0
 30
0.0
 70
   128
 71
     4
 72
     9
 73
     5
  0
VERTEX
  5
1131
  8
0
 10
0.0
 20
0.0
 30
0.0
 70
   128
 71
     1
 72
     5
 73
     2
  0
VERTEX
  5
1132
  8
0
 10
0.0
 20
0.0
 30
0.0
 70
   128
 71
     3
 72
     2
 73
    10
  0
VERTEX
  5
1133
  8
0
 10
0.0
 20
0.0
 30
0.0
 70
   128
 71
     3
 72
    10
 73
     8
  0
SEQEND
  5
1C24
  8
0
  0
POLYLINE
  5
1134
  8
0
 66
     1
 10
0.0
 20
0.0
 30
0.0
 70
    64
 71
    20
 72
    18
  0
VERTEX
  5
1135
  8
0
 10
13.0993758118702
 20
-16.28074332883206
 30
246.7
 70
   192
  0
VERTEX
  5
1136
  8
0
 10
0.3526861836079619
 20
-16.57126616936111
 30
246.6999999999876
 70
   192
  0
VERTEX
  5
1137
  8
0
 10
0.368636457207254
 20
-17.27108442346151
 30
246.6999999999906
 70
   192
  0
VERTEX
  5
1138
  8
0
 10
13.1153260854689
 20
-16.98056158293276
 30
246.7
 70
   192
  0
VERTEX
  5
1139
  8
0
 10
15.35088070712192
 20
-16.32638227711274
 30
246.7
 70
   192
  0
VERTEX
  5
113A
  8
0
 10
16.95997296214054
 20
-14.64223032506635
 30
246.7000000000001
 70
   192
  0
VERTEX
  5
113B
  8
0
 10
17.51162024584185
 20
-12.37919247630142
 30
246.7
 70
   192
  0
VERTEX
  5
113C
  8
0
 10
16.9305745647819
 20
13.11418678020918
 30
246.7000000000002
 70
   192
  0
VERTEX
  5
113D
  8
0
 10
16.27639525896188
 20
15.34974140186107
 30
246.7000000000002
 70
   192
  0
VERTEX
  5
113E
  8
0
 10
14.59224330691549
 20
16.95883365687969
 30
246.7000000000002
 70
   192
  0
VERTEX
  5
113F
  8
0
 10
12.32920545815062
 20
17.51048094058494
 30
246.7000000000002
 70
   192
  0
VERTEX
  5
1140
  8
0
 10
-0.4174841701108455
 20
17.21995810005849
 30
246.6999999999877
 70
   192
  0
VERTEX
  5
1141
  8
0
 10
-0.4015338965117015
 20
16.52013984595804
 30
246.6999999999907
 70
   192
  0
VERTEX
  5
1142
  8
0
 10
12.34515573174956
 20
16.81066268648534
 30
246.7000000000002
 70
   192
  0
VERTEX
  5
1143
  8
0
 10
14.25616547070593
 20
16.34482720246596
 30
246.7000000000002
 70
   192
  0
VERTEX
  5
1144
  8
0
 10
15.67833823021182
 20
14.98603818711633
 30
246.7000000000002
 70
   192
  0
VERTEX
  5
1145
  8
0
 10
16.2307563106812
 20
13.09823650660934
 30
246.7000000000002
 70
   192
  0
VERTEX
  5
1146
  8
0
 10
16.8118019917412
 20
-12.39514274990026
 30
246.7
 70
   192
  0
VERTEX
  5
1147
  8
0
 10
16.34596650772666
 20
-14.30615248885708
 30
246.7
 70
   192
  0
VERTEX
  5
1148
  8
0
 10
14.98717749237702
 20
-15.72832524836278
 30
246.7
 70
   192
  0
VERTEX
  5
1149
  8
0
 10
0.0
 20
0.0
 30
0.0
 70
   128
 71
    14
 72
    13
 73
   -12
  0
VERTEX
  5
114A
  8
0
 10
0.0
 20
0.0
 30
0.0
 70
   128
 71
   -14
 72
    12
 73
   -11
  0
VERTEX
  5
114B
  8
0
 10
0.0
 20
0.0
 30
0.0
 70
   128
 71
    11
 72
   -10
 73
   -15
  0
VERTEX
  5
114C
  8
0
 10
0.0
 20
0.0
 30
0.0
 70
   128
 71
   -11
 72
    15
 73
   -14
  0
VERTEX
  5
114D
  8
0
 10
0.0
 20
0.0
 30
0.0
 70
   128
 71
    10
 72
    -9
 73
   -16
  0
VERTEX
  5
114E
  8
0
 10
0.0
 20
0.0
 30
0.0
 70
   128
 71
   -10
 72
    16
 73
   -15
  0
VERTEX
  5
114F
  8
0
 10
0.0
 20
0.0
 30
0.0
 70
   128
 71
    -9
 72
    17
 73
   -16
  0
VERTEX
  5
1150
  8
0
 10
0.0
 20
0.0
 30
0.0
 70
   128
 71
   -17
 72
     9
 73
    -8
  0
VERTEX
  5
1151
  8
0
 10
0.0
 20
0.0
 30
0.0
 70
   128
 71
     8
 72
    -7
 73
   -18
  0
VERTEX
  5
1152
  8
0
 10
0.0
 20
0.0
 30
0.0
 70
   128
 71
    -8
 72
    18
 73
   -17
  0
VERTEX
  5
1153
  8
0
 10
0.0
 20
0.0
 30
0.0
 70
   128
 71
     7
 72
    -6
 73
   -18
  0
VERTEX
  5
1154
  8
0
 10
0.0
 20
0.0
 30
0.0
 70
   128
 71
    -6
 72
    19
 73
   -18
  0
VERTEX
  5
1155
  8
0
 10
0.0
 20
0.0
 30
0.0
 70
   128
 71
     6
 72
    -5
 73
   -20
  0
VERTEX
  5
1156
  8
0
 10
0.0
 20
0.0
 30
0.0
 70
   128
 71
    -6
 72
    20
 73
   -19
  0
VERTEX
  5
1157
  8
0
 10
0.0
 20
0.0
 30
0.0
 70
   128
 71
     5
 72
    -4
 73
    -1
  0
VERTEX
  5
1158
  8
0
 10
0.0
 20
0.0
 30
0.0
 70
   128
 71
    -5
 72
     1
 73
   -20
  0
VERTEX
  5
1159
  8
0
 10
0.0
 20
0.0
 30
0.0
 70
   128
 71
     4
 72
     3
 73
    -2
  0
VERTEX
  5
115A
  8
0
 10
0.0
 20
0.0
 30
0.0
 70
   128
 71
    -4
 72
     2
 73
    -1
  0
SEQEND
  5
1C25
  8
0
  0
POLYLINE
  5
115B
  8
0
 66
     1
 10
0.0
 20
0.0
 30
0.0
 70
    64
 71
    12
 72
    10
  0
VERTEX
  5
115C
  8
0
 10
84.33265956923591
 20
-12.22415548380269
 30
278.4019352697425
 70
   192
  0
VERTEX
  5
115D
  8
0
 10
63.9515818249099
 20
-14.15104316732299
 30
276.9502983743225
 70
   192
  0
VERTEX
  5
115E
  8
0
 10
43.52377486446046
 20
-15.49457604299663
 30
275.4962853155108
 70
   192
  0
VERTEX
  5
115F
  8
0
 10
23.0658907953183
 20
-16.25365890485261
 30
274.0410813591455
 70
   192
  0
VERTEX
  5
1160
  8
0
 10
23.07635801196729
 20
-16.5033188925242
 30
273.9739028944501
 70
   192
  0
VERTEX
  5
1161
  8
0
 10
23.09348377338209
 20
-16.68578399671795
 30
273.7915476090039
 70
   192
  0
VERTEX
  5
1162
  8
0
 10
23.1127297121404
 20
-16.75270053163376
 30
273.5423400863
 70
   192
  0
VERTEX
  5
1163
  8
0
 10
48.12852423194614
 20
-15.74510018115381
 30
275.3204111274326
 70
   192
  0
VERTEX
  5
1164
  8
0
 10
68.56166651791673
 20
-14.27083814416246
 30
276.7740290557992
 70
   192
  0
VERTEX
  5
1165
  8
0
 10
84.4222782854417
 20
-12.72038342900619
 30
277.9031938714
 70
   192
  0
VERTEX
  5
1166
  8
0
 10
84.39807780525905
 20
-12.65831551985497
 30
278.14791105607
 70
   192
  0
VERTEX
  5
1167
  8
0
 10
84.36369672641699
 20
-12.46794446483437
 30
278.3392475665765
 70
   192
  0
VERTEX
  5
1168
  8
0
 10
0.0
 20
0.0
 30
0.0
 70
   128
 71
     6
 72
     7
 73
     8
  0
VERTEX
  5
1169
  8
0
 10
0.0
 20
0.0
 30
0.0
 70
   128
 71
     9
 72
    11
 73
     6
  0
VERTEX
  5
116A
  8
0
 10
0.0
 20
0.0
 30
0.0
 70
   128
 71
     8
 72
     9
 73
     6
  0
VERTEX
  5
116B
  8
0
 10
0.0
 20
0.0
 30
0.0
 70
   128
 71
     9
 72
    10
 73
    11
  0
VERTEX
  5
116C
  8
0
 10
0.0
 20
0.0
 30
0.0
 70
   128
 71
    12
 72
     5
 73
     6
  0
VERTEX
  5
116D
  8
0
 10
0.0
 20
0.0
 30
0.0
 70
   128
 71
    11
 72
    12
 73
     6
  0
VERTEX
  5
116E
  8
0
 10
0.0
 20
0.0
 30
0.0
 70
   128
 71
    12
 72
     1
 73
     2
  0
VERTEX
  5
116F
  8
0
 10
0.0
 20
0.0
 30
0.0
 70
   128
 71
     3
 72
     5
 73
    12
  0
VERTEX
  5
1170
  8
0
 10
0.0
 20
0.0
 30
0.0
 70
   128
 71
     2
 72
     3
 73
    12
  0
VERTEX
  5
1171
  8
0
 10
0.0
 20
0.0
 30
0.0
 70
   128
 71
     3
 72
     4
 73
     5
  0
SEQEND
  5
1C26
  8
0
  0
POLYLINE
  5
1172
  8
0
 66
     1
 10
0.0
 20
0.0
 30
0.0
 70
    64
 71
    12
 72
    10
  0
VERTEX
  5
1173
  8
0
 10
84.4222782854417
 20
-12.72038342900619
 30
277.9031938714
 70
   192
  0
VERTEX
  5
1174
  8
0
 10
86.48802144412979
 20
-11.94931905300243
 30
278.0348069128554
 70
   192
  0
VERTEX
  5
1175
  8
0
 10
87.93967269477025
 20
-10.29327480830444
 30
278.1288991184992
 70
   192
  0
VERTEX
  5
1176
  8
0
 10
88.4335383591215
 20
-8.144337939317861
 30
278.1631931199
 70
   192
  0
VERTEX
  5
1177
  8
0
 10
88.36409240124185
 20
-8.145920753172835
 30
278.4171164253741
 70
   192
  0
VERTEX
  5
1178
  8
0
 10
88.15636465474195
 20
-8.150655288705941
 30
278.6106512905004
 70
   192
  0
VERTEX
  5
1179
  8
0
 10
87.89822183911079
 20
-8.156538885643032
 30
278.661934440014
 70
   192
  0
VERTEX
  5
117A
  8
0
 10
87.51204266759935
 20
-9.964694984393658
 30
278.6315528931653
 70
   192
  0
VERTEX
  5
117B
  8
0
 10
86.1754184289179
 20
-11.53650678389754
 30
278.5340134144467
 70
   192
  0
VERTEX
  5
117C
  8
0
 10
84.3326595692359
 20
-12.22415548380269
 30
278.4019352697425
 70
   192
  0
VERTEX
  5
117D
  8
0
 10
84.36369672641699
 20
-12.46794446483437
 30
278.3392475665765
 70
   192
  0
VERTEX
  5
117E
  8
0
 10
84.39807780525905
 20
-12.65831551985497
 30
278.14791105607
 70
   192
  0
VERTEX
  5
117F
  8
0
 10
0.0
 20
0.0
 30
0.0
 70
   128
 71
     6
 72
     7
 73
     8
  0
VERTEX
  5
1180
  8
0
 10
0.0
 20
0.0
 30
0.0
 70
   128
 71
     9
 72
    11
 73
     6
  0
VERTEX
  5
1181
  8
0
 10
0.0
 20
0.0
 30
0.0
 70
   128
 71
     8
 72
     9
 73
     6
  0
VERTEX
  5
1182
  8
0
 10
0.0
 20
0.0
 30
0.0
 70
   128
 71
     9
 72
    10
 73
    11
  0
VERTEX
  5
1183
  8
0
 10
0.0
 20
0.0
 30
0.0
 70
   128
 71
    12
 72
     5
 73
     6
  0
VERTEX
  5
1184
  8
0
 10
0.0
 20
0.0
 30
0.0
 70
   128
 71
    11
 72
    12
 73
     6
  0
VERTEX
  5
1185
  8
0
 10
0.0
 20
0.0
 30
0.0
 70
   128
 71
    12
 72
     1
 73
     2
  0
VERTEX
  5
1186
  8
0
 10
0.0
 20
0.0
 30
0.0
 70
   128
 71
     3
 72
     5
 73
    12
  0
VERTEX
  5
1187
  8
0
 10
0.0
 20
0.0
 30
0.0
 70
   128
 71
     2
 72
     3
 73
    12
  0
VERTEX
  5
1188
  8
0
 10
0.0
 20
0.0
 30
0.0
 70
   128
 71
     3
 72
     4
 73
     5
  0
SEQEND
  5
1C27
  8
0
  0
POLYLINE
  5
1189
  8
0
 66
     1
 10
0.0
 20
0.0
 30
0.0
 70
    64
 71
     8
 72
     6
  0
VERTEX
  5
118A
  8
0
 10
87.70093307607527
 20
12.10878584150449
 30
278.6071141966483
 70
   192
  0
VERTEX
  5
118B
  8
0
 10
88.15636465474195
 20
-8.150655288705941
 30
278.6106512905004
 70
   192
  0
VERTEX
  5
118C
  8
0
 10
88.36409240124185
 20
-8.145920753172835
 30
278.4171164253741
 70
   192
  0
VERTEX
  5
118D
  8
0
 10
87.89836669429698
 20
12.11328575303079
 30
278.4231701192527
 70
   192
  0
VERTEX
  5
118E
  8
0
 10
87.43647147757949
 20
12.10275822672727
 30
278.6619344399996
 70
   192
  0
VERTEX
  5
118F
  8
0
 10
87.89822183911079
 20
-8.156538885643032
 30
278.661934440014
 70
   192
  0
VERTEX
  5
1190
  8
0
 10
88.4335383591215
 20
-8.144337939317861
 30
278.1631931199
 70
   192
  0
VERTEX
  5
1191
  8
0
 10
87.9717879975872
 20
12.11495917304893
 30
278.1631931199001
 70
   192
  0
VERTEX
  5
1192
  8
0
 10
0.0
 20
0.0
 30
0.0
 70
   128
 71
     1
 72
     2
 73
    -3
  0
VERTEX
  5
1193
  8
0
 10
0.0
 20
0.0
 30
0.0
 70
   128
 71
    -1
 72
     3
 73
     4
  0
VERTEX
  5
1194
  8
0
 10
0.0
 20
0.0
 30
0.0
 70
   128
 71
     5
 72
     6
 73
     2
  0
VERTEX
  5
1195
  8
0
 10
0.0
 20
0.0
 30
0.0
 70
   128
 71
     5
 72
     2
 73
     1
  0
VERTEX
  5
1196
  8
0
 10
0.0
 20
0.0
 30
0.0
 70
   128
 71
     4
 72
     3
 73
     7
  0
VERTEX
  5
1197
  8
0
 10
0.0
 20
0.0
 30
0.0
 70
   128
 71
     4
 72
     7
 73
     8
  0
SEQEND
  5
1C28
  8
0
  0
POLYLINE
  5
1198
  8
0
 66
     1
 10
0.0
 20
0.0
 30
0.0
 70
    64
 71
    12
 72
    10
  0
VERTEX
  5
1199
  8
0
 10
87.9717879975872
 20
12.11495917304893
 30
278.1631931199001
 70
   192
  0
VERTEX
  5
119A
  8
0
 10
87.38052879442745
 20
14.23916384994704
 30
278.1288990700073
 70
   192
  0
VERTEX
  5
119B
  8
0
 10
85.85493495723725
 20
15.8273506566566
 30
278.0348068649589
 70
   192
  0
VERTEX
  5
119C
  8
0
 10
83.7562069067416
 20
16.50349831140027
 30
277.9031938714001
 70
   192
  0
VERTEX
  5
119D
  8
0
 10
83.73485377620696
 20
16.44026135258159
 30
278.1478738690527
 70
   192
  0
VERTEX
  5
119E
  8
0
 10
83.70919435427182
 20
16.24861549038882
 30
278.3391166186717
 70
   192
  0
VERTEX
  5
119F
  8
0
 10
83.6892895845754
 20
16.00370259329738
 30
278.4019352697491
 70
   192
  0
VERTEX
  5
11A0
  8
0
 10
85.5465773857732
 20
15.41082721627328
 30
278.5329683705011
 70
   192
  0
VERTEX
  5
11A1
  8
0
 10
86.92466103897878
 20
13.97121109243738
 30
278.6285804491565
 70
   192
  0
VERTEX
  5
11A2
  8
0
 10
87.43647147757949
 20
12.10275822672727
 30
278.6619344399996
 70
   192
  0
VERTEX
  5
11A3
  8
0
 10
87.70093307607527
 20
12.10878584150449
 30
278.6071141966483
 70
   192
  0
VERTEX
  5
11A4
  8
0
 10
87.89836669429698
 20
12.11328575303079
 30
278.4231701192527
 70
   192
  0
VERTEX
  5
11A5
  8
0
 10
0.0
 20
0.0
 30
0.0
 70
   128
 71
     6
 72
     7
 73
     8
  0
VERTEX
  5
11A6
  8
0
 10
0.0
 20
0.0
 30
0.0
 70
   128
 71
     9
 72
    11
 73
     6
  0
VERTEX
  5
11A7
  8
0
 10
0.0
 20
0.0
 30
0.0
 70
   128
 71
     8
 72
     9
 73
     6
  0
VERTEX
  5
11A8
  8
0
 10
0.0
 20
0.0
 30
0.0
 70
   128
 71
     9
 72
    10
 73
    11
  0
VERTEX
  5
11A9
  8
0
 10
0.0
 20
0.0
 30
0.0
 70
   128
 71
    12
 72
     5
 73
     6
  0
VERTEX
  5
11AA
  8
0
 10
0.0
 20
0.0
 30
0.0
 70
   128
 71
    11
 72
    12
 73
     6
  0
VERTEX
  5
11AB
  8
0
 10
0.0
 20
0.0
 30
0.0
 70
   128
 71
    12
 72
     1
 73
     2
  0
VERTEX
  5
11AC
  8
0
 10
0.0
 20
0.0
 30
0.0
 70
   128
 71
     3
 72
     5
 73
    12
  0
VERTEX
  5
11AD
  8
0
 10
0.0
 20
0.0
 30
0.0
 70
   128
 71
     2
 72
     3
 73
    12
  0
VERTEX
  5
11AE
  8
0
 10
0.0
 20
0.0
 30
0.0
 70
   128
 71
     3
 72
     4
 73
     5
  0
SEQEND
  5
1C29
  8
0
  0
POLYLINE
  5
11AF
  8
0
 66
     1
 10
0.0
 20
0.0
 30
0.0
 70
    64
 71
    12
 72
    10
  0
VERTEX
  5
11B0
  8
0
 10
83.7562069067416
 20
16.50349831140027
 30
277.9031938714001
 70
   192
  0
VERTEX
  5
11B1
  8
0
 10
63.29422571002249
 20
17.50051118524972
 30
276.4515570179128
 70
   192
  0
VERTEX
  5
11B2
  8
0
 10
42.8121276485404
 20
17.91223762138036
 30
274.9975440010331
 70
   192
  0
VERTEX
  5
11B3
  8
0
 10
22.3266090856549
 20
17.73834199193475
 30
273.5423400863081
 70
   192
  0
VERTEX
  5
11B4
  8
0
 10
22.31073009504675
 20
17.67409755624341
 30
273.7862384713387
 70
   192
  0
VERTEX
  5
11B5
  8
0
 10
22.30151225922855
 20
17.48223827746267
 30
273.9773646341979
 70
   192
  0
VERTEX
  5
11B6
  8
0
 10
22.302555331327
 20
17.23768457783694
 30
274.0410813591366
 70
   192
  0
VERTEX
  5
11B7
  8
0
 10
42.77377976628642
 20
17.4114588897455
 30
275.4962853154915
 70
   192
  0
VERTEX
  5
11B8
  8
0
 10
63.24158608855985
 20
17.00001976399674
 30
276.9502983743104
 70
   192
  0
VERTEX
  5
11B9
  8
0
 10
83.6892895845754
 20
16.00370259329738
 30
278.4019352697491
 70
   192
  0
VERTEX
  5
11BA
  8
0
 10
83.70919435427182
 20
16.24861549038882
 30
278.3391166186717
 70
   192
  0
VERTEX
  5
11BB
  8
0
 10
83.73485377620696
 20
16.44026135258159
 30
278.1478738690527
 70
   192
  0
VERTEX
  5
11BC
  8
0
 10
0.0
 20
0.0
 30
0.0
 70
   128
 71
     6
 72
     7
 73
     8
  0
VERTEX
  5
11BD
  8
0
 10
0.0
 20
0.0
 30
0.0
 70
   128
 71
     9
 72
    11
 73
     6
  0
VERTEX
  5
11BE
  8
0
 10
0.0
 20
0.0
 30
0.0
 70
   128
 71
     8
 72
     9
 73
     6
  0
VERTEX
  5
11BF
  8
0
 10
0.0
 20
0.0
 30
0.0
 70
   128
 71
     9
 72
    10
 73
    11
  0
VERTEX
  5
11C0
  8
0
 10
0.0
 20
0.0
 30
0.0
 70
   128
 71
    12
 72
     5
 73
     6
  0
VERTEX
  5
11C1
  8
0
 10
0.0
 20
0.0
 30
0.0
 70
   128
 71
    11
 72
    12
 73
     6
  0
VERTEX
  5
11C2
  8
0
 10
0.0
 20
0.0
 30
0.0
 70
   128
 71
    12
 72
     1
 73
     2
  0
VERTEX
  5
11C3
  8
0
 10
0.0
 20
0.0
 30
0.0
 70
   128
 71
     3
 72
     5
 73
    12
  0
VERTEX
  5
11C4
  8
0
 10
0.0
 20
0.0
 30
0.0
 70
   128
 71
     2
 72
     3
 73
    12
  0
VERTEX
  5
11C5
  8
0
 10
0.0
 20
0.0
 30
0.0
 70
   128
 71
     3
 72
     4
 73
     5
  0
SEQEND
  5
1C2A
  8
0
  0
POLYLINE
  5
11C6
  8
0
 66
     1
 10
0.0
 20
0.0
 30
0.0
 70
    64
 71
    10
 72
     8
  0
VERTEX
  5
11C7
  8
0
 10
-1.333912837276093
 20
17.19907083696059
 30
271.8598756001096
 70
   192
  0
VERTEX
  5
11C8
  8
0
 10
-13.16417379836708
 20
16.9294352594441
 30
271.0186433570001
 70
   192
  0
VERTEX
  5
11C9
  8
0
 10
-13.1803513532314
 20
16.86170788652876
 30
271.2678568300167
 70
   192
  0
VERTEX
  5
11CA
  8
0
 10
10.49634812400291
 20
17.46870641444932
 30
272.7011078432141
 70
   192
  0
VERTEX
  5
11CB
  8
0
 10
22.31073009504675
 20
17.67409755624341
 30
273.7862384713387
 70
   192
  0
VERTEX
  5
11CC
  8
0
 10
-13.18822708430794
 20
16.42875718427061
 30
271.5173846769761
 70
   192
  0
VERTEX
  5
11CD
  8
0
 10
22.302555331327
 20
17.23768457783694
 30
274.0410813591366
 70
   192
  0
VERTEX
  5
11CE
  8
0
 10
22.30151225922855
 20
17.48223827746267
 30
273.9773646341979
 70
   192
  0
VERTEX
  5
11CF
  8
0
 10
-13.18914602441747
 20
16.67864354123175
 30
271.4502130339919
 70
   192
  0
VERTEX
  5
11D0
  8
0
 10
22.3266090856549
 20
17.73834199193475
 30
273.5423400863081
 70
   192
  0
VERTEX
  5
11D1
  8
0
 10
0.0
 20
0.0
 30
0.0
 70
   128
 71
     1
 72
     2
 73
    -3
  0
VERTEX
  5
11D2
  8
0
 10
0.0
 20
0.0
 30
0.0
 70
   128
 71
     3
 72
     4
 73
    -1
  0
VERTEX
  5
11D3
  8
0
 10
0.0
 20
0.0
 30
0.0
 70
   128
 71
     3
 72
     5
 73
     4
  0
VERTEX
  5
11D4
  8
0
 10
0.0
 20
0.0
 30
0.0
 70
   128
 71
     6
 72
     7
 73
     8
  0
VERTEX
  5
11D5
  8
0
 10
0.0
 20
0.0
 30
0.0
 70
   128
 71
     6
 72
     8
 73
     9
  0
VERTEX
  5
11D6
  8
0
 10
0.0
 20
0.0
 30
0.0
 70
   128
 71
     9
 72
     8
 73
     5
  0
VERTEX
  5
11D7
  8
0
 10
0.0
 20
0.0
 30
0.0
 70
   128
 71
     9
 72
     5
 73
     3
  0
VERTEX
  5
11D8
  8
0
 10
0.0
 20
0.0
 30
0.0
 70
   128
 71
     5
 72
    10
 73
     4
  0
SEQEND
  5
1C2B
  8
0
  0
POLYLINE
  5
11D9
  8
0
 66
     1
 10
0.0
 20
0.0
 30
0.0
 70
    64
 71
    12
 72
    10
  0
VERTEX
  5
11DA
  8
0
 10
-17.0960441157498
 20
12.33865131171065
 30
271.2330244873966
 70
   192
  0
VERTEX
  5
11DB
  8
0
 10
-16.66401188758514
 20
14.24014647362699
 30
271.2668003297264
 70
   192
  0
VERTEX
  5
11DC
  8
0
 10
-15.18221248753718
 20
15.84262068621383
 30
271.3747137639211
 70
   192
  0
VERTEX
  5
11DD
  8
0
 10
-13.18822708430794
 20
16.42875718427061
 30
271.5173846769761
 70
   192
  0
VERTEX
  5
11DE
  8
0
 10
-13.18914602441747
 20
16.67864354123175
 30
271.4502130339919
 70
   192
  0
VERTEX
  5
11DF
  8
0
 10
-13.1803513532314
 20
16.86170788652876
 30
271.2678568300167
 70
   192
  0
VERTEX
  5
11E0
  8
0
 10
-13.16417379836708
 20
16.9294352594441
 30
271.0186433570001
 70
   192
  0
VERTEX
  5
11E1
  8
0
 10
-15.56562271745865
 20
16.16978049024849
 30
270.8661874959253
 70
   192
  0
VERTEX
  5
11E2
  8
0
 10
-17.02872776983087
 20
14.55476557845615
 30
270.771386439368
 70
   192
  0
VERTEX
  5
11E3
  8
0
 10
-17.56046795866495
 20
12.32806615290015
 30
270.7342831673751
 70
   192
  0
VERTEX
  5
11E4
  8
0
 10
-17.50177831009485
 20
12.32940380871112
 30
270.9691338106031
 70
   192
  0
VERTEX
  5
11E5
  8
0
 10
-17.32608092625344
 20
12.33340830748639
 30
271.1578140466577
 70
   192
  0
VERTEX
  5
11E6
  8
0
 10
0.0
 20
0.0
 30
0.0
 70
   128
 71
     6
 72
     7
 73
     8
  0
VERTEX
  5
11E7
  8
0
 10
0.0
 20
0.0
 30
0.0
 70
   128
 71
     9
 72
    11
 73
     6
  0
VERTEX
  5
11E8
  8
0
 10
0.0
 20
0.0
 30
0.0
 70
   128
 71
     8
 72
     9
 73
     6
  0
VERTEX
  5
11E9
  8
0
 10
0.0
 20
0.0
 30
0.0
 70
   128
 71
     9
 72
    10
 73
    11
  0
VERTEX
  5
11EA
  8
0
 10
0.0
 20
0.0
 30
0.0
 70
   128
 71
    12
 72
     5
 73
     6
  0
VERTEX
  5
11EB
  8
0
 10
0.0
 20
0.0
 30
0.0
 70
   128
 71
    11
 72
    12
 73
     6
  0
VERTEX
  5
11EC
  8
0
 10
0.0
 20
0.0
 30
0.0
 70
   128
 71
    12
 72
     1
 73
     2
  0
VERTEX
  5
11ED
  8
0
 10
0.0
 20
0.0
 30
0.0
 70
   128
 71
     3
 72
     5
 73
    12
  0
VERTEX
  5
11EE
  8
0
 10
0.0
 20
0.0
 30
0.0
 70
   128
 71
     2
 72
     3
 73
    12
  0
VERTEX
  5
11EF
  8
0
 10
0.0
 20
0.0
 30
0.0
 70
   128
 71
     3
 72
     4
 73
     5
  0
SEQEND
  5
1C2C
  8
0
  0
POLYLINE
  5
11F0
  8
0
 66
     1
 10
0.0
 20
0.0
 30
0.0
 70
    64
 71
    12
 72
    10
  0
VERTEX
  5
11F1
  8
0
 10
-12.42489256213066
 20
-17.06254497624855
 30
271.517384676967
 70
   192
  0
VERTEX
  5
11F2
  8
0
 10
-14.40107095930516
 20
-16.59159133940446
 30
271.3776889111729
 70
   192
  0
VERTEX
  5
11F3
  8
0
 10
-15.946951734227
 20
-15.1200630459202
 30
271.270204548204
 70
   192
  0
VERTEX
  5
11F4
  8
0
 10
-16.51499843469125
 20
-13.15472794480271
 30
271.233024487409
 70
   192
  0
VERTEX
  5
11F5
  8
0
 10
-16.74503524519121
 20
-13.15997094903615
 30
271.1578140466811
 70
   192
  0
VERTEX
  5
11F6
  8
0
 10
-16.9207326290347
 20
-13.16397544781074
 30
270.969133810625
 70
   192
  0
VERTEX
  5
11F7
  8
0
 10
-16.9794222776056
 20
-13.16531310362038
 30
270.734283167375
 70
   192
  0
VERTEX
  5
11F8
  8
0
 10
-16.34656616963225
 20
-15.36540028150942
 30
270.7713809532227
 70
   192
  0
VERTEX
  5
11F9
  8
0
 10
-14.81199326702145
 20
-16.91175029520535
 30
270.8661914041726
 70
   192
  0
VERTEX
  5
11FA
  8
0
 10
-12.3780531710576
 20
-17.5616072639138
 30
271.0186433570015
 70
   192
  0
VERTEX
  5
11FB
  8
0
 10
-12.397299611654
 20
-17.49468727551484
 30
271.2678568300257
 70
   192
  0
VERTEX
  5
11FC
  8
0
 10
-12.41442563111679
 20
-17.31221371518657
 30
271.4502130340074
 70
   192
  0
VERTEX
  5
11FD
  8
0
 10
0.0
 20
0.0
 30
0.0
 70
   128
 71
     6
 72
     7
 73
     8
  0
VERTEX
  5
11FE
  8
0
 10
0.0
 20
0.0
 30
0.0
 70
   128
 71
     9
 72
    11
 73
     6
  0
VERTEX
  5
11FF
  8
0
 10
0.0
 20
0.0
 30
0.0
 70
   128
 71
     8
 72
     9
 73
     6
  0
VERTEX
  5
1200
  8
0
 10
0.0
 20
0.0
 30
0.0
 70
   128
 71
     9
 72
    10
 73
    11
  0
VERTEX
  5
1201
  8
0
 10
0.0
 20
0.0
 30
0.0
 70
   128
 71
    12
 72
     5
 73
     6
  0
VERTEX
  5
1202
  8
0
 10
0.0
 20
0.0
 30
0.0
 70
   128
 71
    11
 72
    12
 73
     6
  0
VERTEX
  5
1203
  8
0
 10
0.0
 20
0.0
 30
0.0
 70
   128
 71
    12
 72
     1
 73
     2
  0
VERTEX
  5
1204
  8
0
 10
0.0
 20
0.0
 30
0.0
 70
   128
 71
     3
 72
     5
 73
    12
  0
VERTEX
  5
1205
  8
0
 10
0.0
 20
0.0
 30
0.0
 70
   128
 71
     2
 72
     3
 73
    12
  0
VERTEX
  5
1206
  8
0
 10
0.0
 20
0.0
 30
0.0
 70
   128
 71
     3
 72
     4
 73
     5
  0
SEQEND
  5
1C2D
  8
0
  0
POLYLINE
  5
1207
  8
0
 66
     1
 10
0.0
 20
0.0
 30
0.0
 70
    64
 71
    10
 72
     8
  0
VERTEX
  5
1208
  8
0
 10
42.59842227556321
 20
17.91352653363834
 30
272.0838079552184
 70
   192
  0
VERTEX
  5
1209
  8
0
 10
22.32660760776995
 20
17.73834195822166
 30
270.6899339734001
 70
   192
  0
VERTEX
  5
120A
  8
0
 10
22.3266087953981
 20
17.73834198532887
 30
271.6407360110337
 70
   192
  0
VERTEX
  5
120B
  8
0
 10
22.32660888662515
 20
17.73834198741566
 30
272.5915380486691
 70
   192
  0
VERTEX
  5
120C
  8
0
 10
22.3266090856549
 20
17.73834199193475
 30
273.5423400863081
 70
   192
  0
VERTEX
  5
120D
  8
0
 10
42.8121276485404
 20
17.91223762138036
 30
274.9975440010331
 70
   192
  0
VERTEX
  5
120E
  8
0
 10
63.29422571002249
 20
17.50051118524972
 30
276.4515570179128
 70
   192
  0
VERTEX
  5
120F
  8
0
 10
63.50638204646692
 20
17.4932588377202
 30
272.8613217755667
 70
   192
  0
VERTEX
  5
1210
  8
0
 10
83.7562069067416
 20
16.50349831140027
 30
277.9031938714001
 70
   192
  0
VERTEX
  5
1211
  8
0
 10
83.75620662497259
 20
16.50349832904069
 30
274.2610002676001
 70
   192
  0
VERTEX
  5
1212
  8
0
 10
0.0
 20
0.0
 30
0.0
 70
   128
 71
     1
 72
     2
 73
     3
  0
VERTEX
  5
1213
  8
0
 10
0.0
 20
0.0
 30
0.0
 70
   128
 71
     4
 72
     5
 73
     6
  0
VERTEX
  5
1214
  8
0
 10
0.0
 20
0.0
 30
0.0
 70
   128
 71
     4
 72
     6
 73
     1
  0
VERTEX
  5
1215
  8
0
 10
0.0
 20
0.0
 30
0.0
 70
   128
 71
     1
 72
     3
 73
     4
  0
VERTEX
  5
1216
  8
0
 10
0.0
 20
0.0
 30
0.0
 70
   128
 71
     1
 72
     6
 73
     7
  0
VERTEX
  5
1217
  8
0
 10
0.0
 20
0.0
 30
0.0
 70
   128
 71
     1
 72
     7
 73
     8
  0
VERTEX
  5
1218
  8
0
 10
0.0
 20
0.0
 30
0.0
 70
   128
 71
     8
 72
     7
 73
     9
  0
VERTEX
  5
1219
  8
0
 10
0.0
 20
0.0
 30
0.0
 70
   128
 71
     8
 72
     9
 73
    10
  0
SEQEND
  5
1C2E
  8
0
  0
POLYLINE
  5
121A
  8
0
 66
     1
 10
0.0
 20
0.0
 30
0.0
 70
    64
 71
     9
 72
     7
  0
VERTEX
  5
121B
  8
0
 10
12.3292055685806
 20
17.51047671169529
 30
261.6509234256926
 70
   192
  0
VERTEX
  5
121C
  8
0
 10
13.28529404412287
 20
17.53227210952159
 30
265.3986989427484
 70
   192
  0
VERTEX
  5
121D
  8
0
 10
15.82259696003298
 20
17.59010239101616
 30
268.712693495381
 70
   192
  0
VERTEX
  5
121E
  8
0
 10
20.42610245349
 20
17.6950256014496
 30
270.6165042033001
 70
   192
  0
VERTEX
  5
121F
  8
0
 10
20.62037621202587
 20
17.24460914437716
 30
268.885516723908
 70
   192
  0
VERTEX
  5
1220
  8
0
 10
20.79556766242979
 20
15.88423572564331
 30
267.5291409723098
 70
   192
  0
VERTEX
  5
1221
  8
0
 10
20.8832716491428
 20
14.14504736596836
 30
267.0769588095162
 70
   192
  0
VERTEX
  5
1222
  8
0
 10
17.69393098022645
 20
14.5509350945613
 30
265.3827055272723
 70
   192
  0
VERTEX
  5
1223
  8
0
 10
15.50832841160594
 20
16.37849950861343
 30
263.053311179422
 70
   192
  0
VERTEX
  5
1224
  8
0
 10
0.0
 20
0.0
 30
0.0
 70
   128
 71
     3
 72
     4
 73
     5
  0
VERTEX
  5
1225
  8
0
 10
0.0
 20
0.0
 30
0.0
 70
   128
 71
     6
 72
     8
 73
     3
  0
VERTEX
  5
1226
  8
0
 10
0.0
 20
0.0
 30
0.0
 70
   128
 71
     5
 72
     6
 73
     3
  0
VERTEX
  5
1227
  8
0
 10
0.0
 20
0.0
 30
0.0
 70
   128
 71
     6
 72
     7
 73
     8
  0
VERTEX
  5
1228
  8
0
 10
0.0
 20
0.0
 30
0.0
 70
   128
 71
     9
 72
     2
 73
     3
  0
VERTEX
  5
1229
  8
0
 10
0.0
 20
0.0
 30
0.0
 70
   128
 71
     8
 72
     9
 73
     3
  0
VERTEX
  5
122A
  8
0
 10
0.0
 20
0.0
 30
0.0
 70
   128
 71
     9
 72
     1
 73
     2
  0
SEQEND
  5
1C2F
  8
0
  0
POLYLINE
  5
122B
  8
0
 66
     1
 10
0.0
 20
0.0
 30
0.0
 70
    64
 71
    10
 72
     8
  0
VERTEX
  5
122C
  8
0
 10
14.59224330691549
 20
16.95883365687969
 30
246.7000000000002
 70
   192
  0
VERTEX
  5
122D
  8
0
 10
12.32920545815062
 20
17.51048094058494
 30
246.7000000000002
 70
   192
  0
VERTEX
  5
122E
  8
0
 10
12.32920546766544
 20
17.51048078408094
 30
251.683641142137
 70
   192
  0
VERTEX
  5
122F
  8
0
 10
16.930574564782
 20
13.11418678020953
 30
262.6073952341001
 70
   192
  0
VERTEX
  5
1230
  8
0
 10
16.9305745647819
 20
13.11418678020918
 30
246.7000000000002
 70
   192
  0
VERTEX
  5
1231
  8
0
 10
16.29649777184691
 20
15.31678785316679
 30
262.4832645631079
 70
   192
  0
VERTEX
  5
1232
  8
0
 10
16.27639525896188
 20
15.34974140186107
 30
246.7000000000002
 70
   192
  0
VERTEX
  5
1233
  8
0
 10
14.63910703311578
 20
16.93306034919147
 30
262.1388792380662
 70
   192
  0
VERTEX
  5
1234
  8
0
 10
12.3292054976517
 20
17.51047968773305
 30
256.6672822840943
 70
   192
  0
VERTEX
  5
1235
  8
0
 10
12.3292055685806
 20
17.51047671169529
 30
261.6509234256926
 70
   192
  0
VERTEX
  5
1236
  8
0
 10
0.0
 20
0.0
 30
0.0
 70
   128
 71
     1
 72
     2
 73
     3
  0
VERTEX
  5
1237
  8
0
 10
0.0
 20
0.0
 30
0.0
 70
   128
 71
     4
 72
     5
 73
     6
  0
VERTEX
  5
1238
  8
0
 10
0.0
 20
0.0
 30
0.0
 70
   128
 71
     6
 72
     5
 73
     7
  0
VERTEX
  5
1239
  8
0
 10
0.0
 20
0.0
 30
0.0
 70
   128
 71
     6
 72
     7
 73
     8
  0
VERTEX
  5
123A
  8
0
 10
0.0
 20
0.0
 30
0.0
 70
   128
 71
     9
 72
    10
 73
     8
  0
VERTEX
  5
123B
  8
0
 10
0.0
 20
0.0
 30
0.0
 70
   128
 71
     8
 72
     7
 73
     1
  0
VERTEX
  5
123C
  8
0
 10
0.0
 20
0.0
 30
0.0
 70
   128
 71
     8
 72
     1
 73
     3
  0
VERTEX
  5
123D
  8
0
 10
0.0
 20
0.0
 30
0.0
 70
   128
 71
     8
 72
     3
 73
     9
  0
SEQEND
  5
1C30
  8
0
  0
POLYLINE
  5
123E
  8
0
 66
     1
 10
0.0
 20
0.0
 30
0.0
 70
    64
 71
     4
 72
     2
  0
VERTEX
  5
123F
  8
0
 10
-12.41223232876
 20
-16.06199671949083
 30
253.7
 70
   192
  0
VERTEX
  5
1240
  8
0
 10
13.0811469277593
 20
-15.48095103843179
 30
253.7
 70
   192
  0
VERTEX
  5
1241
  8
0
 10
13.0811469277605
 20
-15.48095103843145
 30
271.327653996093
 70
   192
  0
VERTEX
  5
1242
  8
0
 10
-12.4122323287584
 20
-16.06199671949164
 30
269.5148577875775
 70
   192
  0
VERTEX
  5
1243
  8
0
 10
0.0
 20
0.0
 30
0.0
 70
   128
 71
     1
 72
     4
 73
    -3
  0
VERTEX
  5
1244
  8
0
 10
0.0
 20
0.0
 30
0.0
 70
   128
 71
    -1
 72
     3
 73
     2
  0
SEQEND
  5
1C31
  8
0
  0
POLYLINE
  5
1245
  8
0
 66
     1
 10
0.0
 20
0.0
 30
0.0
 70
    64
 71
     8
 72
     6
  0
VERTEX
  5
1246
  8
0
 10
14.98717749237702
 20
-15.72832524836278
 30
246.7
 70
   192
  0
VERTEX
  5
1247
  8
0
 10
14.5715166755276
 20
-15.04483150121902
 30
253.7
 70
   192
  0
VERTEX
  5
1248
  8
0
 10
15.64424484554055
 20
-13.92206353318753
 30
253.7
 70
   192
  0
VERTEX
  5
1249
  8
0
 10
16.0120097013409
 20
-12.41337163401087
 30
253.7
 70
   192
  0
VERTEX
  5
124A
  8
0
 10
16.8118019917412
 20
-12.39514274990026
 30
246.7
 70
   192
  0
VERTEX
  5
124B
  8
0
 10
16.34596650772666
 20
-14.30615248885708
 30
246.7
 70
   192
  0
VERTEX
  5
124C
  8
0
 10
13.0811469277593
 20
-15.48095103843179
 30
253.7
 70
   192
  0
VERTEX
  5
124D
  8
0
 10
13.0993758118702
 20
-16.28074332883206
 30
246.7
 70
   192
  0
VERTEX
  5
124E
  8
0
 10
0.0
 20
0.0
 30
0.0
 70
   128
 71
     1
 72
     2
 73
    -3
  0
VERTEX
  5
124F
  8
0
 10
0.0
 20
0.0
 30
0.0
 70
   128
 71
     3
 72
     4
 73
    -5
  0
VERTEX
  5
1250
  8
0
 10
0.0
 20
0.0
 30
0.0
 70
   128
 71
     6
 72
    -3
 73
     5
  0
VERTEX
  5
1251
  8
0
 10
0.0
 20
0.0
 30
0.0
 70
   128
 71
    -1
 72
     3
 73
     6
  0
VERTEX
  5
1252
  8
0
 10
0.0
 20
0.0
 30
0.0
 70
   128
 71
     7
 72
     2
 73
    -1
  0
VERTEX
  5
1253
  8
0
 10
0.0
 20
0.0
 30
0.0
 70
   128
 71
     8
 72
    -7
 73
     1
  0
SEQEND
  5
1C32
  8
0
  0
POLYLINE
  5
1254
  8
0
 66
     1
 10
0.0
 20
0.0
 30
0.0
 70
    64
 71
    11
 72
     9
  0
VERTEX
  5
1255
  8
0
 10
-16.0608574142363
 20
12.36224531060916
 30
269.3015876453846
 70
   192
  0
VERTEX
  5
1256
  8
0
 10
-16.0608574142379
 20
12.36224531060915
 30
254.0443456158991
 70
   192
  0
VERTEX
  5
1257
  8
0
 10
-15.99068734458263
 20
13.0811021651165
 30
254.0039951754522
 70
   192
  0
VERTEX
  5
1258
  8
0
 10
-15.75252421486118
 20
13.75738772695861
 30
253.8857809578841
 70
   192
  0
VERTEX
  5
1259
  8
0
 10
-15.3675122236008
 20
14.34970141960478
 30
253.6999999999872
 70
   192
  0
VERTEX
  5
125A
  8
0
 10
-15.66235503281465
 20
13.9269178173181
 30
269.332444401825
 70
   192
  0
VERTEX
  5
125B
  8
0
 10
-14.73571657531565
 20
14.91982649204555
 30
253.6999999999996
 70
   192
  0
VERTEX
  5
125C
  8
0
 10
-13.9693927297246
 20
15.28975620511918
 30
253.7000000000001
 70
   192
  0
VERTEX
  5
125D
  8
0
 10
-14.6734672082286
 20
14.96136636780477
 30
269.4044018989447
 70
   192
  0
VERTEX
  5
125E
  8
0
 10
-13.12999464064984
 20
15.42982471502391
 30
253.7000000000002
 70
   192
  0
VERTEX
  5
125F
  8
0
 10
-13.12999464064768
 20
15.42982471502636
 30
269.5148577875731
 70
   192
  0
VERTEX
  5
1260
  8
0
 10
0.0
 20
0.0
 30
0.0
 70
   128
 71
     1
 72
     2
 73
     3
  0
VERTEX
  5
1261
  8
0
 10
0.0
 20
0.0
 30
0.0
 70
   128
 71
     4
 72
     5
 73
     6
  0
VERTEX
  5
1262
  8
0
 10
0.0
 20
0.0
 30
0.0
 70
   128
 71
     6
 72
     1
 73
     3
  0
VERTEX
  5
1263
  8
0
 10
0.0
 20
0.0
 30
0.0
 70
   128
 71
     4
 72
     6
 73
     3
  0
VERTEX
  5
1264
  8
0
 10
0.0
 20
0.0
 30
0.0
 70
   128
 71
     6
 72
     5
 73
     7
  0
VERTEX
  5
1265
  8
0
 10
0.0
 20
0.0
 30
0.0
 70
   128
 71
     8
 72
     9
 73
     6
  0
VERTEX
  5
1266
  8
0
 10
0.0
 20
0.0
 30
0.0
 70
   128
 71
     7
 72
     8
 73
     6
  0
VERTEX
  5
1267
  8
0
 10
0.0
 20
0.0
 30
0.0
 70
   128
 71
    10
 72
    11
 73
     9
  0
VERTEX
  5
1268
  8
0
 10
0.0
 20
0.0
 30
0.0
 70
   128
 71
     8
 72
    10
 73
     9
  0
SEQEND
  5
1C33
  8
0
  0
POLYLINE
  5
1269
  8
0
 66
     1
 10
0.0
 20
0.0
 30
0.0
 70
    64
 71
    16
 72
    14
  0
VERTEX
  5
126A
  8
0
 10
12.36338461586124
 20
16.0108703960863
 30
271.3276539960881
 70
   192
  0
VERTEX
  5
126B
  8
0
 10
13.92630363175691
 20
15.61338638591468
 30
271.4380892646783
 70
   192
  0
VERTEX
  5
126C
  8
0
 10
14.96144618835724
 20
14.62514913373511
 30
271.5100576806045
 70
   192
  0
VERTEX
  5
126D
  8
0
 10
15.4309640202819
 20
13.08000762249909
 30
271.5409241382816
 70
   192
  0
VERTEX
  5
126E
  8
0
 10
16.0120097013419
 20
-12.41337163401091
 30
271.5409241382815
 70
   192
  0
VERTEX
  5
126F
  8
0
 10
15.61350731993151
 20
-13.97804414072144
 30
271.5100673817726
 70
   192
  0
VERTEX
  5
1270
  8
0
 10
14.62461949535701
 20
-15.01249269120469
 30
271.4381098846537
 70
   192
  0
VERTEX
  5
1271
  8
0
 10
13.0811469277605
 20
-15.48095103843145
 30
271.327653996093
 70
   192
  0
VERTEX
  5
1272
  8
0
 10
-12.4122323287584
 20
-16.06199671949164
 30
269.5148577875775
 70
   192
  0
VERTEX
  5
1273
  8
0
 10
-13.97515134464328
 20
-15.66451270931578
 30
269.404422518919
 70
   192
  0
VERTEX
  5
1274
  8
0
 10
-15.01029390124577
 20
-14.67627545713126
 30
269.3324541029926
 70
   192
  0
VERTEX
  5
1275
  8
0
 10
-15.47981173317615
 20
-13.13113394591086
 30
269.3015876453845
 70
   192
  0
VERTEX
  5
1276
  8
0
 10
-16.0608574142363
 20
12.36224531060916
 30
269.3015876453846
 70
   192
  0
VERTEX
  5
1277
  8
0
 10
-15.66235503281465
 20
13.9269178173181
 30
269.332444401825
 70
   192
  0
VERTEX
  5
1278
  8
0
 10
-14.6734672082286
 20
14.96136636780477
 30
269.4044018989447
 70
   192
  0
VERTEX
  5
1279
  8
0
 10
-13.12999464064768
 20
15.42982471502636
 30
269.5148577875731
 70
   192
  0
VERTEX
  5
127A
  8
0
 10
0.0
 20
0.0
 30
0.0
 70
   128
 71
    15
 72
    16
 73
    -1
  0
VERTEX
  5
127B
  8
0
 10
0.0
 20
0.0
 30
0.0
 70
   128
 71
    14
 72
   -15
 73
    -1
  0
VERTEX
  5
127C
  8
0
 10
0.0
 20
0.0
 30
0.0
 70
   128
 71
    13
 72
   -14
 73
    -1
  0
VERTEX
  5
127D
  8
0
 10
0.0
 20
0.0
 30
0.0
 70
   128
 71
    12
 72
   -13
 73
    -1
  0
VERTEX
  5
127E
  8
0
 10
0.0
 20
0.0
 30
0.0
 70
   128
 71
    11
 72
   -12
 73
    -1
  0
VERTEX
  5
127F
  8
0
 10
0.0
 20
0.0
 30
0.0
 70
   128
 71
    10
 72
   -11
 73
    -1
  0
VERTEX
  5
1280
  8
0
 10
0.0
 20
0.0
 30
0.0
 70
   128
 71
     9
 72
   -10
 73
    -1
  0
VERTEX
  5
1281
  8
0
 10
0.0
 20
0.0
 30
0.0
 70
   128
 71
     8
 72
    -9
 73
    -1
  0
VERTEX
  5
1282
  8
0
 10
0.0
 20
0.0
 30
0.0
 70
   128
 71
     7
 72
    -8
 73
    -1
  0
VERTEX
  5
1283
  8
0
 10
0.0
 20
0.0
 30
0.0
 70
   128
 71
     6
 72
    -7
 73
    -1
  0
VERTEX
  5
1284
  8
0
 10
0.0
 20
0.0
 30
0.0
 70
   128
 71
     5
 72
    -6
 73
    -1
  0
VERTEX
  5
1285
  8
0
 10
0.0
 20
0.0
 30
0.0
 70
   128
 71
     4
 72
    -5
 73
    -1
  0
VERTEX
  5
1286
  8
0
 10
0.0
 20
0.0
 30
0.0
 70
   128
 71
     3
 72
    -4
 73
    -1
  0
VERTEX
  5
1287
  8
0
 10
0.0
 20
0.0
 30
0.0
 70
   128
 71
     2
 72
    -3
 73
     1
  0
SEQEND
  5
1C34
  8
0
  0
POLYLINE
  5
1288
  8
0
 66
     1
 10
0.0
 20
0.0
 30
0.0
 70
    64
 71
    11
 72
     9
  0
VERTEX
  5
1289
  8
0
 10
-12.4122323287584
 20
-16.06199671949164
 30
269.5148577875775
 70
   192
  0
VERTEX
  5
128A
  8
0
 10
-12.41223232876
 20
-16.06199671949083
 30
253.7
 70
   192
  0
VERTEX
  5
128B
  8
0
 10
-13.2571403500607
 20
-15.9603169528415
 30
253.6999999999995
 70
   192
  0
VERTEX
  5
128C
  8
0
 10
-15.10838555671306
 20
-14.51061540137942
 30
253.8858491672474
 70
   192
  0
VERTEX
  5
128D
  8
0
 10
-15.01029390124577
 20
-14.67627545713126
 30
269.3324541029926
 70
   192
  0
VERTEX
  5
128E
  8
0
 10
-14.03952257244885
 20
-15.62568538376795
 30
253.699999999999
 70
   192
  0
VERTEX
  5
128F
  8
0
 10
-14.6966372696418
 20
-15.08493718530529
 30
253.6999999999871
 70
   192
  0
VERTEX
  5
1290
  8
0
 10
-13.97515134464328
 20
-15.66451270931578
 30
269.404422518919
 70
   192
  0
VERTEX
  5
1291
  8
0
 10
-15.37696819712514
 20
-13.84582542961412
 30
254.0039951754524
 70
   192
  0
VERTEX
  5
1292
  8
0
 10
-15.47981173317615
 20
-13.13113394591086
 30
269.3015876453845
 70
   192
  0
VERTEX
  5
1293
  8
0
 10
-15.4798117331777
 20
-13.13113394591083
 30
254.044345615899
 70
   192
  0
VERTEX
  5
1294
  8
0
 10
0.0
 20
0.0
 30
0.0
 70
   128
 71
     1
 72
     2
 73
     3
  0
VERTEX
  5
1295
  8
0
 10
0.0
 20
0.0
 30
0.0
 70
   128
 71
     4
 72
     5
 73
     6
  0
VERTEX
  5
1296
  8
0
 10
0.0
 20
0.0
 30
0.0
 70
   128
 71
     7
 72
     4
 73
     6
  0
VERTEX
  5
1297
  8
0
 10
0.0
 20
0.0
 30
0.0
 70
   128
 71
     6
 72
     8
 73
     3
  0
VERTEX
  5
1298
  8
0
 10
0.0
 20
0.0
 30
0.0
 70
   128
 71
     8
 72
     1
 73
     3
  0
VERTEX
  5
1299
  8
0
 10
0.0
 20
0.0
 30
0.0
 70
   128
 71
     5
 72
     8
 73
     6
  0
VERTEX
  5
129A
  8
0
 10
0.0
 20
0.0
 30
0.0
 70
   128
 71
     5
 72
     4
 73
     9
  0
VERTEX
  5
129B
  8
0
 10
0.0
 20
0.0
 30
0.0
 70
   128
 71
    10
 72
     5
 73
     9
  0
VERTEX
  5
129C
  8
0
 10
0.0
 20
0.0
 30
0.0
 70
   128
 71
     9
 72
    11
 73
    10
  0
SEQEND
  5
1C35
  8
0
  0
POLYLINE
  5
129D
  8
0
 66
     1
 10
0.0
 20
0.0
 30
0.0
 70
    64
 71
     4
 72
     2
  0
VERTEX
  5
129E
  8
0
 10
12.3633846158606
 20
16.01087039608501
 30
253.7000000000002
 70
   192
  0
VERTEX
  5
129F
  8
0
 10
-13.12999464064984
 20
15.42982471502391
 30
253.7000000000002
 70
   192
  0
VERTEX
  5
12A0
  8
0
 10
-13.12999464064768
 20
15.42982471502636
 30
269.5148577875731
 70
   192
  0
VERTEX
  5
12A1
  8
0
 10
12.36338461586124
 20
16.0108703960863
 30
271.3276539960881
 70
   192
  0
VERTEX
  5
12A2
  8
0
 10
0.0
 20
0.0
 30
0.0
 70
   128
 71
     1
 72
     4
 73
    -3
  0
VERTEX
  5
12A3
  8
0
 10
0.0
 20
0.0
 30
0.0
 70
   128
 71
    -1
 72
     3
 73
     2
  0
SEQEND
  5
1C36
  8
0
  0
POLYLINE
  5
12A4
  8
0
 66
     1
 10
0.0
 20
0.0
 30
0.0
 70
    64
 71
     8
 72
     6
  0
VERTEX
  5
12A5
  8
0
 10
15.67833823021182
 20
14.98603818711633
 30
246.7000000000002
 70
   192
  0
VERTEX
  5
12A6
  8
0
 10
14.99484448306834
 20
14.57037737026639
 30
253.7000000000001
 70
   192
  0
VERTEX
  5
12A7
  8
0
 10
13.87207651503735
 20
15.64310554027929
 30
253.7000000000001
 70
   192
  0
VERTEX
  5
12A8
  8
0
 10
12.3633846158606
 20
16.01087039608501
 30
253.7000000000002
 70
   192
  0
VERTEX
  5
12A9
  8
0
 10
12.34515573174956
 20
16.81066268648534
 30
246.7000000000002
 70
   192
  0
VERTEX
  5
12AA
  8
0
 10
14.25616547070593
 20
16.34482720246596
 30
246.7000000000002
 70
   192
  0
VERTEX
  5
12AB
  8
0
 10
15.4309640202809
 20
13.08000762249842
 30
253.7000000000002
 70
   192
  0
VERTEX
  5
12AC
  8
0
 10
16.2307563106812
 20
13.09823650660934
 30
246.7000000000002
 70
   192
  0
VERTEX
  5
12AD
  8
0
 10
0.0
 20
0.0
 30
0.0
 70
   128
 71
     1
 72
     2
 73
    -3
  0
VERTEX
  5
12AE
  8
0
 10
0.0
 20
0.0
 30
0.0
 70
   128
 71
     3
 72
     4
 73
    -5
  0
VERTEX
  5
12AF
  8
0
 10
0.0
 20
0.0
 30
0.0
 70
   128
 71
     6
 72
    -3
 73
     5
  0
VERTEX
  5
12B0
  8
0
 10
0.0
 20
0.0
 30
0.0
 70
   128
 71
    -1
 72
     3
 73
     6
  0
VERTEX
  5
12B1
  8
0
 10
0.0
 20
0.0
 30
0.0
 70
   128
 71
     7
 72
     2
 73
    -1
  0
VERTEX
  5
12B2
  8
0
 10
0.0
 20
0.0
 30
0.0
 70
   128
 71
     8
 72
    -7
 73
     1
  0
SEQEND
  5
1C37
  8
0
  0
POLYLINE
  5
12B3
  8
0
 66
     1
 10
0.0
 20
0.0
 30
0.0
 70
    64
 71
     8
 72
     6
  0
VERTEX
  5
12B4
  8
0
 10
88.4335383590094
 20
-8.144337939320149
 30
274.6496783242
 70
   192
  0
VERTEX
  5
12B5
  8
0
 10
88.4335383591215
 20
-8.144337939317861
 30
278.1631931199
 70
   192
  0
VERTEX
  5
12B6
  8
0
 10
87.93967269477025
 20
-10.29327480830444
 30
278.1288991184992
 70
   192
  0
VERTEX
  5
12B7
  8
0
 10
87.95860883910878
 20
-10.26095413923522
 30
274.5999386556153
 70
   192
  0
VERTEX
  5
12B8
  8
0
 10
86.48802144412979
 20
-11.94931905300243
 30
278.0348069128554
 70
   192
  0
VERTEX
  5
12B9
  8
0
 10
86.61206687948165
 20
-11.86374444140309
 30
274.469307896728
 70
   192
  0
VERTEX
  5
12BA
  8
0
 10
84.4222782854417
 20
-12.72038342900619
 30
277.9031938714
 70
   192
  0
VERTEX
  5
12BB
  8
0
 10
84.422277992474
 20
-12.7203834608066
 30
274.2610003704
 70
   192
  0
VERTEX
  5
12BC
  8
0
 10
0.0
 20
0.0
 30
0.0
 70
   128
 71
     1
 72
     2
 73
     3
  0
VERTEX
  5
12BD
  8
0
 10
0.0
 20
0.0
 30
0.0
 70
   128
 71
     1
 72
     3
 73
     4
  0
VERTEX
  5
12BE
  8
0
 10
0.0
 20
0.0
 30
0.0
 70
   128
 71
     4
 72
     3
 73
     5
  0
VERTEX
  5
12BF
  8
0
 10
0.0
 20
0.0
 30
0.0
 70
   128
 71
     4
 72
     5
 73
     6
  0
VERTEX
  5
12C0
  8
0
 10
0.0
 20
0.0
 30
0.0
 70
   128
 71
     6
 72
     5
 73
     7
  0
VERTEX
  5
12C1
  8
0
 10
0.0
 20
0.0
 30
0.0
 70
   128
 71
     6
 72
     7
 73
     8
  0
SEQEND
  5
1C38
  8
0
  0
POLYLINE
  5
12C2
  8
0
 66
     1
 10
0.0
 20
0.0
 30
0.0
 70
    64
 71
    12
 72
    10
  0
VERTEX
  5
12C3
  8
0
 10
84.422277992474
 20
-12.7203834608066
 30
274.2610003704
 70
   192
  0
VERTEX
  5
12C4
  8
0
 10
64.23823423041891
 20
-14.63173474824497
 30
272.8613067200481
 70
   192
  0
VERTEX
  5
12C5
  8
0
 10
43.37113271610929
 20
-16.00412758666627
 30
272.0837929635865
 70
   192
  0
VERTEX
  5
12C6
  8
0
 10
23.11272766618585
 20
-16.75270057823644
 30
270.6899346834
 70
   192
  0
VERTEX
  5
12C7
  8
0
 10
23.27999842364686
 20
-16.30954494802914
 30
269.0213794287126
 70
   192
  0
VERTEX
  5
12C8
  8
0
 10
23.38891949440444
 20
-14.99229043490576
 30
267.7143142327356
 70
   192
  0
VERTEX
  5
12C9
  8
0
 10
23.39709032737705
 20
-13.31371707224033
 30
267.2775509734455
 70
   192
  0
VERTEX
  5
12CA
  8
0
 10
43.70809742816338
 20
-13.319807663307
 30
269.4355208704443
 70
   192
  0
VERTEX
  5
12CB
  8
0
 10
64.08334077589154
 20
-13.38771027082628
 30
271.600165996217
 70
   192
  0
VERTEX
  5
12CC
  8
0
 10
84.4209292383408
 20
-12.22211855039074
 30
273.763797413098
 70
   192
  0
VERTEX
  5
12CD
  8
0
 10
84.44036650030405
 20
-12.46412240669081
 30
273.8289451657261
 70
   192
  0
VERTEX
  5
12CE
  8
0
 10
84.44088227943946
 20
-12.65466752445304
 30
274.0190842447407
 70
   192
  0
VERTEX
  5
12CF
  8
0
 10
0.0
 20
0.0
 30
0.0
 70
   128
 71
     6
 72
     7
 73
     8
  0
VERTEX
  5
12D0
  8
0
 10
0.0
 20
0.0
 30
0.0
 70
   128
 71
     9
 72
    11
 73
     6
  0
VERTEX
  5
12D1
  8
0
 10
0.0
 20
0.0
 30
0.0
 70
   128
 71
     8
 72
     9
 73
     6
  0
VERTEX
  5
12D2
  8
0
 10
0.0
 20
0.0
 30
0.0
 70
   128
 71
     9
 72
    10
 73
    11
  0
VERTEX
  5
12D3
  8
0
 10
0.0
 20
0.0
 30
0.0
 70
   128
 71
    12
 72
     5
 73
     6
  0
VERTEX
  5
12D4
  8
0
 10
0.0
 20
0.0
 30
0.0
 70
   128
 71
    11
 72
    12
 73
     6
  0
VERTEX
  5
12D5
  8
0
 10
0.0
 20
0.0
 30
0.0
 70
   128
 71
    12
 72
     1
 73
     2
  0
VERTEX
  5
12D6
  8
0
 10
0.0
 20
0.0
 30
0.0
 70
   128
 71
     3
 72
     5
 73
    12
  0
VERTEX
  5
12D7
  8
0
 10
0.0
 20
0.0
 30
0.0
 70
   128
 71
     2
 72
     3
 73
    12
  0
VERTEX
  5
12D8
  8
0
 10
0.0
 20
0.0
 30
0.0
 70
   128
 71
     3
 72
     4
 73
     5
  0
SEQEND
  5
1C39
  8
0
  0
POLYLINE
  5
12D9
  8
0
 66
     1
 10
0.0
 20
0.0
 30
0.0
 70
    64
 71
    12
 72
    10
  0
VERTEX
  5
12DA
  8
0
 10
23.11272766618585
 20
-16.75270057823644
 30
270.6899346834
 70
   192
  0
VERTEX
  5
12DB
  8
0
 10
22.48022706213294
 20
-16.76711654641906
 30
270.6560371309801
 70
   192
  0
VERTEX
  5
12DC
  8
0
 10
21.84472366807736
 20
-16.78160095426477
 30
270.6504019154851
 70
   192
  0
VERTEX
  5
12DD
  8
0
 10
21.21222308099985
 20
-16.79601692206424
 30
270.6165042033
 70
   192
  0
VERTEX
  5
12DE
  8
0
 10
21.38576897041046
 20
-16.33721698622169
 30
268.8855161902193
 70
   192
  0
VERTEX
  5
12DF
  8
0
 10
21.49880045010848
 20
-14.9702745364905
 30
267.5291404292011
 70
   192
  0
VERTEX
  5
12E0
  8
0
 10
21.5071791955583
 20
-13.22889623039699
 30
267.0769588100566
 70
   192
  0
VERTEX
  5
12E1
  8
0
 10
22.13693368921499
 20
-13.24769808033906
 30
267.1438228923867
 70
   192
  0
VERTEX
  5
12E2
  8
0
 10
22.76733581462488
 20
-13.29491461783532
 30
267.2106869412765
 70
   192
  0
VERTEX
  5
12E3
  8
0
 10
23.39709032737705
 20
-13.31371707224033
 30
267.2775509734455
 70
   192
  0
VERTEX
  5
12E4
  8
0
 10
23.38891949440444
 20
-14.99229043490576
 30
267.7143142327356
 70
   192
  0
VERTEX
  5
12E5
  8
0
 10
23.27999842364686
 20
-16.30954494802914
 30
269.0213794287126
 70
   192
  0
VERTEX
  5
12E6
  8
0
 10
0.0
 20
0.0
 30
0.0
 70
   128
 71
     6
 72
     7
 73
     8
  0
VERTEX
  5
12E7
  8
0
 10
0.0
 20
0.0
 30
0.0
 70
   128
 71
     9
 72
    11
 73
     6
  0
VERTEX
  5
12E8
  8
0
 10
0.0
 20
0.0
 30
0.0
 70
   128
 71
     8
 72
     9
 73
     6
  0
VERTEX
  5
12E9
  8
0
 10
0.0
 20
0.0
 30
0.0
 70
   128
 71
     9
 72
    10
 73
    11
  0
VERTEX
  5
12EA
  8
0
 10
0.0
 20
0.0
 30
0.0
 70
   128
 71
    12
 72
     5
 73
     6
  0
VERTEX
  5
12EB
  8
0
 10
0.0
 20
0.0
 30
0.0
 70
   128
 71
    11
 72
    12
 73
     6
  0
VERTEX
  5
12EC
  8
0
 10
0.0
 20
0.0
 30
0.0
 70
   128
 71
    12
 72
     1
 73
     2
  0
VERTEX
  5
12ED
  8
0
 10
0.0
 20
0.0
 30
0.0
 70
   128
 71
     3
 72
     5
 73
    12
  0
VERTEX
  5
12EE
  8
0
 10
0.0
 20
0.0
 30
0.0
 70
   128
 71
     2
 72
     3
 73
    12
  0
VERTEX
  5
12EF
  8
0
 10
0.0
 20
0.0
 30
0.0
 70
   128
 71
     3
 72
     4
 73
     5
  0
SEQEND
  5
1C3A
  8
0
  0
POLYLINE
  5
12F0
  8
0
 66
     1
 10
0.0
 20
0.0
 30
0.0
 70
    64
 71
     4
 72
     2
  0
VERTEX
  5
12F1
  8
0
 10
17.51162024584115
 20
-12.3791924763005
 30
262.6073952341
 70
   192
  0
VERTEX
  5
12F2
  8
0
 10
16.930574564782
 20
13.11418678020953
 30
262.6073952341001
 70
   192
  0
VERTEX
  5
12F3
  8
0
 10
16.9305745647819
 20
13.11418678020918
 30
246.7000000000002
 70
   192
  0
VERTEX
  5
12F4
  8
0
 10
17.51162024584185
 20
-12.37919247630142
 30
246.7
 70
   192
  0
VERTEX
  5
12F5
  8
0
 10
0.0
 20
0.0
 30
0.0
 70
   128
 71
     1
 72
     4
 73
    -3
  0
VERTEX
  5
12F6
  8
0
 10
0.0
 20
0.0
 30
0.0
 70
   128
 71
    -1
 72
     3
 73
     2
  0
SEQEND
  5
1C3B
  8
0
  0
POLYLINE
  5
12F7
  8
0
 66
     1
 10
0.0
 20
0.0
 30
0.0
 70
    64
 71
     4
 72
     2
  0
VERTEX
  5
12F8
  8
0
 10
15.4309640202809
 20
13.08000762249842
 30
253.7000000000002
 70
   192
  0
VERTEX
  5
12F9
  8
0
 10
16.0120097013409
 20
-12.41337163401087
 30
253.7
 70
   192
  0
VERTEX
  5
12FA
  8
0
 10
16.8118019917412
 20
-12.39514274990026
 30
246.7
 70
   192
  0
VERTEX
  5
12FB
  8
0
 10
16.2307563106812
 20
13.09823650660934
 30
246.7000000000002
 70
   192
  0
VERTEX
  5
12FC
  8
0
 10
0.0
 20
0.0
 30
0.0
 70
   128
 71
     1
 72
     4
 73
    -3
  0
VERTEX
  5
12FD
  8
0
 10
0.0
 20
0.0
 30
0.0
 70
   128
 71
    -1
 72
     3
 73
     2
  0
SEQEND
  5
1C3C
  8
0
  0
POLYLINE
  5
12FE
  8
0
 66
     1
 10
0.0
 20
0.0
 30
0.0
 70
    64
 71
     4
 72
     2
  0
VERTEX
  5
12FF
  8
0
 10
88.4335383591215
 20
-8.144337939317861
 30
278.1631931199
 70
   192
  0
VERTEX
  5
1300
  8
0
 10
87.9717879975872
 20
12.11495917304893
 30
278.1631931199001
 70
   192
  0
VERTEX
  5
1301
  8
0
 10
87.9717879974759
 20
12.11495917304764
 30
274.6496783242001
 70
   192
  0
VERTEX
  5
1302
  8
0
 10
88.4335383590094
 20
-8.144337939320149
 30
274.6496783242
 70
   192
  0
VERTEX
  5
1303
  8
0
 10
0.0
 20
0.0
 30
0.0
 70
   128
 71
     1
 72
     4
 73
    -3
  0
VERTEX
  5
1304
  8
0
 10
0.0
 20
0.0
 30
0.0
 70
   128
 71
    -1
 72
     3
 73
     2
  0
SEQEND
  5
1C3D
  8
0
  0
POLYLINE
  5
1305
  8
0
 66
     1
 10
0.0
 20
0.0
 30
0.0
 70
    64
 71
    12
 72
    10
  0
VERTEX
  5
1306
  8
0
 10
22.32660760776995
 20
17.73834195822166
 30
270.6899339734001
 70
   192
  0
VERTEX
  5
1307
  8
0
 10
42.59842227556321
 20
17.91352653363834
 30
272.0838079552184
 70
   192
  0
VERTEX
  5
1308
  8
0
 10
63.50638204646692
 20
17.4932588377202
 30
272.8613217755667
 70
   192
  0
VERTEX
  5
1309
  8
0
 10
83.75620662497259
 20
16.50349832904069
 30
274.2610002676001
 70
   192
  0
VERTEX
  5
130A
  8
0
 10
83.77778557366975
 20
16.43869866549546
 30
274.0190849734707
 70
   192
  0
VERTEX
  5
130B
  8
0
 10
83.78595169352572
 20
16.24832906364977
 30
273.8289460518895
 70
   192
  0
VERTEX
  5
130C
  8
0
 10
83.7775605473202
 20
16.0056917686791
 30
273.7637974348987
 70
   192
  0
VERTEX
  5
130D
  8
0
 10
63.40798615988192
 20
16.2434885615713
 30
271.6001660326265
 70
   192
  0
VERTEX
  5
130E
  8
0
 10
43.05699426670657
 20
15.24735948069668
 30
269.4355209089284
 70
   192
  0
VERTEX
  5
130F
  8
0
 10
22.76735542589595
 20
14.31590173080921
 30
267.2775509733441
 70
   192
  0
VERTEX
  5
1310
  8
0
 10
22.68271613978457
 20
15.99235402546077
 30
267.7143201769023
 70
   192
  0
VERTEX
  5
1311
  8
0
 10
22.51389384211567
 20
17.30327025660203
 30
269.0213844265865
 70
   192
  0
VERTEX
  5
1312
  8
0
 10
0.0
 20
0.0
 30
0.0
 70
   128
 71
     6
 72
     7
 73
     8
  0
VERTEX
  5
1313
  8
0
 10
0.0
 20
0.0
 30
0.0
 70
   128
 71
     9
 72
    11
 73
     6
  0
VERTEX
  5
1314
  8
0
 10
0.0
 20
0.0
 30
0.0
 70
   128
 71
     8
 72
     9
 73
     6
  0
VERTEX
  5
1315
  8
0
 10
0.0
 20
0.0
 30
0.0
 70
   128
 71
     9
 72
    10
 73
    11
  0
VERTEX
  5
1316
  8
0
 10
0.0
 20
0.0
 30
0.0
 70
   128
 71
    12
 72
     5
 73
     6
  0
VERTEX
  5
1317
  8
0
 10
0.0
 20
0.0
 30
0.0
 70
   128
 71
    11
 72
    12
 73
     6
  0
VERTEX
  5
1318
  8
0
 10
0.0
 20
0.0
 30
0.0
 70
   128
 71
    12
 72
     1
 73
     2
  0
VERTEX
  5
1319
  8
0
 10
0.0
 20
0.0
 30
0.0
 70
   128
 71
     3
 72
     5
 73
    12
  0
VERTEX
  5
131A
  8
0
 10
0.0
 20
0.0
 30
0.0
 70
   128
 71
     2
 72
     3
 73
    12
  0
VERTEX
  5
131B
  8
0
 10
0.0
 20
0.0
 30
0.0
 70
   128
 71
     3
 72
     4
 73
     5
  0
SEQEND
  5
1C3E
  8
0
  0
POLYLINE
  5
131C
  8
0
 66
     1
 10
0.0
 20
0.0
 30
0.0
 70
    64
 71
     8
 72
     6
  0
VERTEX
  5
131D
  8
0
 10
83.75620662497259
 20
16.50349832904069
 30
274.2610002676001
 70
   192
  0
VERTEX
  5
131E
  8
0
 10
83.7562069067416
 20
16.50349831140027
 30
277.9031938714001
 70
   192
  0
VERTEX
  5
131F
  8
0
 10
85.85493495723725
 20
15.8273506566566
 30
278.0348068649589
 70
   192
  0
VERTEX
  5
1320
  8
0
 10
85.98246058152927
 20
15.74777299896589
 30
274.4693108343166
 70
   192
  0
VERTEX
  5
1321
  8
0
 10
87.38052879442745
 20
14.23916384994704
 30
278.1288990700073
 70
   192
  0
VERTEX
  5
1322
  8
0
 10
87.40096993026366
 20
14.20801101852494
 30
274.5999184697256
 70
   192
  0
VERTEX
  5
1323
  8
0
 10
87.9717879975872
 20
12.11495917304893
 30
278.1631931199001
 70
   192
  0
VERTEX
  5
1324
  8
0
 10
87.9717879974759
 20
12.11495917304764
 30
274.6496783242001
 70
   192
  0
VERTEX
  5
1325
  8
0
 10
0.0
 20
0.0
 30
0.0
 70
   128
 71
     1
 72
     2
 73
     3
  0
VERTEX
  5
1326
  8
0
 10
0.0
 20
0.0
 30
0.0
 70
   128
 71
     1
 72
     3
 73
     4
  0
VERTEX
  5
1327
  8
0
 10
0.0
 20
0.0
 30
0.0
 70
   128
 71
     4
 72
     3
 73
     5
  0
VERTEX
  5
1328
  8
0
 10
0.0
 20
0.0
 30
0.0
 70
   128
 71
     4
 72
     5
 73
     6
  0
VERTEX
  5
1329
  8
0
 10
0.0
 20
0.0
 30
0.0
 70
   128
 71
     6
 72
     5
 73
     7
  0
VERTEX
  5
132A
  8
0
 10
0.0
 20
0.0
 30
0.0
 70
   128
 71
     6
 72
     7
 73
     8
  0
SEQEND
  5
1C3F
  8
0
  0
POLYLINE
  5
132B
  8
0
 66
     1
 10
0.0
 20
0.0
 30
0.0
 70
    64
 71
    12
 72
    10
  0
VERTEX
  5
132C
  8
0
 10
20.42610245349
 20
17.6950256014496
 30
270.6165042033001
 70
   192
  0
VERTEX
  5
132D
  8
0
 10
21.05860308447009
 20
17.70944157024357
 30
270.6504016748893
 70
   192
  0
VERTEX
  5
132E
  8
0
 10
21.69410663146466
 20
17.72392598156107
 30
270.6560366556882
 70
   192
  0
VERTEX
  5
132F
  8
0
 10
22.32660760776995
 20
17.73834195822166
 30
270.6899339734001
 70
   192
  0
VERTEX
  5
1330
  8
0
 10
22.51389384211567
 20
17.30327025660203
 30
269.0213844265865
 70
   192
  0
VERTEX
  5
1331
  8
0
 10
22.68271613978457
 20
15.99235402546077
 30
267.7143201769023
 70
   192
  0
VERTEX
  5
1332
  8
0
 10
22.76735542589595
 20
14.31590173080921
 30
267.2775509733441
 70
   192
  0
VERTEX
  5
1333
  8
0
 10
22.13911163000725
 20
14.26842148095988
 30
267.2106869412335
 70
   192
  0
VERTEX
  5
1334
  8
0
 10
21.51151545033283
 20
14.19252714808259
 30
267.1438228922348
 70
   192
  0
VERTEX
  5
1335
  8
0
 10
20.8832716491428
 20
14.14504736596836
 30
267.0769588095162
 70
   192
  0
VERTEX
  5
1336
  8
0
 10
20.79556766242979
 20
15.88423572564331
 30
267.5291409723098
 70
   192
  0
VERTEX
  5
1337
  8
0
 10
20.62037621202587
 20
17.24460914437716
 30
268.885516723908
 70
   192
  0
VERTEX
  5
1338
  8
0
 10
0.0
 20
0.0
 30
0.0
 70
   128
 71
     6
 72
     7
 73
     8
  0
VERTEX
  5
1339
  8
0
 10
0.0
 20
0.0
 30
0.0
 70
   128
 71
     9
 72
    11
 73
     6
  0
VERTEX
  5
133A
  8
0
 10
0.0
 20
0.0
 30
0.0
 70
   128
 71
     8
 72
     9
 73
     6
  0
VERTEX
  5
133B
  8
0
 10
0.0
 20
0.0
 30
0.0
 70
   128
 71
     9
 72
    10
 73
    11
  0
VERTEX
  5
133C
  8
0
 10
0.0
 20
0.0
 30
0.0
 70
   128
 71
    12
 72
     5
 73
     6
  0
VERTEX
  5
133D
  8
0
 10
0.0
 20
0.0
 30
0.0
 70
   128
 71
    11
 72
    12
 73
     6
  0
VERTEX
  5
133E
  8
0
 10
0.0
 20
0.0
 30
0.0
 70
   128
 71
    12
 72
     1
 73
     2
  0
VERTEX
  5
133F
  8
0
 10
0.0
 20
0.0
 30
0.0
 70
   128
 71
     3
 72
     5
 73
    12
  0
VERTEX
  5
1340
  8
0
 10
0.0
 20
0.0
 30
0.0
 70
   128
 71
     2
 72
     3
 73
    12
  0
VERTEX
  5
1341
  8
0
 10
0.0
 20
0.0
 30
0.0
 70
   128
 71
     3
 72
     4
 73
     5
  0
SEQEND
  5
1C40
  8
0
  0
POLYLINE
  5
1342
  8
0
 66
     1
 10
0.0
 20
0.0
 30
0.0
 70
    64
 71
     8
 72
     6
  0
VERTEX
  5
1343
  8
0
 10
15.61350731993151
 20
-13.97804414072144
 30
271.5100673817726
 70
   192
  0
VERTEX
  5
1344
  8
0
 10
16.0120097013419
 20
-12.41337163401091
 30
271.5409241382815
 70
   192
  0
VERTEX
  5
1345
  8
0
 10
16.0120097013409
 20
-12.41337163401087
 30
253.7
 70
   192
  0
VERTEX
  5
1346
  8
0
 10
15.64424484554055
 20
-13.92206353318753
 30
253.7
 70
   192
  0
VERTEX
  5
1347
  8
0
 10
14.62461949535701
 20
-15.01249269120469
 30
271.4381098846537
 70
   192
  0
VERTEX
  5
1348
  8
0
 10
14.5715166755276
 20
-15.04483150121902
 30
253.7
 70
   192
  0
VERTEX
  5
1349
  8
0
 10
13.0811469277605
 20
-15.48095103843145
 30
271.327653996093
 70
   192
  0
VERTEX
  5
134A
  8
0
 10
13.0811469277593
 20
-15.48095103843179
 30
253.7
 70
   192
  0
VERTEX
  5
134B
  8
0
 10
0.0
 20
0.0
 30
0.0
 70
   128
 71
     1
 72
     2
 73
     3
  0
VERTEX
  5
134C
  8
0
 10
0.0
 20
0.0
 30
0.0
 70
   128
 71
     4
 72
     1
 73
     3
  0
VERTEX
  5
134D
  8
0
 10
0.0
 20
0.0
 30
0.0
 70
   128
 71
     5
 72
     1
 73
     4
  0
VERTEX
  5
134E
  8
0
 10
0.0
 20
0.0
 30
0.0
 70
   128
 71
     6
 72
     5
 73
     4
  0
VERTEX
  5
134F
  8
0
 10
0.0
 20
0.0
 30
0.0
 70
   128
 71
     7
 72
     5
 73
     6
  0
VERTEX
  5
1350
  8
0
 10
0.0
 20
0.0
 30
0.0
 70
   128
 71
     8
 72
     7
 73
     6
  0
SEQEND
  5
1C41
  8
0
  0
POLYLINE
  5
1351
  8
0
 66
     1
 10
0.0
 20
0.0
 30
0.0
 70
    64
 71
     4
 72
     2
  0
VERTEX
  5
1352
  8
0
 10
16.0120097013409
 20
-12.41337163401087
 30
253.7
 70
   192
  0
VERTEX
  5
1353
  8
0
 10
15.4309640202809
 20
13.08000762249842
 30
253.7000000000002
 70
   192
  0
VERTEX
  5
1354
  8
0
 10
15.4309640202819
 20
13.08000762249909
 30
271.5409241382816
 70
   192
  0
VERTEX
  5
1355
  8
0
 10
16.0120097013419
 20
-12.41337163401091
 30
271.5409241382815
 70
   192
  0
VERTEX
  5
1356
  8
0
 10
0.0
 20
0.0
 30
0.0
 70
   128
 71
     1
 72
     4
 73
    -3
  0
VERTEX
  5
1357
  8
0
 10
0.0
 20
0.0
 30
0.0
 70
   128
 71
    -1
 72
     3
 73
     2
  0
SEQEND
  5
1C42
  8
0
  0
POLYLINE
  5
1358
  8
0
 66
     1
 10
0.0
 20
0.0
 30
0.0
 70
    64
 71
     8
 72
     6
  0
VERTEX
  5
1359
  8
0
 10
13.87207651503735
 20
15.64310554027929
 30
253.7000000000001
 70
   192
  0
VERTEX
  5
135A
  8
0
 10
14.99484448306834
 20
14.57037737026639
 30
253.7000000000001
 70
   192
  0
VERTEX
  5
135B
  8
0
 10
13.92630363175691
 20
15.61338638591468
 30
271.4380892646783
 70
   192
  0
VERTEX
  5
135C
  8
0
 10
12.36338461586124
 20
16.0108703960863
 30
271.3276539960881
 70
   192
  0
VERTEX
  5
135D
  8
0
 10
12.3633846158606
 20
16.01087039608501
 30
253.7000000000002
 70
   192
  0
VERTEX
  5
135E
  8
0
 10
14.96144618835724
 20
14.62514913373511
 30
271.5100576806045
 70
   192
  0
VERTEX
  5
135F
  8
0
 10
15.4309640202819
 20
13.08000762249909
 30
271.5409241382816
 70
   192
  0
VERTEX
  5
1360
  8
0
 10
15.4309640202809
 20
13.08000762249842
 30
253.7000000000002
 70
   192
  0
VERTEX
  5
1361
  8
0
 10
0.0
 20
0.0
 30
0.0
 70
   128
 71
     1
 72
     2
 73
     3
  0
VERTEX
  5
1362
  8
0
 10
0.0
 20
0.0
 30
0.0
 70
   128
 71
     3
 72
     4
 73
     5
  0
VERTEX
  5
1363
  8
0
 10
0.0
 20
0.0
 30
0.0
 70
   128
 71
     1
 72
     3
 73
     5
  0
VERTEX
  5
1364
  8
0
 10
0.0
 20
0.0
 30
0.0
 70
   128
 71
     2
 72
     6
 73
     3
  0
VERTEX
  5
1365
  8
0
 10
0.0
 20
0.0
 30
0.0
 70
   128
 71
     7
 72
     6
 73
     2
  0
VERTEX
  5
1366
  8
0
 10
0.0
 20
0.0
 30
0.0
 70
   128
 71
     8
 72
     7
 73
     2
  0
SEQEND
  5
1C43
  8
0
  0
POLYLINE
  5
1367
  8
0
 66
     1
 10
0.0
 20
0.0
 30
0.0
 70
    64
 71
    28
 72
    26
  0
VERTEX
  5
1368
  8
0
 10
22.76735542589595
 20
14.31590173080921
 30
267.2775509733441
 70
   192
  0
VERTEX
  5
1369
  8
0
 10
22.13911163000725
 20
14.26842148095988
 30
267.2106869412335
 70
   192
  0
VERTEX
  5
136A
  8
0
 10
21.51151545033283
 20
14.19252714808259
 30
267.1438228922348
 70
   192
  0
VERTEX
  5
136B
  8
0
 10
20.8832716491428
 20
14.14504736596836
 30
267.0769588095162
 70
   192
  0
VERTEX
  5
136C
  8
0
 10
20.91803837563221
 20
13.83310094402239
 30
267.0798972752893
 70
   192
  0
VERTEX
  5
136D
  8
0
 10
20.94165542699017
 20
13.51993681663835
 30
267.0816482061541
 70
   192
  0
VERTEX
  5
136E
  8
0
 10
20.9539717707722
 20
13.20588814102973
 30
267.0821963111796
 70
   192
  0
VERTEX
  5
136F
  8
0
 10
21.14765366442456
 20
4.708095055525204
 30
267.0821963115023
 70
   192
  0
VERTEX
  5
1370
  8
0
 10
21.34133555811106
 20
-3.789698029978129
 30
267.0821963115036
 70
   192
  0
VERTEX
  5
1371
  8
0
 10
21.5350174518316
 20
-12.28749111548027
 30
267.082196311185
 70
   192
  0
VERTEX
  5
1372
  8
0
 10
21.53702207395676
 20
-12.60177481642217
 30
267.0816482061859
 70
   192
  0
VERTEX
  5
1373
  8
0
 10
21.52769742292258
 20
-12.91568975217921
 30
267.0798972754598
 70
   192
  0
VERTEX
  5
1374
  8
0
 10
21.5071791955583
 20
-13.22889623039699
 30
267.0769588100566
 70
   192
  0
VERTEX
  5
1375
  8
0
 10
22.13693368921499
 20
-13.24769808033906
 30
267.1438228923867
 70
   192
  0
VERTEX
  5
1376
  8
0
 10
22.76733581462488
 20
-13.29491461783532
 30
267.2106869412765
 70
   192
  0
VERTEX
  5
1377
  8
0
 10
23.39709032737705
 20
-13.31371707224033
 30
267.2775509734455
 70
   192
  0
VERTEX
  5
1378
  8
0
 10
43.70809742816338
 20
-13.319807663307
 30
269.4355208704443
 70
   192
  0
VERTEX
  5
1379
  8
0
 10
64.08334077589154
 20
-13.38771027082628
 30
271.600165996217
 70
   192
  0
VERTEX
  5
137A
  8
0
 10
84.4209292383408
 20
-12.22211855039074
 30
273.763797413098
 70
   192
  0
VERTEX
  5
137B
  8
0
 10
86.25107491999088
 20
-11.54401878655628
 30
273.9598939411729
 70
   192
  0
VERTEX
  5
137C
  8
0
 10
87.5612486413123
 20
-10.04257306201155
 30
274.1027306217171
 70
   192
  0
VERTEX
  5
137D
  8
0
 10
87.9864942250489
 20
-8.154526979410965
 30
274.1524782045765
 70
   192
  0
VERTEX
  5
137E
  8
0
 10
87.5247438635131
 20
12.10477013295804
 30
274.1524782045851
 70
   192
  0
VERTEX
  5
137F
  8
0
 10
87.0585955025675
 20
13.88967966440446
 30
274.1072799558671
 70
   192
  0
VERTEX
  5
1380
  8
0
 10
85.6514905424682
 20
15.40138612998733
 30
273.961437318282
 70
   192
  0
VERTEX
  5
1381
  8
0
 10
83.7775605473202
 20
16.0056917686791
 30
273.7637974348987
 70
   192
  0
VERTEX
  5
1382
  8
0
 10
63.40798615988192
 20
16.2434885615713
 30
271.6001660326265
 70
   192
  0
VERTEX
  5
1383
  8
0
 10
43.05699426670657
 20
15.24735948069668
 30
269.4355209089284
 70
   192
  0
VERTEX
  5
1384
  8
0
 10
0.0
 20
0.0
 30
0.0
 70
   128
 71
    27
 72
    26
 73
   -25
  0
VERTEX
  5
1385
  8
0
 10
0.0
 20
0.0
 30
0.0
 70
   128
 71
   -27
 72
    25
 73
   -24
  0
VERTEX
  5
1386
  8
0
 10
0.0
 20
0.0
 30
0.0
 70
   128
 71
   -27
 72
    24
 73
   -23
  0
VERTEX
  5
1387
  8
0
 10
0.0
 20
0.0
 30
0.0
 70
   128
 71
   -27
 72
    23
 73
   -22
  0
VERTEX
  5
1388
  8
0
 10
0.0
 20
0.0
 30
0.0
 70
   128
 71
   -27
 72
    22
 73
   -21
  0
VERTEX
  5
1389
  8
0
 10
0.0
 20
0.0
 30
0.0
 70
   128
 71
   -27
 72
    21
 73
   -20
  0
VERTEX
  5
138A
  8
0
 10
0.0
 20
0.0
 30
0.0
 70
   128
 71
   -27
 72
    20
 73
   -19
  0
VERTEX
  5
138B
  8
0
 10
0.0
 20
0.0
 30
0.0
 70
   128
 71
   -27
 72
    19
 73
   -18
  0
VERTEX
  5
138C
  8
0
 10
0.0
 20
0.0
 30
0.0
 70
   128
 71
    18
 72
   -17
 73
   -28
  0
VERTEX
  5
138D
  8
0
 10
0.0
 20
0.0
 30
0.0
 70
   128
 71
   -18
 72
    28
 73
   -27
  0
VERTEX
  5
138E
  8
0
 10
0.0
 20
0.0
 30
0.0
 70
   128
 71
    17
 72
   -16
 73
    -1
  0
VERTEX
  5
138F
  8
0
 10
0.0
 20
0.0
 30
0.0
 70
   128
 71
   -17
 72
     1
 73
   -28
  0
VERTEX
  5
1390
  8
0
 10
0.0
 20
0.0
 30
0.0
 70
   128
 71
     2
 72
    -1
 73
    -5
  0
VERTEX
  5
1391
  8
0
 10
0.0
 20
0.0
 30
0.0
 70
   128
 71
    -5
 72
     3
 73
    -2
  0
VERTEX
  5
1392
  8
0
 10
0.0
 20
0.0
 30
0.0
 70
   128
 71
     5
 72
     4
 73
    -3
  0
VERTEX
  5
1393
  8
0
 10
0.0
 20
0.0
 30
0.0
 70
   128
 71
    -1
 72
     6
 73
    -5
  0
VERTEX
  5
1394
  8
0
 10
0.0
 20
0.0
 30
0.0
 70
   128
 71
    -1
 72
     7
 73
    -6
  0
VERTEX
  5
1395
  8
0
 10
0.0
 20
0.0
 30
0.0
 70
   128
 71
    -1
 72
     8
 73
    -7
  0
VERTEX
  5
1396
  8
0
 10
0.0
 20
0.0
 30
0.0
 70
   128
 71
    -1
 72
     9
 73
    -8
  0
VERTEX
  5
1397
  8
0
 10
0.0
 20
0.0
 30
0.0
 70
   128
 71
    -1
 72
   -14
 73
    -9
  0
VERTEX
  5
1398
  8
0
 10
0.0
 20
0.0
 30
0.0
 70
   128
 71
   -14
 72
    10
 73
    -9
  0
VERTEX
  5
1399
  8
0
 10
0.0
 20
0.0
 30
0.0
 70
   128
 71
   -14
 72
    11
 73
   -10
  0
VERTEX
  5
139A
  8
0
 10
0.0
 20
0.0
 30
0.0
 70
   128
 71
   -14
 72
    12
 73
   -11
  0
VERTEX
  5
139B
  8
0
 10
0.0
 20
0.0
 30
0.0
 70
   128
 71
    14
 72
    13
 73
   -12
  0
VERTEX
  5
139C
  8
0
 10
0.0
 20
0.0
 30
0.0
 70
   128
 71
    -1
 72
    15
 73
   -14
  0
VERTEX
  5
139D
  8
0
 10
0.0
 20
0.0
 30
0.0
 70
   128
 71
    -1
 72
    16
 73
   -15
  0
SEQEND
  5
1C44
  8
0
  0
POLYLINE
  5
139E
  8
0
 66
     1
 10
0.0
 20
0.0
 30
0.0
 70
    64
 71
    10
 72
     8
  0
VERTEX
  5
139F
  8
0
 10
17.43516887594783
 20
13.12568750525294
 30
264.6780206426354
 70
   192
  0
VERTEX
  5
13A0
  8
0
 10
18.94880116559654
 20
13.16018624689694
 30
266.361474817257
 70
   192
  0
VERTEX
  5
13A1
  8
0
 10
19.52984684664519
 20
-12.33319300961526
 30
266.3614748172693
 70
   192
  0
VERTEX
  5
13A2
  8
0
 10
18.01621455699973
 20
-12.36769175125971
 30
264.6780206425815
 70
   192
  0
VERTEX
  5
13A3
  8
0
 10
21.34133555811106
 20
-3.789698029978129
 30
267.0821963115036
 70
   192
  0
VERTEX
  5
13A4
  8
0
 10
21.5350174518316
 20
-12.28749111548027
 30
267.082196311185
 70
   192
  0
VERTEX
  5
13A5
  8
0
 10
20.9539717707722
 20
13.20588814102973
 30
267.0821963111796
 70
   192
  0
VERTEX
  5
13A6
  8
0
 10
21.14765366442456
 20
4.708095055525204
 30
267.0821963115023
 70
   192
  0
VERTEX
  5
13A7
  8
0
 10
16.930574564782
 20
13.11418678020953
 30
262.6073952341001
 70
   192
  0
VERTEX
  5
13A8
  8
0
 10
17.51162024584115
 20
-12.3791924763005
 30
262.6073952341
 70
   192
  0
VERTEX
  5
13A9
  8
0
 10
0.0
 20
0.0
 30
0.0
 70
   128
 71
     1
 72
     2
 73
    -3
  0
VERTEX
  5
13AA
  8
0
 10
0.0
 20
0.0
 30
0.0
 70
   128
 71
     4
 72
    -1
 73
     3
  0
VERTEX
  5
13AB
  8
0
 10
0.0
 20
0.0
 30
0.0
 70
   128
 71
     5
 72
     6
 73
    -3
  0
VERTEX
  5
13AC
  8
0
 10
0.0
 20
0.0
 30
0.0
 70
   128
 71
     2
 72
     7
 73
    -8
  0
VERTEX
  5
13AD
  8
0
 10
0.0
 20
0.0
 30
0.0
 70
   128
 71
    -5
 72
     3
 73
    -2
  0
VERTEX
  5
13AE
  8
0
 10
0.0
 20
0.0
 30
0.0
 70
   128
 71
     8
 72
    -5
 73
    -2
  0
VERTEX
  5
13AF
  8
0
 10
0.0
 20
0.0
 30
0.0
 70
   128
 71
     9
 72
     1
 73
    -4
  0
VERTEX
  5
13B0
  8
0
 10
0.0
 20
0.0
 30
0.0
 70
   128
 71
    10
 72
    -9
 73
     4
  0
SEQEND
  5
1C45
  8
0
  0
POLYLINE
  5
13B1
  8
0
 66
     1
 10
0.0
 20
0.0
 30
0.0
 70
    64
 71
     8
 72
     6
  0
VERTEX
  5
13B2
  8
0
 10
87.91309625971873
 20
12.11362146962166
 30
274.4152246407369
 70
   192
  0
VERTEX
  5
13B3
  8
0
 10
88.37484662125303
 20
-8.145675642745305
 30
274.415224640735
 70
   192
  0
VERTEX
  5
13B4
  8
0
 10
88.21337197660837
 20
-8.1493559765264
 30
274.2356333956702
 70
   192
  0
VERTEX
  5
13B5
  8
0
 10
87.7516216150762
 20
12.10994113584066
 30
274.2356333956728
 70
   192
  0
VERTEX
  5
13B6
  8
0
 10
87.9717879974759
 20
12.11495917304764
 30
274.6496783242001
 70
   192
  0
VERTEX
  5
13B7
  8
0
 10
88.4335383590094
 20
-8.144337939320149
 30
274.6496783242
 70
   192
  0
VERTEX
  5
13B8
  8
0
 10
87.9864942250489
 20
-8.154526979410965
 30
274.1524782045765
 70
   192
  0
VERTEX
  5
13B9
  8
0
 10
87.5247438635131
 20
12.10477013295804
 30
274.1524782045851
 70
   192
  0
VERTEX
  5
13BA
  8
0
 10
0.0
 20
0.0
 30
0.0
 70
   128
 71
     1
 72
     2
 73
    -3
  0
VERTEX
  5
13BB
  8
0
 10
0.0
 20
0.0
 30
0.0
 70
   128
 71
    -1
 72
     3
 73
     4
  0
VERTEX
  5
13BC
  8
0
 10
0.0
 20
0.0
 30
0.0
 70
   128
 71
     5
 72
     6
 73
    -2
  0
VERTEX
  5
13BD
  8
0
 10
0.0
 20
0.0
 30
0.0
 70
   128
 71
    -5
 72
     2
 73
     1
  0
VERTEX
  5
13BE
  8
0
 10
0.0
 20
0.0
 30
0.0
 70
   128
 71
     4
 72
     3
 73
    -7
  0
VERTEX
  5
13BF
  8
0
 10
0.0
 20
0.0
 30
0.0
 70
   128
 71
    -4
 72
     7
 73
     8
  0
SEQEND
  5
1C46
  8
0
  0
POLYLINE
  5
13C0
  8
0
 66
     1
 10
0.0
 20
0.0
 30
0.0
 70
    64
 71
    12
 72
    10
  0
VERTEX
  5
13C1
  8
0
 10
83.75620662497259
 20
16.50349832904069
 30
274.2610002676001
 70
   192
  0
VERTEX
  5
13C2
  8
0
 10
85.98246058152927
 20
15.74777299896589
 30
274.4693108343166
 70
   192
  0
VERTEX
  5
13C3
  8
0
 10
87.40096993026366
 20
14.20801101852494
 30
274.5999184697256
 70
   192
  0
VERTEX
  5
13C4
  8
0
 10
87.9717879974759
 20
12.11495917304764
 30
274.6496783242001
 70
   192
  0
VERTEX
  5
13C5
  8
0
 10
87.91309625971873
 20
12.11362146962166
 30
274.4152246407369
 70
   192
  0
VERTEX
  5
13C6
  8
0
 10
87.7516216150762
 20
12.10994113584066
 30
274.2356333956728
 70
   192
  0
VERTEX
  5
13C7
  8
0
 10
87.5247438635131
 20
12.10477013295804
 30
274.1524782045851
 70
   192
  0
VERTEX
  5
13C8
  8
0
 10
87.0585955025675
 20
13.88967966440446
 30
274.1072799558671
 70
   192
  0
VERTEX
  5
13C9
  8
0
 10
85.6514905424682
 20
15.40138612998733
 30
273.961437318282
 70
   192
  0
VERTEX
  5
13CA
  8
0
 10
83.7775605473202
 20
16.0056917686791
 30
273.7637974348987
 70
   192
  0
VERTEX
  5
13CB
  8
0
 10
83.78595169352572
 20
16.24832906364977
 30
273.8289460518895
 70
   192
  0
VERTEX
  5
13CC
  8
0
 10
83.77778557366975
 20
16.43869866549546
 30
274.0190849734707
 70
   192
  0
VERTEX
  5
13CD
  8
0
 10
0.0
 20
0.0
 30
0.0
 70
   128
 71
     6
 72
     7
 73
     8
  0
VERTEX
  5
13CE
  8
0
 10
0.0
 20
0.0
 30
0.0
 70
   128
 71
     9
 72
    11
 73
     6
  0
VERTEX
  5
13CF
  8
0
 10
0.0
 20
0.0
 30
0.0
 70
   128
 71
     8
 72
     9
 73
     6
  0
VERTEX
  5
13D0
  8
0
 10
0.0
 20
0.0
 30
0.0
 70
   128
 71
     9
 72
    10
 73
    11
  0
VERTEX
  5
13D1
  8
0
 10
0.0
 20
0.0
 30
0.0
 70
   128
 71
    12
 72
     5
 73
     6
  0
VERTEX
  5
13D2
  8
0
 10
0.0
 20
0.0
 30
0.0
 70
   128
 71
    11
 72
    12
 73
     6
  0
VERTEX
  5
13D3
  8
0
 10
0.0
 20
0.0
 30
0.0
 70
   128
 71
    12
 72
     1
 73
     2
  0
VERTEX
  5
13D4
  8
0
 10
0.0
 20
0.0
 30
0.0
 70
   128
 71
     3
 72
     5
 73
    12
  0
VERTEX
  5
13D5
  8
0
 10
0.0
 20
0.0
 30
0.0
 70
   128
 71
     2
 72
     3
 73
    12
  0
VERTEX
  5
13D6
  8
0
 10
0.0
 20
0.0
 30
0.0
 70
   128
 71
     3
 72
     4
 73
     5
  0
SEQEND
  5
1C47
  8
0
  0
POLYLINE
  5
13D7
  8
0
 66
     1
 10
0.0
 20
0.0
 30
0.0
 70
    64
 71
    12
 72
    10
  0
VERTEX
  5
13D8
  8
0
 10
88.4335383590094
 20
-8.144337939320149
 30
274.6496783242
 70
   192
  0
VERTEX
  5
13D9
  8
0
 10
87.95860883910878
 20
-10.26095413923522
 30
274.5999386556153
 70
   192
  0
VERTEX
  5
13DA
  8
0
 10
86.61206687948165
 20
-11.86374444140309
 30
274.469307896728
 70
   192
  0
VERTEX
  5
13DB
  8
0
 10
84.422277992474
 20
-12.7203834608066
 30
274.2610003704
 70
   192
  0
VERTEX
  5
13DC
  8
0
 10
84.44088227943946
 20
-12.65466752445304
 30
274.0190842447407
 70
   192
  0
VERTEX
  5
13DD
  8
0
 10
84.44036650030405
 20
-12.46412240669081
 30
273.8289451657261
 70
   192
  0
VERTEX
  5
13DE
  8
0
 10
84.4209292383408
 20
-12.22211855039074
 30
273.763797413098
 70
   192
  0
VERTEX
  5
13DF
  8
0
 10
86.25107491999088
 20
-11.54401878655628
 30
273.9598939411729
 70
   192
  0
VERTEX
  5
13E0
  8
0
 10
87.5612486413123
 20
-10.04257306201155
 30
274.1027306217171
 70
   192
  0
VERTEX
  5
13E1
  8
0
 10
87.9864942250489
 20
-8.154526979410965
 30
274.1524782045765
 70
   192
  0
VERTEX
  5
13E2
  8
0
 10
88.21337197660837
 20
-8.1493559765264
 30
274.2356333956702
 70
   192
  0
VERTEX
  5
13E3
  8
0
 10
88.37484662125303
 20
-8.145675642745305
 30
274.415224640735
 70
   192
  0
VERTEX
  5
13E4
  8
0
 10
0.0
 20
0.0
 30
0.0
 70
   128
 71
     6
 72
     7
 73
     8
  0
VERTEX
  5
13E5
  8
0
 10
0.0
 20
0.0
 30
0.0
 70
   128
 71
     9
 72
    11
 73
     6
  0
VERTEX
  5
13E6
  8
0
 10
0.0
 20
0.0
 30
0.0
 70
   128
 71
     8
 72
     9
 73
     6
  0
VERTEX
  5
13E7
  8
0
 10
0.0
 20
0.0
 30
0.0
 70
   128
 71
     9
 72
    10
 73
    11
  0
VERTEX
  5
13E8
  8
0
 10
0.0
 20
0.0
 30
0.0
 70
   128
 71
    12
 72
     5
 73
     6
  0
VERTEX
  5
13E9
  8
0
 10
0.0
 20
0.0
 30
0.0
 70
   128
 71
    11
 72
    12
 73
     6
  0
VERTEX
  5
13EA
  8
0
 10
0.0
 20
0.0
 30
0.0
 70
   128
 71
    12
 72
     1
 73
     2
  0
VERTEX
  5
13EB
  8
0
 10
0.0
 20
0.0
 30
0.0
 70
   128
 71
     3
 72
     5
 73
    12
  0
VERTEX
  5
13EC
  8
0
 10
0.0
 20
0.0
 30
0.0
 70
   128
 71
     2
 72
     3
 73
    12
  0
VERTEX
  5
13ED
  8
0
 10
0.0
 20
0.0
 30
0.0
 70
   128
 71
     3
 72
     4
 73
     5
  0
SEQEND
  5
1C48
  8
0
  0
POLYLINE
  5
13EE
  8
0
 66
     1
 10
0.0
 20
0.0
 30
0.0
 70
    64
 71
    12
 72
    10
  0
VERTEX
  5
13EF
  8
0
 10
17.51162024584115
 20
-12.3791924763005
 30
262.6073952341
 70
   192
  0
VERTEX
  5
13F0
  8
0
 10
18.01621455699973
 20
-12.36769175125971
 30
264.6780206425815
 70
   192
  0
VERTEX
  5
13F1
  8
0
 10
19.52984684664519
 20
-12.33319300961526
 30
266.3614748172693
 70
   192
  0
VERTEX
  5
13F2
  8
0
 10
21.5350174518316
 20
-12.28749111548027
 30
267.082196311185
 70
   192
  0
VERTEX
  5
13F3
  8
0
 10
21.53702207395676
 20
-12.60177481642217
 30
267.0816482061859
 70
   192
  0
VERTEX
  5
13F4
  8
0
 10
21.52769742292258
 20
-12.91568975217921
 30
267.0798972754598
 70
   192
  0
VERTEX
  5
13F5
  8
0
 10
21.5071791955583
 20
-13.22889623039699
 30
267.0769588100566
 70
   192
  0
VERTEX
  5
13F6
  8
0
 10
18.23706692328012
 20
-13.82298407455607
 30
265.2653961941794
 70
   192
  0
VERTEX
  5
13F7
  8
0
 10
16.57665573097868
 20
-15.37939773131501
 30
263.2932902261899
 70
   192
  0
VERTEX
  5
13F8
  8
0
 10
13.11532600311072
 20
-16.98055735340101
 30
261.6509234256924
 70
   192
  0
VERTEX
  5
13F9
  8
0
 10
15.39981068288845
 20
-16.2964543652357
 30
262.1395821166323
 70
   192
  0
VERTEX
  5
13FA
  8
0
 10
16.97643868357045
 20
-14.61231400471428
 30
262.4827990352179
 70
   192
  0
VERTEX
  5
13FB
  8
0
 10
0.0
 20
0.0
 30
0.0
 70
   128
 71
     9
 72
    10
 73
    11
  0
VERTEX
  5
13FC
  8
0
 10
0.0
 20
0.0
 30
0.0
 70
   128
 71
    11
 72
    12
 73
     9
  0
VERTEX
  5
13FD
  8
0
 10
0.0
 20
0.0
 30
0.0
 70
   128
 71
     8
 72
     2
 73
     3
  0
VERTEX
  5
13FE
  8
0
 10
0.0
 20
0.0
 30
0.0
 70
   128
 71
     4
 72
     5
 73
     8
  0
VERTEX
  5
13FF
  8
0
 10
0.0
 20
0.0
 30
0.0
 70
   128
 71
     3
 72
     4
 73
     8
  0
VERTEX
  5
1400
  8
0
 10
0.0
 20
0.0
 30
0.0
 70
   128
 71
     5
 72
     6
 73
     8
  0
VERTEX
  5
1401
  8
0
 10
0.0
 20
0.0
 30
0.0
 70
   128
 71
     6
 72
     7
 73
     8
  0
VERTEX
  5
1402
  8
0
 10
0.0
 20
0.0
 30
0.0
 70
   128
 71
    12
 72
     1
 73
     2
  0
VERTEX
  5
1403
  8
0
 10
0.0
 20
0.0
 30
0.0
 70
   128
 71
     9
 72
    12
 73
     2
  0
VERTEX
  5
1404
  8
0
 10
0.0
 20
0.0
 30
0.0
 70
   128
 71
     8
 72
     9
 73
     2
  0
SEQEND
  5
1C49
  8
0
  0
POLYLINE
  5
1405
  8
0
 66
     1
 10
0.0
 20
0.0
 30
0.0
 70
    64
 71
    12
 72
    10
  0
VERTEX
  5
1406
  8
0
 10
20.9539717707722
 20
13.20588814102973
 30
267.0821963111796
 70
   192
  0
VERTEX
  5
1407
  8
0
 10
18.94880116559654
 20
13.16018624689694
 30
266.361474817257
 70
   192
  0
VERTEX
  5
1408
  8
0
 10
17.43516887594783
 20
13.12568750525294
 30
264.6780206426354
 70
   192
  0
VERTEX
  5
1409
  8
0
 10
16.930574564782
 20
13.11418678020953
 30
262.6073952341001
 70
   192
  0
VERTEX
  5
140A
  8
0
 10
16.29649777184691
 20
15.31678785316679
 30
262.4832645631079
 70
   192
  0
VERTEX
  5
140B
  8
0
 10
14.63910703311578
 20
16.93306034919147
 30
262.1388792380662
 70
   192
  0
VERTEX
  5
140C
  8
0
 10
12.3292055685806
 20
17.51047671169529
 30
261.6509234256926
 70
   192
  0
VERTEX
  5
140D
  8
0
 10
15.50832841160594
 20
16.37849950861343
 30
263.053311179422
 70
   192
  0
VERTEX
  5
140E
  8
0
 10
17.69393098022645
 20
14.5509350945613
 30
265.3827055272723
 70
   192
  0
VERTEX
  5
140F
  8
0
 10
20.8832716491428
 20
14.14504736596836
 30
267.0769588095162
 70
   192
  0
VERTEX
  5
1410
  8
0
 10
20.91803837563221
 20
13.83310094402239
 30
267.0798972752893
 70
   192
  0
VERTEX
  5
1411
  8
0
 10
20.94165542699017
 20
13.51993681663835
 30
267.0816482061541
 70
   192
  0
VERTEX
  5
1412
  8
0
 10
0.0
 20
0.0
 30
0.0
 70
   128
 71
     6
 72
     7
 73
     8
  0
VERTEX
  5
1413
  8
0
 10
0.0
 20
0.0
 30
0.0
 70
   128
 71
     9
 72
     4
 73
     5
  0
VERTEX
  5
1414
  8
0
 10
0.0
 20
0.0
 30
0.0
 70
   128
 71
     8
 72
     9
 73
     5
  0
VERTEX
  5
1415
  8
0
 10
0.0
 20
0.0
 30
0.0
 70
   128
 71
     5
 72
     6
 73
     8
  0
VERTEX
  5
1416
  8
0
 10
0.0
 20
0.0
 30
0.0
 70
   128
 71
    10
 72
    11
 73
     4
  0
VERTEX
  5
1417
  8
0
 10
0.0
 20
0.0
 30
0.0
 70
   128
 71
     9
 72
    10
 73
     4
  0
VERTEX
  5
1418
  8
0
 10
0.0
 20
0.0
 30
0.0
 70
   128
 71
    11
 72
    12
 73
     4
  0
VERTEX
  5
1419
  8
0
 10
0.0
 20
0.0
 30
0.0
 70
   128
 71
    12
 72
     1
 73
     2
  0
VERTEX
  5
141A
  8
0
 10
0.0
 20
0.0
 30
0.0
 70
   128
 71
     2
 72
     3
 73
    12
  0
VERTEX
  5
141B
  8
0
 10
0.0
 20
0.0
 30
0.0
 70
   128
 71
     3
 72
     4
 73
    12
  0
SEQEND
  5
1C4A
  8
0
  0
ENDBLK
  5
1C13
  8
0
  0
BLOCK
  8
0
  2
*X3
 70
     1
 10
0.0
 20
0.0
 30
0.0
  3
*X3
  1

  0
POLYLINE
  5
141D
  8
0
 66
     1
 10
0.0
 20
0.0
 30
0.0
 70
    64
 71
    16
 72
    14
  0
VERTEX
  5
141E
  8
0
 10
-12.7499999999872
 20
-0.0000000000008153
 30
253.2999999999911
 70
   192
  0
VERTEX
  5
141F
  8
0
 10
-11.77946403951914
 20
-4.879213762656024
 30
253.3000000000001
 70
   192
  0
VERTEX
  5
1420
  8
0
 10
-9.015611460128781
 20
-9.015611460129904
 30
253.3
 70
   192
  0
VERTEX
  5
1421
  8
0
 10
-4.879213762655089
 20
-11.77946403952055
 30
253.3
 70
   192
  0
VERTEX
  5
1422
  8
0
 10
0.0000000000000104
 20
-12.75000000000173
 30
253.3
 70
   192
  0
VERTEX
  5
1423
  8
0
 10
4.879213762655111
 20
-11.77946403952055
 30
253.3
 70
   192
  0
VERTEX
  5
1424
  8
0
 10
9.015611460128802
 20
-9.015611460129904
 30
253.3
 70
   192
  0
VERTEX
  5
1425
  8
0
 10
11.77946403951916
 20
-4.879213762656024
 30
253.3000000000001
 70
   192
  0
VERTEX
  5
1426
  8
0
 10
12.74999999998718
 20
-0.0000000000008951
 30
253.2999999999911
 70
   192
  0
VERTEX
  5
1427
  8
0
 10
11.77946403951912
 20
4.879213762654327
 30
253.3000000000001
 70
   192
  0
VERTEX
  5
1428
  8
0
 10
9.01561146012877
 20
9.015611460128216
 30
253.3000000000001
 70
   192
  0
VERTEX
  5
1429
  8
0
 10
4.87921376265507
 20
11.77946403951889
 30
253.3000000000002
 70
   192
  0
VERTEX
  5
142A
  8
0
 10
-0.0000000000000329
 20
12.75000000000006
 30
253.3000000000001
 70
   192
  0
VERTEX
  5
142B
  8
0
 10
-4.87921376265514
 20
11.77946403951889
 30
253.3000000000001
 70
   192
  0
VERTEX
  5
142C
  8
0
 10
-9.015611460128838
 20
9.015611460128227
 30
253.3000000000001
 70
   192
  0
VERTEX
  5
142D
  8
0
 10
-11.7794640395192
 20
4.879213762654325
 30
253.3000000000001
 70
   192
  0
VERTEX
  5
142E
  8
0
 10
0.0
 20
0.0
 30
0.0
 70
   128
 71
    15
 72
    16
 73
    -1
  0
VERTEX
  5
142F
  8
0
 10
0.0
 20
0.0
 30
0.0
 70
   128
 71
    14
 72
   -15
 73
    -1
  0
VERTEX
  5
1430
  8
0
 10
0.0
 20
0.0
 30
0.0
 70
   128
 71
    13
 72
   -14
 73
    -1
  0
VERTEX
  5
1431
  8
0
 10
0.0
 20
0.0
 30
0.0
 70
   128
 71
    12
 72
   -13
 73
    -1
  0
VERTEX
  5
1432
  8
0
 10
0.0
 20
0.0
 30
0.0
 70
   128
 71
    11
 72
   -12
 73
    -1
  0
VERTEX
  5
1433
  8
0
 10
0.0
 20
0.0
 30
0.0
 70
   128
 71
    10
 72
   -11
 73
    -1
  0
VERTEX
  5
1434
  8
0
 10
0.0
 20
0.0
 30
0.0
 70
   128
 71
     9
 72
   -10
 73
    -1
  0
VERTEX
  5
1435
  8
0
 10
0.0
 20
0.0
 30
0.0
 70
   128
 71
     8
 72
    -9
 73
    -1
  0
VERTEX
  5
1436
  8
0
 10
0.0
 20
0.0
 30
0.0
 70
   128
 71
     7
 72
    -8
 73
    -1
  0
VERTEX
  5
1437
  8
0
 10
0.0
 20
0.0
 30
0.0
 70
   128
 71
     6
 72
    -7
 73
    -1
  0
VERTEX
  5
1438
  8
0
 10
0.0
 20
0.0
 30
0.0
 70
   128
 71
     5
 72
    -6
 73
    -1
  0
VERTEX
  5
1439
  8
0
 10
0.0
 20
0.0
 30
0.0
 70
   128
 71
     4
 72
    -5
 73
    -1
  0
VERTEX
  5
143A
  8
0
 10
0.0
 20
0.0
 30
0.0
 70
   128
 71
     3
 72
    -4
 73
    -1
  0
VERTEX
  5
143B
  8
0
 10
0.0
 20
0.0
 30
0.0
 70
   128
 71
     2
 72
    -3
 73
     1
  0
SEQEND
  5
1C4D
  8
0
  0
POLYLINE
  5
143C
  8
0
 66
     1
 10
0.0
 20
0.0
 30
0.0
 70
    64
 71
    22
 72
    20
  0
VERTEX
  5
143D
  8
0
 10
9.01561146012877
 20
9.015611460128216
 30
253.3000000000001
 70
   192
  0
VERTEX
  5
143E
  8
0
 10
11.77946403951912
 20
4.879213762654327
 30
253.3000000000001
 70
   192
  0
VERTEX
  5
143F
  8
0
 10
11.17415141875433
 20
11.29527509831534
 30
244.910633240903
 70
   192
  0
VERTEX
  5
1440
  8
0
 10
15.32019350993662
 20
-0.000000000000821
 30
247.8632617902449
 70
   192
  0
VERTEX
  5
1441
  8
0
 10
15.8885146426145
 20
-0.0000000000007633
 30
244.9106332409172
 70
   192
  0
VERTEX
  5
1442
  8
0
 10
14.75008768680003
 20
5.905913230606234
 30
244.9106332409084
 70
   192
  0
VERTEX
  5
1443
  8
0
 10
-11.7794640395192
 20
4.879213762654325
 30
253.3000000000001
 70
   192
  0
VERTEX
  5
1444
  8
0
 10
-9.015611460128838
 20
9.015611460128227
 30
253.3000000000001
 70
   192
  0
VERTEX
  5
1445
  8
0
 10
-14.75008766597499
 20
5.905913230605886
 30
244.9106332409084
 70
   192
  0
VERTEX
  5
1446
  8
0
 10
0.0000005812905019
 20
15.88851464261365
 30
244.9106332409007
 70
   192
  0
VERTEX
  5
1447
  8
0
 10
-5.791373594505625
 20
14.79543464141358
 30
244.9106332409008
 70
   192
  0
VERTEX
  5
1448
  8
0
 10
-0.0000000000000329
 20
12.75000000000006
 30
253.3000000000001
 70
   192
  0
VERTEX
  5
1449
  8
0
 10
5.791374148620255
 20
14.79543464141366
 30
244.9106332409009
 70
   192
  0
VERTEX
  5
144A
  8
0
 10
4.87921376265507
 20
11.77946403951889
 30
253.3000000000002
 70
   192
  0
VERTEX
  5
144B
  8
0
 10
12.74999999998718
 20
-0.0000000000008951
 30
253.2999999999911
 70
   192
  0
VERTEX
  5
144C
  8
0
 10
14.25919242175479
 20
-0.0000000000008423
 30
250.6993572921291
 70
   192
  0
VERTEX
  5
144D
  8
0
 10
-11.17415124627659
 20
11.29527509831507
 30
244.9106332409029
 70
   192
  0
VERTEX
  5
144E
  8
0
 10
-4.87921376265514
 20
11.77946403951889
 30
253.3000000000001
 70
   192
  0
VERTEX
  5
144F
  8
0
 10
-15.8885146426145
 20
-0.0000000000009021
 30
244.9106332409172
 70
   192
  0
VERTEX
  5
1450
  8
0
 10
-15.32019350993663
 20
-0.0000000000006141
 30
247.8632617902448
 70
   192
  0
VERTEX
  5
1451
  8
0
 10
-14.2591924217548
 20
-0.0000000000005838
 30
250.699357292129
 70
   192
  0
VERTEX
  5
1452
  8
0
 10
-12.7499999999872
 20
-0.0000000000008153
 30
253.2999999999911
 70
   192
  0
VERTEX
  5
1453
  8
0
 10
0.0
 20
0.0
 30
0.0
 70
   128
 71
     1
 72
     2
 73
     3
  0
VERTEX
  5
1454
  8
0
 10
0.0
 20
0.0
 30
0.0
 70
   128
 71
     4
 72
     5
 73
     6
  0
VERTEX
  5
1455
  8
0
 10
0.0
 20
0.0
 30
0.0
 70
   128
 71
     7
 72
     8
 73
     9
  0
VERTEX
  5
1456
  8
0
 10
0.0
 20
0.0
 30
0.0
 70
   128
 71
    10
 72
    11
 73
    12
  0
VERTEX
  5
1457
  8
0
 10
0.0
 20
0.0
 30
0.0
 70
   128
 71
    13
 72
    14
 73
     1
  0
VERTEX
  5
1458
  8
0
 10
0.0
 20
0.0
 30
0.0
 70
   128
 71
     3
 72
    13
 73
     1
  0
VERTEX
  5
1459
  8
0
 10
0.0
 20
0.0
 30
0.0
 70
   128
 71
     2
 72
    15
 73
    16
  0
VERTEX
  5
145A
  8
0
 10
0.0
 20
0.0
 30
0.0
 70
   128
 71
     6
 72
     3
 73
     2
  0
VERTEX
  5
145B
  8
0
 10
0.0
 20
0.0
 30
0.0
 70
   128
 71
     4
 72
     6
 73
     2
  0
VERTEX
  5
145C
  8
0
 10
0.0
 20
0.0
 30
0.0
 70
   128
 71
    16
 72
     4
 73
     2
  0
VERTEX
  5
145D
  8
0
 10
0.0
 20
0.0
 30
0.0
 70
   128
 71
    13
 72
    10
 73
    12
  0
VERTEX
  5
145E
  8
0
 10
0.0
 20
0.0
 30
0.0
 70
   128
 71
    14
 72
    13
 73
    12
  0
VERTEX
  5
145F
  8
0
 10
0.0
 20
0.0
 30
0.0
 70
   128
 71
    17
 72
     9
 73
     8
  0
VERTEX
  5
1460
  8
0
 10
0.0
 20
0.0
 30
0.0
 70
   128
 71
    18
 72
    17
 73
     8
  0
VERTEX
  5
1461
  8
0
 10
0.0
 20
0.0
 30
0.0
 70
   128
 71
    17
 72
    18
 73
    12
  0
VERTEX
  5
1462
  8
0
 10
0.0
 20
0.0
 30
0.0
 70
   128
 71
    11
 72
    17
 73
    12
  0
VERTEX
  5
1463
  8
0
 10
0.0
 20
0.0
 30
0.0
 70
   128
 71
     9
 72
    19
 73
    20
  0
VERTEX
  5
1464
  8
0
 10
0.0
 20
0.0
 30
0.0
 70
   128
 71
    20
 72
    21
 73
     9
  0
VERTEX
  5
1465
  8
0
 10
0.0
 20
0.0
 30
0.0
 70
   128
 71
     9
 72
    21
 73
    22
  0
VERTEX
  5
1466
  8
0
 10
0.0
 20
0.0
 30
0.0
 70
   128
 71
     7
 72
     9
 73
    22
  0
SEQEND
  5
1C4E
  8
0
  0
POLYLINE
  5
1467
  8
0
 66
     1
 10
0.0
 20
0.0
 30
0.0
 70
    64
 71
    22
 72
    20
  0
VERTEX
  5
1468
  8
0
 10
-11.77946403951914
 20
-4.879213762656024
 30
253.3000000000001
 70
   192
  0
VERTEX
  5
1469
  8
0
 10
-14.75008767638736
 20
-5.905913230607509
 30
244.9106332409085
 70
   192
  0
VERTEX
  5
146A
  8
0
 10
-11.17415133251514
 20
-11.29527509831662
 30
244.9106332409031
 70
   192
  0
VERTEX
  5
146B
  8
0
 10
-9.015611460128781
 20
-9.015611460129904
 30
253.3
 70
   192
  0
VERTEX
  5
146C
  8
0
 10
-15.32019350993663
 20
-0.0000000000006141
 30
247.8632617902448
 70
   192
  0
VERTEX
  5
146D
  8
0
 10
-15.8885146426145
 20
-0.0000000000009021
 30
244.9106332409172
 70
   192
  0
VERTEX
  5
146E
  8
0
 10
0.0000000000000574
 20
-15.88851464261535
 30
244.9106332409006
 70
   192
  0
VERTEX
  5
146F
  8
0
 10
0.0000000000000104
 20
-12.75000000000173
 30
253.3
 70
   192
  0
VERTEX
  5
1470
  8
0
 10
-5.791373871562622
 20
-14.79543464141518
 30
244.9106332409009
 70
   192
  0
VERTEX
  5
1471
  8
0
 10
5.791373871562891
 20
-14.79543464141539
 30
244.9106332409007
 70
   192
  0
VERTEX
  5
1472
  8
0
 10
11.17415133251539
 20
-11.29527509831692
 30
244.9106332409028
 70
   192
  0
VERTEX
  5
1473
  8
0
 10
4.879213762655111
 20
-11.77946403952055
 30
253.3
 70
   192
  0
VERTEX
  5
1474
  8
0
 10
14.75008767638749
 20
-5.905913230607684
 30
244.9106332409083
 70
   192
  0
VERTEX
  5
1475
  8
0
 10
15.8885146426145
 20
-0.0000000000007633
 30
244.9106332409171
 70
   192
  0
VERTEX
  5
1476
  8
0
 10
15.32019350993662
 20
-0.000000000000821
 30
247.8632617902449
 70
   192
  0
VERTEX
  5
1477
  8
0
 10
14.25919242175479
 20
-0.0000000000008423
 30
250.6993572921291
 70
   192
  0
VERTEX
  5
1478
  8
0
 10
9.015611460128802
 20
-9.015611460129904
 30
253.3
 70
   192
  0
VERTEX
  5
1479
  8
0
 10
11.77946403951916
 20
-4.879213762656024
 30
253.3000000000001
 70
   192
  0
VERTEX
  5
147A
  8
0
 10
-4.879213762655089
 20
-11.77946403952055
 30
253.3
 70
   192
  0
VERTEX
  5
147B
  8
0
 10
-12.7499999999872
 20
-0.0000000000008153
 30
253.2999999999911
 70
   192
  0
VERTEX
  5
147C
  8
0
 10
-14.2591924217548
 20
-0.0000000000005838
 30
250.699357292129
 70
   192
  0
VERTEX
  5
147D
  8
0
 10
12.74999999998718
 20
-0.0000000000008951
 30
253.2999999999911
 70
   192
  0
VERTEX
  5
147E
  8
0
 10
0.0
 20
0.0
 30
0.0
 70
   128
 71
     1
 72
     2
 73
     3
  0
VERTEX
  5
147F
  8
0
 10
0.0
 20
0.0
 30
0.0
 70
   128
 71
     4
 72
     1
 73
     3
  0
VERTEX
  5
1480
  8
0
 10
0.0
 20
0.0
 30
0.0
 70
   128
 71
     5
 72
     6
 73
     2
  0
VERTEX
  5
1481
  8
0
 10
0.0
 20
0.0
 30
0.0
 70
   128
 71
     7
 72
     8
 73
     9
  0
VERTEX
  5
1482
  8
0
 10
0.0
 20
0.0
 30
0.0
 70
   128
 71
    10
 72
    11
 73
    12
  0
VERTEX
  5
1483
  8
0
 10
0.0
 20
0.0
 30
0.0
 70
   128
 71
    13
 72
    14
 73
    15
  0
VERTEX
  5
1484
  8
0
 10
0.0
 20
0.0
 30
0.0
 70
   128
 71
    15
 72
    16
 73
    13
  0
VERTEX
  5
1485
  8
0
 10
0.0
 20
0.0
 30
0.0
 70
   128
 71
    17
 72
    11
 73
    13
  0
VERTEX
  5
1486
  8
0
 10
0.0
 20
0.0
 30
0.0
 70
   128
 71
    18
 72
    17
 73
    13
  0
VERTEX
  5
1487
  8
0
 10
0.0
 20
0.0
 30
0.0
 70
   128
 71
     9
 72
    19
 73
     4
  0
VERTEX
  5
1488
  8
0
 10
0.0
 20
0.0
 30
0.0
 70
   128
 71
     3
 72
     9
 73
     4
  0
VERTEX
  5
1489
  8
0
 10
0.0
 20
0.0
 30
0.0
 70
   128
 71
     1
 72
    20
 73
    21
  0
VERTEX
  5
148A
  8
0
 10
0.0
 20
0.0
 30
0.0
 70
   128
 71
     5
 72
     2
 73
     1
  0
VERTEX
  5
148B
  8
0
 10
0.0
 20
0.0
 30
0.0
 70
   128
 71
    21
 72
     5
 73
     1
  0
VERTEX
  5
148C
  8
0
 10
0.0
 20
0.0
 30
0.0
 70
   128
 71
    19
 72
     9
 73
     8
  0
VERTEX
  5
148D
  8
0
 10
0.0
 20
0.0
 30
0.0
 70
   128
 71
    12
 72
    11
 73
    17
  0
VERTEX
  5
148E
  8
0
 10
0.0
 20
0.0
 30
0.0
 70
   128
 71
    10
 72
    12
 73
     8
  0
VERTEX
  5
148F
  8
0
 10
0.0
 20
0.0
 30
0.0
 70
   128
 71
     7
 72
    10
 73
     8
  0
VERTEX
  5
1490
  8
0
 10
0.0
 20
0.0
 30
0.0
 70
   128
 71
    13
 72
    16
 73
    22
  0
VERTEX
  5
1491
  8
0
 10
0.0
 20
0.0
 30
0.0
 70
   128
 71
    18
 72
    13
 73
    22
  0
SEQEND
  5
1C4F
  8
0
  0
ENDBLK
  5
1C4C
  8
0
  0
BLOCK
  8
0
  2
*X4
 70
     1
 10
0.0
 20
0.0
 30
0.0
  3
*X4
  1

  0
POLYLINE
  5
1493
  8
0
 66
     1
 10
0.0
 20
0.0
 30
0.0
 70
    64
 71
     4
 72
     2
  0
VERTEX
  5
1494
  8
0
 10
-8.50270633942566
 20
-3.269592467799932
 30
269.8134359866001
 70
   192
  0
VERTEX
  5
1495
  8
0
 10
-8.6394229702635
 20
2.728849710204047
 30
269.8134359866001
 70
   192
  0
VERTEX
  5
1496
  8
0
 10
-8.63942297026356
 20
2.72884971020379
 30
257.7
 70
   192
  0
VERTEX
  5
1497
  8
0
 10
-8.502706339425739
 20
-3.269592467799849
 30
257.7
 70
   192
  0
VERTEX
  5
1498
  8
0
 10
0.0
 20
0.0
 30
0.0
 70
   128
 71
     3
 72
     4
 73
    -1
  0
VERTEX
  5
1499
  8
0
 10
0.0
 20
0.0
 30
0.0
 70
   128
 71
     2
 72
    -3
 73
     1
  0
SEQEND
  5
1C52
  8
0
  0
POLYLINE
  5
149A
  8
0
 66
     1
 10
0.0
 20
0.0
 30
0.0
 70
    64
 71
     8
 72
     6
  0
VERTEX
  5
149B
  8
0
 10
-7.62319875404993
 20
4.183006916203126
 30
257.7
 70
   192
  0
VERTEX
  5
149C
  8
0
 10
-8.16189799826352
 20
3.86024012826499
 30
257.7000000000001
 70
   192
  0
VERTEX
  5
149D
  8
0
 10
-8.184570049050613
 20
3.839356287848066
 30
269.8476407394148
 70
   192
  0
VERTEX
  5
149E
  8
0
 10
-8.63942297026356
 20
2.72884971020379
 30
257.7
 70
   192
  0
VERTEX
  5
149F
  8
0
 10
-8.6394229702635
 20
2.728849710204047
 30
269.8134359866001
 70
   192
  0
VERTEX
  5
14A0
  8
0
 10
-8.524687307287238
 20
3.339323785561154
 30
269.822619218415
 70
   192
  0
VERTEX
  5
14A1
  8
0
 10
-8.52149938655758
 20
3.345671648462981
 30
257.7000000000001
 70
   192
  0
VERTEX
  5
14A2
  8
0
 10
-7.62319875405
 20
4.183006916203057
 30
269.8880161960001
 70
   192
  0
VERTEX
  5
14A3
  8
0
 10
0.0
 20
0.0
 30
0.0
 70
   128
 71
     1
 72
     2
 73
     3
  0
VERTEX
  5
14A4
  8
0
 10
0.0
 20
0.0
 30
0.0
 70
   128
 71
     4
 72
     5
 73
     6
  0
VERTEX
  5
14A5
  8
0
 10
0.0
 20
0.0
 30
0.0
 70
   128
 71
     4
 72
     6
 73
     7
  0
VERTEX
  5
14A6
  8
0
 10
0.0
 20
0.0
 30
0.0
 70
   128
 71
     7
 72
     6
 73
     3
  0
VERTEX
  5
14A7
  8
0
 10
0.0
 20
0.0
 30
0.0
 70
   128
 71
     7
 72
     3
 73
     2
  0
VERTEX
  5
14A8
  8
0
 10
0.0
 20
0.0
 30
0.0
 70
   128
 71
     3
 72
     8
 73
     1
  0
SEQEND
  5
1C53
  8
0
  0
POLYLINE
  5
14A9
  8
0
 66
     1
 10
0.0
 20
0.0
 30
0.0
 70
    64
 71
     8
 72
     6
  0
VERTEX
  5
14AA
  8
0
 10
-8.354453770677905
 20
-3.885269097478964
 30
257.7000000000002
 70
   192
  0
VERTEX
  5
14AB
  8
0
 10
-7.965861657173289
 20
-4.385005767234754
 30
257.7
 70
   192
  0
VERTEX
  5
14AC
  8
0
 10
-7.990468067992292
 20
-4.364614203815727
 30
269.8481545825633
 70
   192
  0
VERTEX
  5
14AD
  8
0
 10
-7.40568958972114
 20
-4.680376367193499
 30
257.7
 70
   192
  0
VERTEX
  5
14AE
  8
0
 10
-7.40568958972117
 20
-4.680376367193532
 30
269.8891174312001
 70
   192
  0
VERTEX
  5
14AF
  8
0
 10
-8.50270633942566
 20
-3.269592467799932
 30
269.8134359866001
 70
   192
  0
VERTEX
  5
14B0
  8
0
 10
-8.502706339425739
 20
-3.269592467799849
 30
257.7
 70
   192
  0
VERTEX
  5
14B1
  8
0
 10
-8.357460059862857
 20
-3.879073397569076
 30
269.8227714176371
 70
   192
  0
VERTEX
  5
14B2
  8
0
 10
0.0
 20
0.0
 30
0.0
 70
   128
 71
     1
 72
     2
 73
     3
  0
VERTEX
  5
14B3
  8
0
 10
0.0
 20
0.0
 30
0.0
 70
   128
 71
     2
 72
     4
 73
     5
  0
VERTEX
  5
14B4
  8
0
 10
0.0
 20
0.0
 30
0.0
 70
   128
 71
     6
 72
     7
 73
     1
  0
VERTEX
  5
14B5
  8
0
 10
0.0
 20
0.0
 30
0.0
 70
   128
 71
     6
 72
     1
 73
     8
  0
VERTEX
  5
14B6
  8
0
 10
0.0
 20
0.0
 30
0.0
 70
   128
 71
     8
 72
     1
 73
     3
  0
VERTEX
  5
14B7
  8
0
 10
0.0
 20
0.0
 30
0.0
 70
   128
 71
     3
 72
     2
 73
     5
  0
SEQEND
  5
1C54
  8
0
  0
POLYLINE
  5
14B8
  8
0
 66
     1
 10
0.0
 20
0.0
 30
0.0
 70
    64
 71
     8
 72
     6
  0
VERTEX
  5
14B9
  8
0
 10
-8.435382658735692
 20
-3.268058024934987
 30
257.4501575836769
 70
   192
  0
VERTEX
  5
14BA
  8
0
 10
-8.572099289573403
 20
2.730384153068048
 30
257.450157583677
 70
   192
  0
VERTEX
  5
14BB
  8
0
 10
-8.389330336750824
 20
2.734549827206441
 30
257.267341164948
 70
   192
  0
VERTEX
  5
14BC
  8
0
 10
-8.25261370591298
 20
-3.263892350796572
 30
257.2673411649479
 70
   192
  0
VERTEX
  5
14BD
  8
0
 10
-8.502706339425739
 20
-3.269592467799849
 30
257.7
 70
   192
  0
VERTEX
  5
14BE
  8
0
 10
-8.63942297026356
 20
2.72884971020379
 30
257.7
 70
   192
  0
VERTEX
  5
14BF
  8
0
 10
-8.1395527887632
 20
2.740242762773234
 30
257.2
 70
   192
  0
VERTEX
  5
14C0
  8
0
 10
-8.00283615792532
 20
-3.258199415229902
 30
257.2
 70
   192
  0
VERTEX
  5
14C1
  8
0
 10
0.0
 20
0.0
 30
0.0
 70
   128
 71
     1
 72
     2
 73
    -3
  0
VERTEX
  5
14C2
  8
0
 10
0.0
 20
0.0
 30
0.0
 70
   128
 71
    -1
 72
     3
 73
     4
  0
VERTEX
  5
14C3
  8
0
 10
0.0
 20
0.0
 30
0.0
 70
   128
 71
     5
 72
     6
 73
    -2
  0
VERTEX
  5
14C4
  8
0
 10
0.0
 20
0.0
 30
0.0
 70
   128
 71
    -5
 72
     2
 73
     1
  0
VERTEX
  5
14C5
  8
0
 10
0.0
 20
0.0
 30
0.0
 70
   128
 71
     4
 72
     3
 73
    -7
  0
VERTEX
  5
14C6
  8
0
 10
0.0
 20
0.0
 30
0.0
 70
   128
 71
    -4
 72
     7
 73
     8
  0
SEQEND
  5
1C55
  8
0
  0
POLYLINE
  5
14C7
  8
0
 66
     1
 10
0.0
 20
0.0
 30
0.0
 70
    64
 71
     8
 72
     6
  0
VERTEX
  5
14C8
  8
0
 10
-7.181794400790235
 20
4.422236660506472
 30
257.7000000000001
 70
   192
  0
VERTEX
  5
14C9
  8
0
 10
-7.139652119070734
 20
4.456546482761883
 30
269.922432471416
 70
   192
  0
VERTEX
  5
14CA
  8
0
 10
-6.843966192210861
 20
4.793542007676727
 30
257.7
 70
   192
  0
VERTEX
  5
14CB
  8
0
 10
-6.815294241825208
 20
4.839851744039571
 30
269.9461291538826
 70
   192
  0
VERTEX
  5
14CC
  8
0
 10
-6.64738380144599
 20
5.25552040249341
 30
257.7
 70
   192
  0
VERTEX
  5
14CD
  8
0
 10
-6.647383801446
 20
5.255520402493056
 30
269.9591062434001
 70
   192
  0
VERTEX
  5
14CE
  8
0
 10
-7.62319875405
 20
4.183006916203057
 30
269.8880161960001
 70
   192
  0
VERTEX
  5
14CF
  8
0
 10
-7.62319875404993
 20
4.183006916203126
 30
257.7
 70
   192
  0
VERTEX
  5
14D0
  8
0
 10
0.0
 20
0.0
 30
0.0
 70
   128
 71
     1
 72
     2
 73
     3
  0
VERTEX
  5
14D1
  8
0
 10
0.0
 20
0.0
 30
0.0
 70
   128
 71
     3
 72
     4
 73
     5
  0
VERTEX
  5
14D2
  8
0
 10
0.0
 20
0.0
 30
0.0
 70
   128
 71
     4
 72
     6
 73
     5
  0
VERTEX
  5
14D3
  8
0
 10
0.0
 20
0.0
 30
0.0
 70
   128
 71
     2
 72
     4
 73
     3
  0
VERTEX
  5
14D4
  8
0
 10
0.0
 20
0.0
 30
0.0
 70
   128
 71
     7
 72
     2
 73
     1
  0
VERTEX
  5
14D5
  8
0
 10
0.0
 20
0.0
 30
0.0
 70
   128
 71
     8
 72
     7
 73
     1
  0
SEQEND
  5
1C56
  8
0
  0
POLYLINE
  5
14D6
  8
0
 66
     1
 10
0.0
 20
0.0
 30
0.0
 70
    64
 71
    12
 72
    10
  0
VERTEX
  5
14D7
  8
0
 10
-7.542583583471886
 20
3.946194731246589
 30
257.2673411649479
 70
   192
  0
VERTEX
  5
14D8
  8
0
 10
-8.389330336750824
 20
2.734549827206441
 30
257.267341164948
 70
   192
  0
VERTEX
  5
14D9
  8
0
 10
-8.572099289573403
 20
2.730384153068048
 30
257.450157583677
 70
   192
  0
VERTEX
  5
14DA
  8
0
 10
-7.601497555071928
 20
4.119258265554777
 30
257.4501575836769
 70
   192
  0
VERTEX
  5
14DB
  8
0
 10
-8.060937066292688
 20
3.151457388279741
 30
257.2000000000001
 70
   192
  0
VERTEX
  5
14DC
  8
0
 10
-8.1395527887632
 20
2.740242762773234
 30
257.2
 70
   192
  0
VERTEX
  5
14DD
  8
0
 10
-7.821202807429915
 20
3.494503041481118
 30
257.2000000000001
 70
   192
  0
VERTEX
  5
14DE
  8
0
 10
-7.4620699779541
 20
3.709680900106389
 30
257.2
 70
   192
  0
VERTEX
  5
14DF
  8
0
 10
-8.16189799826352
 20
3.86024012826499
 30
257.7000000000001
 70
   192
  0
VERTEX
  5
14E0
  8
0
 10
-7.62319875404993
 20
4.183006916203126
 30
257.7
 70
   192
  0
VERTEX
  5
14E1
  8
0
 10
-8.52149938655758
 20
3.345671648462981
 30
257.7000000000001
 70
   192
  0
VERTEX
  5
14E2
  8
0
 10
-8.63942297026356
 20
2.72884971020379
 30
257.7
 70
   192
  0
VERTEX
  5
14E3
  8
0
 10
0.0
 20
0.0
 30
0.0
 70
   128
 71
     1
 72
     2
 73
    -3
  0
VERTEX
  5
14E4
  8
0
 10
0.0
 20
0.0
 30
0.0
 70
   128
 71
    -1
 72
     3
 73
     4
  0
VERTEX
  5
14E5
  8
0
 10
0.0
 20
0.0
 30
0.0
 70
   128
 71
     5
 72
     6
 73
     2
  0
VERTEX
  5
14E6
  8
0
 10
0.0
 20
0.0
 30
0.0
 70
   128
 71
     2
 72
     7
 73
     5
  0
VERTEX
  5
14E7
  8
0
 10
0.0
 20
0.0
 30
0.0
 70
   128
 71
     8
 72
     7
 73
     2
  0
VERTEX
  5
14E8
  8
0
 10
0.0
 20
0.0
 30
0.0
 70
   128
 71
     8
 72
     2
 73
     1
  0
VERTEX
  5
14E9
  8
0
 10
0.0
 20
0.0
 30
0.0
 70
   128
 71
     9
 72
    10
 73
     4
  0
VERTEX
  5
14EA
  8
0
 10
0.0
 20
0.0
 30
0.0
 70
   128
 71
     4
 72
     3
 73
   -11
  0
VERTEX
  5
14EB
  8
0
 10
0.0
 20
0.0
 30
0.0
 70
   128
 71
    -4
 72
    11
 73
     9
  0
VERTEX
  5
14EC
  8
0
 10
0.0
 20
0.0
 30
0.0
 70
   128
 71
     3
 72
    12
 73
    11
  0
SEQEND
  5
1C57
  8
0
  0
POLYLINE
  5
14ED
  8
0
 66
     1
 10
0.0
 20
0.0
 30
0.0
 70
    64
 71
     8
 72
     6
  0
VERTEX
  5
14EE
  8
0
 10
-7.40568958972117
 20
-4.680376367193532
 30
269.8891174312001
 70
   192
  0
VERTEX
  5
14EF
  8
0
 10
-7.40568958972114
 20
-4.680376367193499
 30
257.7
 70
   192
  0
VERTEX
  5
14F0
  8
0
 10
-6.962670520323877
 20
-4.886628549763841
 30
257.7
 70
   192
  0
VERTEX
  5
14F1
  8
0
 10
-6.609385245451898
 20
-5.224168519906253
 30
257.7000000000001
 70
   192
  0
VERTEX
  5
14F2
  8
0
 10
-6.918644765073956
 20
-4.917900956558582
 30
269.9229819176452
 70
   192
  0
VERTEX
  5
14F3
  8
0
 10
-6.38316312158111
 20
-5.65733062505408
 30
257.7
 70
   192
  0
VERTEX
  5
14F4
  8
0
 10
-6.577549775978998
 20
-5.267936756486875
 30
269.9466786001119
 70
   192
  0
VERTEX
  5
14F5
  8
0
 10
-6.38316312158115
 20
-5.657330625053993
 30
269.9602074786001
 70
   192
  0
VERTEX
  5
14F6
  8
0
 10
0.0
 20
0.0
 30
0.0
 70
   128
 71
     1
 72
     2
 73
     3
  0
VERTEX
  5
14F7
  8
0
 10
0.0
 20
0.0
 30
0.0
 70
   128
 71
     4
 72
     5
 73
     1
  0
VERTEX
  5
14F8
  8
0
 10
0.0
 20
0.0
 30
0.0
 70
   128
 71
     3
 72
     4
 73
     1
  0
VERTEX
  5
14F9
  8
0
 10
0.0
 20
0.0
 30
0.0
 70
   128
 71
     6
 72
     7
 73
     5
  0
VERTEX
  5
14FA
  8
0
 10
0.0
 20
0.0
 30
0.0
 70
   128
 71
     4
 72
     6
 73
     5
  0
VERTEX
  5
14FB
  8
0
 10
0.0
 20
0.0
 30
0.0
 70
   128
 71
     6
 72
     8
 73
     7
  0
SEQEND
  5
1C58
  8
0
  0
POLYLINE
  5
14FC
  8
0
 66
     1
 10
0.0
 20
0.0
 30
0.0
 70
    64
 71
    12
 72
    10
  0
VERTEX
  5
14FD
  8
0
 10
-8.25261370591298
 20
-3.263892350796572
 30
257.2673411649479
 70
   192
  0
VERTEX
  5
14FE
  8
0
 10
-7.338548329114388
 20
-4.439397389282103
 30
257.2673411649479
 70
   192
  0
VERTEX
  5
14FF
  8
0
 10
-7.387615499625867
 20
-4.615506036812294
 30
257.450157583677
 70
   192
  0
VERTEX
  5
1500
  8
0
 10
-8.435382658735692
 20
-3.268058024934987
 30
257.4501575836769
 70
   192
  0
VERTEX
  5
1501
  8
0
 10
-7.6449397030906
 20
-4.001808281520067
 30
257.2
 70
   192
  0
VERTEX
  5
1502
  8
0
 10
-7.2714916581222
 20
-4.198722014825938
 30
257.2
 70
   192
  0
VERTEX
  5
1503
  8
0
 10
-7.904001112093688
 20
-3.668650501682751
 30
257.2
 70
   192
  0
VERTEX
  5
1504
  8
0
 10
-8.00283615792532
 20
-3.258199415229902
 30
257.2
 70
   192
  0
VERTEX
  5
1505
  8
0
 10
-8.354453770677905
 20
-3.885269097478964
 30
257.7000000000002
 70
   192
  0
VERTEX
  5
1506
  8
0
 10
-8.502706339425739
 20
-3.269592467799849
 30
257.7
 70
   192
  0
VERTEX
  5
1507
  8
0
 10
-7.965861657173289
 20
-4.385005767234754
 30
257.7
 70
   192
  0
VERTEX
  5
1508
  8
0
 10
-7.40568958972114
 20
-4.680376367193499
 30
257.7
 70
   192
  0
VERTEX
  5
1509
  8
0
 10
0.0
 20
0.0
 30
0.0
 70
   128
 71
     1
 72
     2
 73
    -3
  0
VERTEX
  5
150A
  8
0
 10
0.0
 20
0.0
 30
0.0
 70
   128
 71
    -1
 72
     3
 73
     4
  0
VERTEX
  5
150B
  8
0
 10
0.0
 20
0.0
 30
0.0
 70
   128
 71
     5
 72
     6
 73
     2
  0
VERTEX
  5
150C
  8
0
 10
0.0
 20
0.0
 30
0.0
 70
   128
 71
     2
 72
     7
 73
     5
  0
VERTEX
  5
150D
  8
0
 10
0.0
 20
0.0
 30
0.0
 70
   128
 71
     8
 72
     7
 73
     2
  0
VERTEX
  5
150E
  8
0
 10
0.0
 20
0.0
 30
0.0
 70
   128
 71
     8
 72
     2
 73
     1
  0
VERTEX
  5
150F
  8
0
 10
0.0
 20
0.0
 30
0.0
 70
   128
 71
     9
 72
    10
 73
     4
  0
VERTEX
  5
1510
  8
0
 10
0.0
 20
0.0
 30
0.0
 70
   128
 71
     4
 72
     3
 73
   -11
  0
VERTEX
  5
1511
  8
0
 10
0.0
 20
0.0
 30
0.0
 70
   128
 71
    -4
 72
    11
 73
     9
  0
VERTEX
  5
1512
  8
0
 10
0.0
 20
0.0
 30
0.0
 70
   128
 71
     3
 72
    12
 73
    11
  0
SEQEND
  5
1C59
  8
0
  0
POLYLINE
  5
1513
  8
0
 66
     1
 10
0.0
 20
0.0
 30
0.0
 70
    64
 71
    30
 72
    28
  0
VERTEX
  5
1514
  8
0
 10
-4.195258612746409
 20
-6.172196134322839
 30
257.2
 70
   192
  0
VERTEX
  5
1515
  8
0
 10
-4.605476101525938
 20
-5.86053279357928
 30
257.2000000000001
 70
   192
  0
VERTEX
  5
1516
  8
0
 10
-4.956663157625317
 20
-5.483526729681993
 30
257.2
 70
   192
  0
VERTEX
  5
1517
  8
0
 10
-5.23849083361652
 20
-5.052266266492929
 30
257.2
 70
   192
  0
VERTEX
  5
1518
  8
0
 10
-6.351738051926019
 20
-1.860419665705826
 30
257.2000000000001
 70
   192
  0
VERTEX
  5
1519
  8
0
 10
-6.428764441488697
 20
1.519113176359792
 30
257.2000000000001
 70
   192
  0
VERTEX
  5
151A
  8
0
 10
-5.46209497155822
 20
4.758365285710452
 30
257.2
 70
   192
  0
VERTEX
  5
151B
  8
0
 10
-5.200208338878606
 20
5.202018097814823
 30
257.2000000000001
 70
   192
  0
VERTEX
  5
151C
  8
0
 10
-4.866562498842675
 20
5.594632888689438
 30
257.2
 70
   192
  0
VERTEX
  5
151D
  8
0
 10
-4.470970484936466
 20
5.924662257984232
 30
257.2
 70
   192
  0
VERTEX
  5
151E
  8
0
 10
-5.210968625694011
 20
5.907796203494343
 30
257.2
 70
   192
  0
VERTEX
  5
151F
  8
0
 10
-5.632769988732843
 20
5.803367717992935
 30
257.2000000000001
 70
   192
  0
VERTEX
  5
1520
  8
0
 10
-5.970538243121968
 20
5.530278387673155
 30
257.2000000000001
 70
   192
  0
VERTEX
  5
1521
  8
0
 10
-6.160983374482161
 20
5.13969888182721
 30
257.2
 70
   192
  0
VERTEX
  5
1522
  8
0
 10
-6.423093228835217
 20
4.523727688738333
 30
257.2000000000001
 70
   192
  0
VERTEX
  5
1523
  8
0
 10
-6.873530840274451
 20
4.028653892511077
 30
257.2000000000001
 70
   192
  0
VERTEX
  5
1524
  8
0
 10
-7.4620699779541
 20
3.709680900106389
 30
257.2
 70
   192
  0
VERTEX
  5
1525
  8
0
 10
-7.821202807429915
 20
3.494503041481118
 30
257.2000000000001
 70
   192
  0
VERTEX
  5
1526
  8
0
 10
-8.060937066292688
 20
3.151457388279741
 30
257.2000000000001
 70
   192
  0
VERTEX
  5
1527
  8
0
 10
-8.1395527887632
 20
2.740242762773234
 30
257.2
 70
   192
  0
VERTEX
  5
1528
  8
0
 10
-8.00283615792532
 20
-3.258199415229902
 30
257.2
 70
   192
  0
VERTEX
  5
1529
  8
0
 10
-7.904001112093688
 20
-3.668650501682751
 30
257.2
 70
   192
  0
VERTEX
  5
152A
  8
0
 10
-7.6449397030906
 20
-4.001808281520067
 30
257.2
 70
   192
  0
VERTEX
  5
152B
  8
0
 10
-7.2714916581222
 20
-4.198722014825938
 30
257.2
 70
   192
  0
VERTEX
  5
152C
  8
0
 10
-6.68079956559241
 20
-4.47372492491988
 30
257.2000000000001
 70
   192
  0
VERTEX
  5
152D
  8
0
 10
-6.209752532429833
 20
-4.923778218443095
 30
257.2000000000001
 70
   192
  0
VERTEX
  5
152E
  8
0
 10
-5.90812303393566
 20
-5.501327691973827
 30
257.2
 70
   192
  0
VERTEX
  5
152F
  8
0
 10
-5.694399344334527
 20
-5.865416479439709
 30
257.2000000000001
 70
   192
  0
VERTEX
  5
1530
  8
0
 10
-5.34978458419366
 20
-6.109030081263826
 30
257.2000000000001
 70
   192
  0
VERTEX
  5
1531
  8
0
 10
-4.9352567535047
 20
-6.189062188813097
 30
257.2
 70
   192
  0
VERTEX
  5
1532
  8
0
 10
0.0
 20
0.0
 30
0.0
 70
   128
 71
     8
 72
    -7
 73
   -14
  0
VERTEX
  5
1533
  8
0
 10
0.0
 20
0.0
 30
0.0
 70
   128
 71
    -8
 72
    14
 73
   -13
  0
VERTEX
  5
1534
  8
0
 10
0.0
 20
0.0
 30
0.0
 70
   128
 71
    -8
 72
    13
 73
   -12
  0
VERTEX
  5
1535
  8
0
 10
0.0
 20
0.0
 30
0.0
 70
   128
 71
    12
 72
   -11
 73
    -9
  0
VERTEX
  5
1536
  8
0
 10
0.0
 20
0.0
 30
0.0
 70
   128
 71
   -12
 72
     9
 73
    -8
  0
VERTEX
  5
1537
  8
0
 10
0.0
 20
0.0
 30
0.0
 70
   128
 71
    11
 72
    10
 73
    -9
  0
VERTEX
  5
1538
  8
0
 10
0.0
 20
0.0
 30
0.0
 70
   128
 71
    -7
 72
    15
 73
   -14
  0
VERTEX
  5
1539
  8
0
 10
0.0
 20
0.0
 30
0.0
 70
   128
 71
    -7
 72
    16
 73
   -15
  0
VERTEX
  5
153A
  8
0
 10
0.0
 20
0.0
 30
0.0
 70
   128
 71
    -7
 72
    17
 73
   -16
  0
VERTEX
  5
153B
  8
0
 10
0.0
 20
0.0
 30
0.0
 70
   128
 71
     6
 72
    -5
 73
   -24
  0
VERTEX
  5
153C
  8
0
 10
0.0
 20
0.0
 30
0.0
 70
   128
 71
    -6
 72
    24
 73
   -23
  0
VERTEX
  5
153D
  8
0
 10
0.0
 20
0.0
 30
0.0
 70
   128
 71
    -6
 72
    23
 73
   -22
  0
VERTEX
  5
153E
  8
0
 10
0.0
 20
0.0
 30
0.0
 70
   128
 71
    -6
 72
    22
 73
   -21
  0
VERTEX
  5
153F
  8
0
 10
0.0
 20
0.0
 30
0.0
 70
   128
 71
    -6
 72
    21
 73
   -20
  0
VERTEX
  5
1540
  8
0
 10
0.0
 20
0.0
 30
0.0
 70
   128
 71
   -17
 72
     7
 73
    -6
  0
VERTEX
  5
1541
  8
0
 10
0.0
 20
0.0
 30
0.0
 70
   128
 71
    -6
 72
    20
 73
   -19
  0
VERTEX
  5
1542
  8
0
 10
0.0
 20
0.0
 30
0.0
 70
   128
 71
    -6
 72
    19
 73
   -18
  0
VERTEX
  5
1543
  8
0
 10
0.0
 20
0.0
 30
0.0
 70
   128
 71
    -6
 72
    18
 73
   -17
  0
VERTEX
  5
1544
  8
0
 10
0.0
 20
0.0
 30
0.0
 70
   128
 71
    -5
 72
    25
 73
   -24
  0
VERTEX
  5
1545
  8
0
 10
0.0
 20
0.0
 30
0.0
 70
   128
 71
     5
 72
    -4
 73
   -25
  0
VERTEX
  5
1546
  8
0
 10
0.0
 20
0.0
 30
0.0
 70
   128
 71
    -4
 72
    26
 73
   -25
  0
VERTEX
  5
1547
  8
0
 10
0.0
 20
0.0
 30
0.0
 70
   128
 71
    -4
 72
    27
 73
   -26
  0
VERTEX
  5
1548
  8
0
 10
0.0
 20
0.0
 30
0.0
 70
   128
 71
     2
 72
     1
 73
   -30
  0
VERTEX
  5
1549
  8
0
 10
0.0
 20
0.0
 30
0.0
 70
   128
 71
    30
 72
   -29
 73
    -3
  0
VERTEX
  5
154A
  8
0
 10
0.0
 20
0.0
 30
0.0
 70
   128
 71
   -30
 72
     3
 73
    -2
  0
VERTEX
  5
154B
  8
0
 10
0.0
 20
0.0
 30
0.0
 70
   128
 71
    29
 72
    28
 73
   -27
  0
VERTEX
  5
154C
  8
0
 10
0.0
 20
0.0
 30
0.0
 70
   128
 71
   -29
 72
   -27
 73
    -4
  0
VERTEX
  5
154D
  8
0
 10
0.0
 20
0.0
 30
0.0
 70
   128
 71
   -29
 72
     4
 73
    -3
  0
SEQEND
  5
1C5A
  8
0
  0
POLYLINE
  5
154E
  8
0
 66
     1
 10
0.0
 20
0.0
 30
0.0
 70
    64
 71
    12
 72
    10
  0
VERTEX
  5
154F
  8
0
 10
-7.542583583471886
 20
3.946194731246589
 30
257.2673411649479
 70
   192
  0
VERTEX
  5
1550
  8
0
 10
-7.601497555071928
 20
4.119258265554777
 30
257.4501575836769
 70
   192
  0
VERTEX
  5
1551
  8
0
 10
-6.581874258679944
 20
5.239921290238187
 30
257.450157583677
 70
   192
  0
VERTEX
  5
1552
  8
0
 10
-6.404030290428429
 20
5.197573138998195
 30
257.267341164948
 70
   192
  0
VERTEX
  5
1553
  8
0
 10
-6.843966192210861
 20
4.793542007676727
 30
257.7
 70
   192
  0
VERTEX
  5
1554
  8
0
 10
-6.64738380144599
 20
5.25552040249341
 30
257.7
 70
   192
  0
VERTEX
  5
1555
  8
0
 10
-7.181794400790235
 20
4.422236660506472
 30
257.7000000000001
 70
   192
  0
VERTEX
  5
1556
  8
0
 10
-7.62319875404993
 20
4.183006916203126
 30
257.7
 70
   192
  0
VERTEX
  5
1557
  8
0
 10
-6.423093228835217
 20
4.523727688738333
 30
257.2000000000001
 70
   192
  0
VERTEX
  5
1558
  8
0
 10
-6.160983374482161
 20
5.13969888182721
 30
257.2
 70
   192
  0
VERTEX
  5
1559
  8
0
 10
-6.873530840274451
 20
4.028653892511077
 30
257.2000000000001
 70
   192
  0
VERTEX
  5
155A
  8
0
 10
-7.4620699779541
 20
3.709680900106389
 30
257.2
 70
   192
  0
VERTEX
  5
155B
  8
0
 10
0.0
 20
0.0
 30
0.0
 70
   128
 71
     1
 72
     2
 73
    -3
  0
VERTEX
  5
155C
  8
0
 10
0.0
 20
0.0
 30
0.0
 70
   128
 71
    -1
 72
     3
 73
     4
  0
VERTEX
  5
155D
  8
0
 10
0.0
 20
0.0
 30
0.0
 70
   128
 71
     5
 72
     6
 73
     3
  0
VERTEX
  5
155E
  8
0
 10
0.0
 20
0.0
 30
0.0
 70
   128
 71
     3
 72
     7
 73
     5
  0
VERTEX
  5
155F
  8
0
 10
0.0
 20
0.0
 30
0.0
 70
   128
 71
     8
 72
     7
 73
     3
  0
VERTEX
  5
1560
  8
0
 10
0.0
 20
0.0
 30
0.0
 70
   128
 71
     8
 72
     3
 73
     2
  0
VERTEX
  5
1561
  8
0
 10
0.0
 20
0.0
 30
0.0
 70
   128
 71
     9
 72
     4
 73
    10
  0
VERTEX
  5
1562
  8
0
 10
0.0
 20
0.0
 30
0.0
 70
   128
 71
    11
 72
    12
 73
     1
  0
VERTEX
  5
1563
  8
0
 10
0.0
 20
0.0
 30
0.0
 70
   128
 71
     1
 72
     4
 73
    -9
  0
VERTEX
  5
1564
  8
0
 10
0.0
 20
0.0
 30
0.0
 70
   128
 71
    -1
 72
     9
 73
    11
  0
SEQEND
  5
1C5B
  8
0
  0
POLYLINE
  5
1565
  8
0
 66
     1
 10
0.0
 20
0.0
 30
0.0
 70
    64
 71
     8
 72
     6
  0
VERTEX
  5
1566
  8
0
 10
-5.855063722821845
 20
6.251023656741349
 30
257.7000000000001
 70
   192
  0
VERTEX
  5
1567
  8
0
 10
-6.361716104405285
 20
5.841389661261913
 30
257.7000000000001
 70
   192
  0
VERTEX
  5
1568
  8
0
 10
-6.371909209150695
 20
5.829351145506216
 30
269.9796744822618
 70
   192
  0
VERTEX
  5
1569
  8
0
 10
-5.22236167826396
 20
6.40766638499448
 30
257.7
 70
   192
  0
VERTEX
  5
156A
  8
0
 10
-5.917606216276713
 20
6.218861025455758
 30
270.0127117992334
 70
   192
  0
VERTEX
  5
156B
  8
0
 10
-6.64738380144599
 20
5.25552040249341
 30
257.7
 70
   192
  0
VERTEX
  5
156C
  8
0
 10
-6.647383801446
 20
5.255520402493056
 30
269.9591062434001
 70
   192
  0
VERTEX
  5
156D
  8
0
 10
-5.22236167826454
 20
6.407666384994095
 30
270.0622511525076
 70
   192
  0
VERTEX
  5
156E
  8
0
 10
0.0
 20
0.0
 30
0.0
 70
   128
 71
     1
 72
     2
 73
     3
  0
VERTEX
  5
156F
  8
0
 10
0.0
 20
0.0
 30
0.0
 70
   128
 71
     4
 72
     1
 73
     5
  0
VERTEX
  5
1570
  8
0
 10
0.0
 20
0.0
 30
0.0
 70
   128
 71
     2
 72
     6
 73
     7
  0
VERTEX
  5
1571
  8
0
 10
0.0
 20
0.0
 30
0.0
 70
   128
 71
     8
 72
     4
 73
     5
  0
VERTEX
  5
1572
  8
0
 10
0.0
 20
0.0
 30
0.0
 70
   128
 71
     5
 72
     1
 73
     3
  0
VERTEX
  5
1573
  8
0
 10
0.0
 20
0.0
 30
0.0
 70
   128
 71
     3
 72
     2
 73
     7
  0
SEQEND
  5
1C5C
  8
0
  0
POLYLINE
  5
1574
  8
0
 66
     1
 10
0.0
 20
0.0
 30
0.0
 70
    64
 71
    12
 72
    10
  0
VERTEX
  5
1575
  8
0
 10
-6.145493360631304
 20
-5.579279991482539
 30
257.2673411649481
 70
   192
  0
VERTEX
  5
1576
  8
0
 10
-7.387615499625867
 20
-4.615506036812294
 30
257.450157583677
 70
   192
  0
VERTEX
  5
1577
  8
0
 10
-7.338548329114388
 20
-4.439397389282103
 30
257.2673411649479
 70
   192
  0
VERTEX
  5
1578
  8
0
 10
-6.319183615783336
 20
-5.636319786556508
 30
257.450157583677
 70
   192
  0
VERTEX
  5
1579
  8
0
 10
-6.962670520323877
 20
-4.886628549763841
 30
257.7
 70
   192
  0
VERTEX
  5
157A
  8
0
 10
-7.40568958972114
 20
-4.680376367193499
 30
257.7
 70
   192
  0
VERTEX
  5
157B
  8
0
 10
-6.609385245451898
 20
-5.224168519906253
 30
257.7000000000001
 70
   192
  0
VERTEX
  5
157C
  8
0
 10
-6.38316312158111
 20
-5.65733062505408
 30
257.7
 70
   192
  0
VERTEX
  5
157D
  8
0
 10
-6.68079956559241
 20
-4.47372492491988
 30
257.2000000000001
 70
   192
  0
VERTEX
  5
157E
  8
0
 10
-7.2714916581222
 20
-4.198722014825938
 30
257.2
 70
   192
  0
VERTEX
  5
157F
  8
0
 10
-6.209752532429833
 20
-4.923778218443095
 30
257.2000000000001
 70
   192
  0
VERTEX
  5
1580
  8
0
 10
-5.90812303393566
 20
-5.501327691973827
 30
257.2
 70
   192
  0
VERTEX
  5
1581
  8
0
 10
0.0
 20
0.0
 30
0.0
 70
   128
 71
    -1
 72
     2
 73
     3
  0
VERTEX
  5
1582
  8
0
 10
0.0
 20
0.0
 30
0.0
 70
   128
 71
     4
 72
    -2
 73
     1
  0
VERTEX
  5
1583
  8
0
 10
0.0
 20
0.0
 30
0.0
 70
   128
 71
     5
 72
     6
 73
     2
  0
VERTEX
  5
1584
  8
0
 10
0.0
 20
0.0
 30
0.0
 70
   128
 71
    -2
 72
     7
 73
     5
  0
VERTEX
  5
1585
  8
0
 10
0.0
 20
0.0
 30
0.0
 70
   128
 71
     4
 72
     8
 73
     7
  0
VERTEX
  5
1586
  8
0
 10
0.0
 20
0.0
 30
0.0
 70
   128
 71
     4
 72
    -7
 73
     2
  0
VERTEX
  5
1587
  8
0
 10
0.0
 20
0.0
 30
0.0
 70
   128
 71
     9
 72
     3
 73
    10
  0
VERTEX
  5
1588
  8
0
 10
0.0
 20
0.0
 30
0.0
 70
   128
 71
    11
 72
    12
 73
     1
  0
VERTEX
  5
1589
  8
0
 10
0.0
 20
0.0
 30
0.0
 70
   128
 71
     1
 72
     3
 73
    -9
  0
VERTEX
  5
158A
  8
0
 10
0.0
 20
0.0
 30
0.0
 70
   128
 71
    -1
 72
     9
 73
    11
  0
SEQEND
  5
1C5D
  8
0
  0
POLYLINE
  5
158B
  8
0
 66
     1
 10
0.0
 20
0.0
 30
0.0
 70
    64
 71
     8
 72
     6
  0
VERTEX
  5
158C
  8
0
 10
-6.06257758718005
 20
-6.203463806252817
 30
257.7000000000001
 70
   192
  0
VERTEX
  5
158D
  8
0
 10
-5.545655446968672
 20
-6.568884208989219
 30
257.7
 70
   192
  0
VERTEX
  5
158E
  8
0
 10
-5.608288651461814
 20
-6.541059263963479
 30
270.0140170138308
 70
   192
  0
VERTEX
  5
158F
  8
0
 10
-4.923863700934811
 20
-6.688932370313549
 30
257.7
 70
   192
  0
VERTEX
  5
1590
  8
0
 10
-4.92386370093479
 20
-6.688932370313522
 30
270.0622511525001
 70
   192
  0
VERTEX
  5
1591
  8
0
 10
-6.38316312158115
 20
-5.657330625053993
 30
269.9602074786001
 70
   192
  0
VERTEX
  5
1592
  8
0
 10
-6.38316312158111
 20
-5.65733062505408
 30
257.7
 70
   192
  0
VERTEX
  5
1593
  8
0
 10
-6.07351485711129
 20
-6.192128580099787
 30
269.9813997677102
 70
   192
  0
VERTEX
  5
1594
  8
0
 10
0.0
 20
0.0
 30
0.0
 70
   128
 71
     1
 72
     2
 73
     3
  0
VERTEX
  5
1595
  8
0
 10
0.0
 20
0.0
 30
0.0
 70
   128
 71
     2
 72
     4
 73
     5
  0
VERTEX
  5
1596
  8
0
 10
0.0
 20
0.0
 30
0.0
 70
   128
 71
     6
 72
     7
 73
     1
  0
VERTEX
  5
1597
  8
0
 10
0.0
 20
0.0
 30
0.0
 70
   128
 71
     6
 72
     1
 73
     8
  0
VERTEX
  5
1598
  8
0
 10
0.0
 20
0.0
 30
0.0
 70
   128
 71
     8
 72
     1
 73
     3
  0
VERTEX
  5
1599
  8
0
 10
0.0
 20
0.0
 30
0.0
 70
   128
 71
     3
 72
     2
 73
     5
  0
SEQEND
  5
1C5E
  8
0
  0
POLYLINE
  5
159A
  8
0
 66
     1
 10
0.0
 20
0.0
 30
0.0
 70
    64
 71
    12
 72
    10
  0
VERTEX
  5
159B
  8
0
 10
-6.319183615783336
 20
-5.636319786556508
 30
257.450157583677
 70
   192
  0
VERTEX
  5
159C
  8
0
 10
-4.929563817938321
 20
-6.438839736800804
 30
257.2673411649479
 70
   192
  0
VERTEX
  5
159D
  8
0
 10
-4.92539814379991
 20
-6.621608689623461
 30
257.450157583677
 70
   192
  0
VERTEX
  5
159E
  8
0
 10
-6.145493360631304
 20
-5.579279991482539
 30
257.2673411649481
 70
   192
  0
VERTEX
  5
159F
  8
0
 10
-5.34978458419366
 20
-6.109030081263826
 30
257.2000000000001
 70
   192
  0
VERTEX
  5
15A0
  8
0
 10
-4.9352567535047
 20
-6.189062188813097
 30
257.2
 70
   192
  0
VERTEX
  5
15A1
  8
0
 10
-5.694399344334527
 20
-5.865416479439709
 30
257.2000000000001
 70
   192
  0
VERTEX
  5
15A2
  8
0
 10
-5.90812303393566
 20
-5.501327691973827
 30
257.2
 70
   192
  0
VERTEX
  5
15A3
  8
0
 10
-5.545655446968672
 20
-6.568884208989219
 30
257.7
 70
   192
  0
VERTEX
  5
15A4
  8
0
 10
-4.923863700934811
 20
-6.688932370313549
 30
257.7
 70
   192
  0
VERTEX
  5
15A5
  8
0
 10
-6.06257758718005
 20
-6.203463806252817
 30
257.7000000000001
 70
   192
  0
VERTEX
  5
15A6
  8
0
 10
-6.38316312158111
 20
-5.65733062505408
 30
257.7
 70
   192
  0
VERTEX
  5
15A7
  8
0
 10
0.0
 20
0.0
 30
0.0
 70
   128
 71
    -1
 72
     2
 73
     3
  0
VERTEX
  5
15A8
  8
0
 10
0.0
 20
0.0
 30
0.0
 70
   128
 71
     4
 72
    -2
 73
     1
  0
VERTEX
  5
15A9
  8
0
 10
0.0
 20
0.0
 30
0.0
 70
   128
 71
     5
 72
     6
 73
     2
  0
VERTEX
  5
15AA
  8
0
 10
0.0
 20
0.0
 30
0.0
 70
   128
 71
     2
 72
     7
 73
     5
  0
VERTEX
  5
15AB
  8
0
 10
0.0
 20
0.0
 30
0.0
 70
   128
 71
     8
 72
     7
 73
     2
  0
VERTEX
  5
15AC
  8
0
 10
0.0
 20
0.0
 30
0.0
 70
   128
 71
     8
 72
     2
 73
     4
  0
VERTEX
  5
15AD
  8
0
 10
0.0
 20
0.0
 30
0.0
 70
   128
 71
     9
 72
     3
 73
    10
  0
VERTEX
  5
15AE
  8
0
 10
0.0
 20
0.0
 30
0.0
 70
   128
 71
    11
 72
    12
 73
     1
  0
VERTEX
  5
15AF
  8
0
 10
0.0
 20
0.0
 30
0.0
 70
   128
 71
     1
 72
     3
 73
    -9
  0
VERTEX
  5
15B0
  8
0
 10
0.0
 20
0.0
 30
0.0
 70
   128
 71
    -1
 72
     9
 73
    11
  0
SEQEND
  5
1C5F
  8
0
  0
POLYLINE
  5
15B1
  8
0
 66
     1
 10
0.0
 20
0.0
 30
0.0
 70
    64
 71
    12
 72
    10
  0
VERTEX
  5
15B2
  8
0
 10
-5.220827235399086
 20
6.340342704304607
 30
257.4501575836769
 70
   192
  0
VERTEX
  5
15B3
  8
0
 10
-6.404030290428429
 20
5.197573138998195
 30
257.267341164948
 70
   192
  0
VERTEX
  5
15B4
  8
0
 10
-6.581874258679944
 20
5.239921290238187
 30
257.450157583677
 70
   192
  0
VERTEX
  5
15B5
  8
0
 10
-5.216661561260675
 20
6.157573751481987
 30
257.267341164948
 70
   192
  0
VERTEX
  5
15B6
  8
0
 10
-5.970538243121968
 20
5.530278387673155
 30
257.2000000000001
 70
   192
  0
VERTEX
  5
15B7
  8
0
 10
-6.160983374482161
 20
5.13969888182721
 30
257.2
 70
   192
  0
VERTEX
  5
15B8
  8
0
 10
-5.632769988732843
 20
5.803367717992935
 30
257.2000000000001
 70
   192
  0
VERTEX
  5
15B9
  8
0
 10
-5.210968625694011
 20
5.907796203494343
 30
257.2
 70
   192
  0
VERTEX
  5
15BA
  8
0
 10
-6.361716104405285
 20
5.841389661261913
 30
257.7000000000001
 70
   192
  0
VERTEX
  5
15BB
  8
0
 10
-6.64738380144599
 20
5.25552040249341
 30
257.7
 70
   192
  0
VERTEX
  5
15BC
  8
0
 10
-5.855063722821845
 20
6.251023656741349
 30
257.7000000000001
 70
   192
  0
VERTEX
  5
15BD
  8
0
 10
-5.22236167826396
 20
6.40766638499448
 30
257.7
 70
   192
  0
VERTEX
  5
15BE
  8
0
 10
0.0
 20
0.0
 30
0.0
 70
   128
 71
    -1
 72
     2
 73
     3
  0
VERTEX
  5
15BF
  8
0
 10
0.0
 20
0.0
 30
0.0
 70
   128
 71
     4
 72
    -2
 73
     1
  0
VERTEX
  5
15C0
  8
0
 10
0.0
 20
0.0
 30
0.0
 70
   128
 71
     5
 72
     6
 73
     2
  0
VERTEX
  5
15C1
  8
0
 10
0.0
 20
0.0
 30
0.0
 70
   128
 71
     2
 72
     7
 73
     5
  0
VERTEX
  5
15C2
  8
0
 10
0.0
 20
0.0
 30
0.0
 70
   128
 71
     8
 72
     7
 73
     2
  0
VERTEX
  5
15C3
  8
0
 10
0.0
 20
0.0
 30
0.0
 70
   128
 71
     8
 72
     2
 73
     4
  0
VERTEX
  5
15C4
  8
0
 10
0.0
 20
0.0
 30
0.0
 70
   128
 71
     9
 72
     3
 73
    10
  0
VERTEX
  5
15C5
  8
0
 10
0.0
 20
0.0
 30
0.0
 70
   128
 71
    11
 72
    12
 73
     1
  0
VERTEX
  5
15C6
  8
0
 10
0.0
 20
0.0
 30
0.0
 70
   128
 71
     1
 72
     3
 73
    -9
  0
VERTEX
  5
15C7
  8
0
 10
0.0
 20
0.0
 30
0.0
 70
   128
 71
    -1
 72
     9
 73
    11
  0
SEQEND
  5
1C60
  8
0
  0
POLYLINE
  5
15C8
  8
0
 66
     1
 10
0.0
 20
0.0
 30
0.0
 70
    64
 71
     8
 72
     6
  0
VERTEX
  5
15C9
  8
0
 10
-6.428764441488697
 20
1.519113176359792
 30
257.2000000000001
 70
   192
  0
VERTEX
  5
15CA
  8
0
 10
-6.428764441488664
 20
1.519113176360029
 30
252.7000000000001
 70
   192
  0
VERTEX
  5
15CB
  8
0
 10
-6.35173805192599
 20
-1.860419665705971
 30
252.7000000000002
 70
   192
  0
VERTEX
  5
15CC
  8
0
 10
-6.351738051926019
 20
-1.860419665705826
 30
257.2000000000001
 70
   192
  0
VERTEX
  5
15CD
  8
0
 10
-5.46209497155822
 20
4.758365285710452
 30
257.2
 70
   192
  0
VERTEX
  5
15CE
  8
0
 10
-5.46209497155813
 20
4.758365285710647
 30
252.7000000000001
 70
   192
  0
VERTEX
  5
15CF
  8
0
 10
-5.238490833616391
 20
-5.052266266493153
 30
252.7
 70
   192
  0
VERTEX
  5
15D0
  8
0
 10
-5.23849083361652
 20
-5.052266266492929
 30
257.2
 70
   192
  0
VERTEX
  5
15D1
  8
0
 10
0.0
 20
0.0
 30
0.0
 70
   128
 71
     1
 72
     2
 73
    -3
  0
VERTEX
  5
15D2
  8
0
 10
0.0
 20
0.0
 30
0.0
 70
   128
 71
    -1
 72
     3
 73
     4
  0
VERTEX
  5
15D3
  8
0
 10
0.0
 20
0.0
 30
0.0
 70
   128
 71
     5
 72
     6
 73
    -2
  0
VERTEX
  5
15D4
  8
0
 10
0.0
 20
0.0
 30
0.0
 70
   128
 71
    -5
 72
     2
 73
     1
  0
VERTEX
  5
15D5
  8
0
 10
0.0
 20
0.0
 30
0.0
 70
   128
 71
     4
 72
     3
 73
    -7
  0
VERTEX
  5
15D6
  8
0
 10
0.0
 20
0.0
 30
0.0
 70
   128
 71
    -4
 72
     7
 73
     8
  0
SEQEND
  5
1C61
  8
0
  0
POLYLINE
  5
15D7
  8
0
 66
     1
 10
0.0
 20
0.0
 30
0.0
 70
    64
 71
     6
 72
     4
  0
VERTEX
  5
15D8
  8
0
 10
5.37488616954209
 20
6.649199099474448
 30
252.7000000000001
 70
   192
  0
VERTEX
  5
15D9
  8
0
 10
5.374886169541989
 20
6.649199099474385
 30
270.8158056549001
 70
   192
  0
VERTEX
  5
15DA
  8
0
 10
-5.22236167826454
 20
6.407666384994095
 30
270.0622511525076
 70
   192
  0
VERTEX
  5
15DB
  8
0
 10
-5.22236167826396
 20
6.40766638499448
 30
257.7
 70
   192
  0
VERTEX
  5
15DC
  8
0
 10
-2.82448170158201
 20
6.462318920075639
 30
257.7
 70
   192
  0
VERTEX
  5
15DD
  8
0
 10
-2.82448170158201
 20
6.462318920075646
 30
252.7000000000001
 70
   192
  0
VERTEX
  5
15DE
  8
0
 10
0.0
 20
0.0
 30
0.0
 70
   128
 71
     5
 72
     4
 73
    -3
  0
VERTEX
  5
15DF
  8
0
 10
0.0
 20
0.0
 30
0.0
 70
   128
 71
    -5
 72
     3
 73
    -2
  0
VERTEX
  5
15E0
  8
0
 10
0.0
 20
0.0
 30
0.0
 70
   128
 71
    -5
 72
     2
 73
    -1
  0
VERTEX
  5
15E1
  8
0
 10
0.0
 20
0.0
 30
0.0
 70
   128
 71
     1
 72
     6
 73
    -5
  0
SEQEND
  5
1C62
  8
0
  0
POLYLINE
  5
15E2
  8
0
 66
     1
 10
0.0
 20
0.0
 30
0.0
 70
    64
 71
     6
 72
     4
  0
VERTEX
  5
15E3
  8
0
 10
5.673384146871831
 20
-6.447399655833435
 30
270.8158056548925
 70
   192
  0
VERTEX
  5
15E4
  8
0
 10
5.6733841468713
 20
-6.447399655833384
 30
252.7
 70
   192
  0
VERTEX
  5
15E5
  8
0
 10
-2.525983724253085
 20
-6.634279835232383
 30
252.7
 70
   192
  0
VERTEX
  5
15E6
  8
0
 10
-2.525983724253055
 20
-6.634279835232401
 30
257.7
 70
   192
  0
VERTEX
  5
15E7
  8
0
 10
-4.923863700934811
 20
-6.688932370313549
 30
257.7
 70
   192
  0
VERTEX
  5
15E8
  8
0
 10
-4.92386370093479
 20
-6.688932370313522
 30
270.0622511525001
 70
   192
  0
VERTEX
  5
15E9
  8
0
 10
0.0
 20
0.0
 30
0.0
 70
   128
 71
     4
 72
     3
 73
    -2
  0
VERTEX
  5
15EA
  8
0
 10
0.0
 20
0.0
 30
0.0
 70
   128
 71
     2
 72
     1
 73
    -6
  0
VERTEX
  5
15EB
  8
0
 10
0.0
 20
0.0
 30
0.0
 70
   128
 71
    -2
 72
    -6
 73
    -4
  0
VERTEX
  5
15EC
  8
0
 10
0.0
 20
0.0
 30
0.0
 70
   128
 71
     6
 72
     5
 73
    -4
  0
SEQEND
  5
1C63
  8
0
  0
POLYLINE
  5
15ED
  8
0
 66
     1
 10
0.0
 20
0.0
 30
0.0
 70
    64
 71
    11
 72
     9
  0
VERTEX
  5
15EE
  8
0
 10
-3.468035919715818
 20
6.377404079049821
 30
257.4443560359546
 70
   192
  0
VERTEX
  5
15EF
  8
0
 10
-2.82448170158201
 20
6.462318920075639
 30
257.7
 70
   192
  0
VERTEX
  5
15F0
  8
0
 10
-2.82448170158201
 20
6.462318920075646
 30
252.7000000000001
 70
   192
  0
VERTEX
  5
15F1
  8
0
 10
-4.470970484936466
 20
5.924662257984232
 30
257.2
 70
   192
  0
VERTEX
  5
15F2
  8
0
 10
-3.896451656998215
 20
6.237313028183573
 30
252.7000000000001
 70
   192
  0
VERTEX
  5
15F3
  8
0
 10
-4.816303808072243
 20
5.643069196556063
 30
252.7000000000001
 70
   192
  0
VERTEX
  5
15F4
  8
0
 10
-4.866562498842675
 20
5.594632888689438
 30
257.2
 70
   192
  0
VERTEX
  5
15F5
  8
0
 10
-4.02615371751542
 20
6.181006122416501
 30
257.2649489565705
 70
   192
  0
VERTEX
  5
15F6
  8
0
 10
-5.200208338878606
 20
5.202018097814823
 30
257.2000000000001
 70
   192
  0
VERTEX
  5
15F7
  8
0
 10
-5.46209497155813
 20
4.758365285710647
 30
252.7000000000001
 70
   192
  0
VERTEX
  5
15F8
  8
0
 10
-5.46209497155822
 20
4.758365285710452
 30
257.2
 70
   192
  0
VERTEX
  5
15F9
  8
0
 10
0.0
 20
0.0
 30
0.0
 70
   128
 71
     1
 72
     2
 73
     3
  0
VERTEX
  5
15FA
  8
0
 10
0.0
 20
0.0
 30
0.0
 70
   128
 71
     4
 72
     5
 73
     6
  0
VERTEX
  5
15FB
  8
0
 10
0.0
 20
0.0
 30
0.0
 70
   128
 71
     6
 72
     7
 73
     4
  0
VERTEX
  5
15FC
  8
0
 10
0.0
 20
0.0
 30
0.0
 70
   128
 71
     3
 72
     5
 73
     8
  0
VERTEX
  5
15FD
  8
0
 10
0.0
 20
0.0
 30
0.0
 70
   128
 71
     9
 72
     6
 73
    10
  0
VERTEX
  5
15FE
  8
0
 10
0.0
 20
0.0
 30
0.0
 70
   128
 71
    10
 72
    11
 73
     9
  0
VERTEX
  5
15FF
  8
0
 10
0.0
 20
0.0
 30
0.0
 70
   128
 71
     1
 72
     3
 73
     8
  0
VERTEX
  5
1600
  8
0
 10
0.0
 20
0.0
 30
0.0
 70
   128
 71
     8
 72
     5
 73
     4
  0
VERTEX
  5
1601
  8
0
 10
0.0
 20
0.0
 30
0.0
 70
   128
 71
     7
 72
     6
 73
     9
  0
SEQEND
  5
1C64
  8
0
  0
POLYLINE
  5
1602
  8
0
 66
     1
 10
0.0
 20
0.0
 30
0.0
 70
    64
 71
    11
 72
     9
  0
VERTEX
  5
1603
  8
0
 10
-4.956663157625317
 20
-5.483526729681993
 30
257.2
 70
   192
  0
VERTEX
  5
1604
  8
0
 10
-5.23849083361652
 20
-5.052266266492929
 30
257.2
 70
   192
  0
VERTEX
  5
1605
  8
0
 10
-5.238490833616391
 20
-5.052266266493153
 30
252.7
 70
   192
  0
VERTEX
  5
1606
  8
0
 10
-4.553062823544722
 20
-5.906628999594033
 30
252.7000000000001
 70
   192
  0
VERTEX
  5
1607
  8
0
 10
-4.195258612746409
 20
-6.172196134322839
 30
257.2
 70
   192
  0
VERTEX
  5
1608
  8
0
 10
-4.605476101525938
 20
-5.86053279357928
 30
257.2000000000001
 70
   192
  0
VERTEX
  5
1609
  8
0
 10
-2.525983724253085
 20
-6.634279835232383
 30
252.7
 70
   192
  0
VERTEX
  5
160A
  8
0
 10
-2.525983724253055
 20
-6.634279835232401
 30
257.7
 70
   192
  0
VERTEX
  5
160B
  8
0
 10
-3.172745034545168
 20
-6.578773575978234
 30
257.4443526213262
 70
   192
  0
VERTEX
  5
160C
  8
0
 10
-3.607091885442055
 20
-6.458346948847081
 30
252.7000000000001
 70
   192
  0
VERTEX
  5
160D
  8
0
 10
-3.739063229713599
 20
-6.408199881454843
 30
257.2649415399485
 70
   192
  0
VERTEX
  5
160E
  8
0
 10
0.0
 20
0.0
 30
0.0
 70
   128
 71
     1
 72
     2
 73
     3
  0
VERTEX
  5
160F
  8
0
 10
0.0
 20
0.0
 30
0.0
 70
   128
 71
     4
 72
     5
 73
     6
  0
VERTEX
  5
1610
  8
0
 10
0.0
 20
0.0
 30
0.0
 70
   128
 71
     7
 72
     8
 73
     9
  0
VERTEX
  5
1611
  8
0
 10
0.0
 20
0.0
 30
0.0
 70
   128
 71
     1
 72
     3
 73
     4
  0
VERTEX
  5
1612
  8
0
 10
0.0
 20
0.0
 30
0.0
 70
   128
 71
     1
 72
     4
 73
     6
  0
VERTEX
  5
1613
  8
0
 10
0.0
 20
0.0
 30
0.0
 70
   128
 71
     5
 72
     4
 73
    10
  0
VERTEX
  5
1614
  8
0
 10
0.0
 20
0.0
 30
0.0
 70
   128
 71
     5
 72
    10
 73
    11
  0
VERTEX
  5
1615
  8
0
 10
0.0
 20
0.0
 30
0.0
 70
   128
 71
    11
 72
    10
 73
     7
  0
VERTEX
  5
1616
  8
0
 10
0.0
 20
0.0
 30
0.0
 70
   128
 71
    11
 72
     7
 73
     9
  0
SEQEND
  5
1C65
  8
0
  0
POLYLINE
  5
1617
  8
0
 66
     1
 10
0.0
 20
0.0
 30
0.0
 70
    64
 71
    10
 72
     8
  0
VERTEX
  5
1618
  8
0
 10
6.397792406101578
 20
5.655582502229782
 30
258.762298567402
 70
   192
  0
VERTEX
  5
1619
  8
0
 10
6.39855194293951
 20
5.622257823463209
 30
252.7000000000001
 70
   192
  0
VERTEX
  5
161A
  8
0
 10
6.251421601660549
 20
6.166879680816907
 30
252.7000000000001
 70
   192
  0
VERTEX
  5
161B
  8
0
 10
6.39855194293951
 20
5.622257823463043
 30
270.8868957022501
 70
   192
  0
VERTEX
  5
161C
  8
0
 10
6.397792406101579
 20
5.655582502229734
 30
264.824597134815
 70
   192
  0
VERTEX
  5
161D
  8
0
 10
6.256822622379265
 20
6.16107730524114
 30
270.8776333238001
 70
   192
  0
VERTEX
  5
161E
  8
0
 10
5.925684296739593
 20
6.498699844126607
 30
270.8545005524778
 70
   192
  0
VERTEX
  5
161F
  8
0
 10
5.877510151247592
 20
6.525937609228036
 30
252.7000000000001
 70
   192
  0
VERTEX
  5
1620
  8
0
 10
5.37488616954209
 20
6.649199099474448
 30
252.7000000000001
 70
   192
  0
VERTEX
  5
1621
  8
0
 10
5.374886169541989
 20
6.649199099474385
 30
270.8158056549001
 70
   192
  0
VERTEX
  5
1622
  8
0
 10
0.0
 20
0.0
 30
0.0
 70
   128
 71
     1
 72
     2
 73
     3
  0
VERTEX
  5
1623
  8
0
 10
0.0
 20
0.0
 30
0.0
 70
   128
 71
     4
 72
     5
 73
     6
  0
VERTEX
  5
1624
  8
0
 10
0.0
 20
0.0
 30
0.0
 70
   128
 71
     1
 72
     3
 73
     7
  0
VERTEX
  5
1625
  8
0
 10
0.0
 20
0.0
 30
0.0
 70
   128
 71
     7
 72
     5
 73
     1
  0
VERTEX
  5
1626
  8
0
 10
0.0
 20
0.0
 30
0.0
 70
   128
 71
     7
 72
     6
 73
     5
  0
VERTEX
  5
1627
  8
0
 10
0.0
 20
0.0
 30
0.0
 70
   128
 71
     8
 72
     9
 73
    10
  0
VERTEX
  5
1628
  8
0
 10
0.0
 20
0.0
 30
0.0
 70
   128
 71
    10
 72
     7
 73
     3
  0
VERTEX
  5
1629
  8
0
 10
0.0
 20
0.0
 30
0.0
 70
   128
 71
    10
 72
     3
 73
     8
  0
SEQEND
  5
1C66
  8
0
  0
POLYLINE
  5
162A
  8
0
 66
     1
 10
0.0
 20
0.0
 30
0.0
 70
    64
 71
     8
 72
     6
  0
VERTEX
  5
162B
  8
0
 10
-5.22236167826396
 20
6.40766638499448
 30
257.7
 70
   192
  0
VERTEX
  5
162C
  8
0
 10
-3.468035919715818
 20
6.377404079049821
 30
257.4443560359546
 70
   192
  0
VERTEX
  5
162D
  8
0
 10
-5.220827235399086
 20
6.340342704304607
 30
257.4501575836769
 70
   192
  0
VERTEX
  5
162E
  8
0
 10
-2.82448170158201
 20
6.462318920075639
 30
257.7
 70
   192
  0
VERTEX
  5
162F
  8
0
 10
-4.02615371751542
 20
6.181006122416501
 30
257.2649489565705
 70
   192
  0
VERTEX
  5
1630
  8
0
 10
-5.216661561260675
 20
6.157573751481987
 30
257.267341164948
 70
   192
  0
VERTEX
  5
1631
  8
0
 10
-4.470970484936466
 20
5.924662257984232
 30
257.2
 70
   192
  0
VERTEX
  5
1632
  8
0
 10
-5.210968625694011
 20
5.907796203494343
 30
257.2
 70
   192
  0
VERTEX
  5
1633
  8
0
 10
0.0
 20
0.0
 30
0.0
 70
   128
 71
     1
 72
     2
 73
     3
  0
VERTEX
  5
1634
  8
0
 10
0.0
 20
0.0
 30
0.0
 70
   128
 71
     1
 72
     4
 73
     2
  0
VERTEX
  5
1635
  8
0
 10
0.0
 20
0.0
 30
0.0
 70
   128
 71
     3
 72
     2
 73
     5
  0
VERTEX
  5
1636
  8
0
 10
0.0
 20
0.0
 30
0.0
 70
   128
 71
     3
 72
     5
 73
     6
  0
VERTEX
  5
1637
  8
0
 10
0.0
 20
0.0
 30
0.0
 70
   128
 71
     6
 72
     5
 73
     7
  0
VERTEX
  5
1638
  8
0
 10
0.0
 20
0.0
 30
0.0
 70
   128
 71
     6
 72
     7
 73
     8
  0
SEQEND
  5
1C67
  8
0
  0
POLYLINE
  5
1639
  8
0
 66
     1
 10
0.0
 20
0.0
 30
0.0
 70
    64
 71
     8
 72
     6
  0
VERTEX
  5
163A
  8
0
 10
6.216682083383088
 20
-6.27209970509978
 30
270.8545019912053
 70
   192
  0
VERTEX
  5
163B
  8
0
 10
6.169870357117721
 20
-6.30136642332022
 30
252.7
 70
   192
  0
VERTEX
  5
163C
  8
0
 10
6.527076914486022
 20
-5.927497169398297
 30
252.7
 70
   192
  0
VERTEX
  5
163D
  8
0
 10
5.673384146871831
 20
-6.447399655833435
 30
270.8158056548925
 70
   192
  0
VERTEX
  5
163E
  8
0
 10
5.6733841468713
 20
-6.447399655833384
 30
252.7
 70
   192
  0
VERTEX
  5
163F
  8
0
 10
6.532234110596089
 20
-5.919582856127225
 30
270.8776333238
 70
   192
  0
VERTEX
  5
1640
  8
0
 10
6.650338404732489
 20
-5.424873187692972
 30
252.7
 70
   192
  0
VERTEX
  5
1641
  8
0
 10
6.650338404732489
 20
-5.424873187693087
 30
270.886895702225
 70
   192
  0
VERTEX
  5
1642
  8
0
 10
0.0
 20
0.0
 30
0.0
 70
   128
 71
     1
 72
     2
 73
     3
  0
VERTEX
  5
1643
  8
0
 10
0.0
 20
0.0
 30
0.0
 70
   128
 71
     4
 72
     5
 73
     2
  0
VERTEX
  5
1644
  8
0
 10
0.0
 20
0.0
 30
0.0
 70
   128
 71
     6
 72
     3
 73
     7
  0
VERTEX
  5
1645
  8
0
 10
0.0
 20
0.0
 30
0.0
 70
   128
 71
     4
 72
     2
 73
     1
  0
VERTEX
  5
1646
  8
0
 10
0.0
 20
0.0
 30
0.0
 70
   128
 71
     1
 72
     3
 73
     6
  0
VERTEX
  5
1647
  8
0
 10
0.0
 20
0.0
 30
0.0
 70
   128
 71
     6
 72
     7
 73
     8
  0
SEQEND
  5
1C68
  8
0
  0
POLYLINE
  5
1648
  8
0
 66
     1
 10
0.0
 20
0.0
 30
0.0
 70
    64
 71
     8
 72
     6
  0
VERTEX
  5
1649
  8
0
 10
-4.92539814379991
 20
-6.621608689623461
 30
257.450157583677
 70
   192
  0
VERTEX
  5
164A
  8
0
 10
-4.929563817938321
 20
-6.438839736800804
 30
257.2673411649479
 70
   192
  0
VERTEX
  5
164B
  8
0
 10
-3.739063229713599
 20
-6.408199881454843
 30
257.2649415399485
 70
   192
  0
VERTEX
  5
164C
  8
0
 10
-4.923863700934811
 20
-6.688932370313549
 30
257.7
 70
   192
  0
VERTEX
  5
164D
  8
0
 10
-3.172745034545168
 20
-6.578773575978234
 30
257.4443526213262
 70
   192
  0
VERTEX
  5
164E
  8
0
 10
-2.525983724253055
 20
-6.634279835232401
 30
257.7
 70
   192
  0
VERTEX
  5
164F
  8
0
 10
-4.9352567535047
 20
-6.189062188813097
 30
257.2
 70
   192
  0
VERTEX
  5
1650
  8
0
 10
-4.195258612746409
 20
-6.172196134322839
 30
257.2
 70
   192
  0
VERTEX
  5
1651
  8
0
 10
0.0
 20
0.0
 30
0.0
 70
   128
 71
     1
 72
     2
 73
     3
  0
VERTEX
  5
1652
  8
0
 10
0.0
 20
0.0
 30
0.0
 70
   128
 71
     4
 72
     1
 73
     5
  0
VERTEX
  5
1653
  8
0
 10
0.0
 20
0.0
 30
0.0
 70
   128
 71
     6
 72
     4
 73
     5
  0
VERTEX
  5
1654
  8
0
 10
0.0
 20
0.0
 30
0.0
 70
   128
 71
     5
 72
     1
 73
     3
  0
VERTEX
  5
1655
  8
0
 10
0.0
 20
0.0
 30
0.0
 70
   128
 71
     3
 72
     2
 73
     7
  0
VERTEX
  5
1656
  8
0
 10
0.0
 20
0.0
 30
0.0
 70
   128
 71
     3
 72
     7
 73
     8
  0
SEQEND
  5
1C69
  8
0
  0
POLYLINE
  5
1657
  8
0
 66
     1
 10
0.0
 20
0.0
 30
0.0
 70
    64
 71
     8
 72
     6
  0
VERTEX
  5
1658
  8
0
 10
7.130806452347271
 20
-4.54837995206659
 30
270.8868957023001
 70
   192
  0
VERTEX
  5
1659
  8
0
 10
6.773599894978977
 20
-4.922249205988504
 30
270.8868957022973
 70
   192
  0
VERTEX
  5
165A
  8
0
 10
6.773599894979174
 20
-4.9222492059881
 30
252.7000000000001
 70
   192
  0
VERTEX
  5
165B
  8
0
 10
7.13080645234744
 20
-4.54837995206642
 30
252.7000000000001
 70
   192
  0
VERTEX
  5
165C
  8
0
 10
6.650338404732489
 20
-5.424873187693087
 30
270.886895702225
 70
   192
  0
VERTEX
  5
165D
  8
0
 10
6.650338404732489
 20
-5.424873187692972
 30
252.7
 70
   192
  0
VERTEX
  5
165E
  8
0
 10
7.62729266259335
 20
-4.40234671955295
 30
270.8868957023001
 70
   192
  0
VERTEX
  5
165F
  8
0
 10
7.627292662593191
 20
-4.402346719552887
 30
252.7
 70
   192
  0
VERTEX
  5
1660
  8
0
 10
0.0
 20
0.0
 30
0.0
 70
   128
 71
     1
 72
     2
 73
    -3
  0
VERTEX
  5
1661
  8
0
 10
0.0
 20
0.0
 30
0.0
 70
   128
 71
     4
 72
    -1
 73
     3
  0
VERTEX
  5
1662
  8
0
 10
0.0
 20
0.0
 30
0.0
 70
   128
 71
     2
 72
     5
 73
    -6
  0
VERTEX
  5
1663
  8
0
 10
0.0
 20
0.0
 30
0.0
 70
   128
 71
     3
 72
    -2
 73
     6
  0
VERTEX
  5
1664
  8
0
 10
0.0
 20
0.0
 30
0.0
 70
   128
 71
     7
 72
     1
 73
    -4
  0
VERTEX
  5
1665
  8
0
 10
0.0
 20
0.0
 30
0.0
 70
   128
 71
     8
 72
    -7
 73
     4
  0
SEQEND
  5
1C6A
  8
0
  0
POLYLINE
  5
1666
  8
0
 66
     1
 10
0.0
 20
0.0
 30
0.0
 70
    64
 71
     8
 72
     6
  0
VERTEX
  5
1667
  8
0
 10
8.480985430207925
 20
-3.882444233117503
 30
252.7000000000001
 70
   192
  0
VERTEX
  5
1668
  8
0
 10
8.480985430207834
 20
-3.882444233117721
 30
270.8868957023
 70
   192
  0
VERTEX
  5
1669
  8
0
 10
8.123778872839551
 20
-4.256313487039407
 30
270.8868957023
 70
   192
  0
VERTEX
  5
166A
  8
0
 10
8.12377887283939
 20
-4.25631348703945
 30
252.7000000000001
 70
   192
  0
VERTEX
  5
166B
  8
0
 10
8.604246920454498
 20
-3.379820251412723
 30
252.7000000000001
 70
   192
  0
VERTEX
  5
166C
  8
0
 10
8.604246920454509
 20
-3.379820251412934
 30
270.8868957023001
 70
   192
  0
VERTEX
  5
166D
  8
0
 10
7.62729266259335
 20
-4.40234671955295
 30
270.8868957023001
 70
   192
  0
VERTEX
  5
166E
  8
0
 10
7.627292662593191
 20
-4.402346719552887
 30
252.7
 70
   192
  0
VERTEX
  5
166F
  8
0
 10
0.0
 20
0.0
 30
0.0
 70
   128
 71
     1
 72
     2
 73
    -3
  0
VERTEX
  5
1670
  8
0
 10
0.0
 20
0.0
 30
0.0
 70
   128
 71
    -1
 72
     3
 73
     4
  0
VERTEX
  5
1671
  8
0
 10
0.0
 20
0.0
 30
0.0
 70
   128
 71
     5
 72
     6
 73
    -2
  0
VERTEX
  5
1672
  8
0
 10
0.0
 20
0.0
 30
0.0
 70
   128
 71
    -5
 72
     2
 73
     1
  0
VERTEX
  5
1673
  8
0
 10
0.0
 20
0.0
 30
0.0
 70
   128
 71
     4
 72
     3
 73
    -7
  0
VERTEX
  5
1674
  8
0
 10
0.0
 20
0.0
 30
0.0
 70
   128
 71
    -4
 72
     7
 73
     8
  0
SEQEND
  5
1C6B
  8
0
  0
POLYLINE
  5
1675
  8
0
 66
     1
 10
0.0
 20
0.0
 30
0.0
 70
    64
 71
     4
 72
     2
  0
VERTEX
  5
1676
  8
0
 10
8.44474418447688
 20
3.618362289591118
 30
252.7000000000001
 70
   192
  0
VERTEX
  5
1677
  8
0
 10
8.44474418447687
 20
3.618362289591209
 30
270.8868957023001
 70
   192
  0
VERTEX
  5
1678
  8
0
 10
8.604246920454509
 20
-3.379820251412934
 30
270.8868957023001
 70
   192
  0
VERTEX
  5
1679
  8
0
 10
8.604246920454498
 20
-3.379820251412723
 30
252.7000000000001
 70
   192
  0
VERTEX
  5
167A
  8
0
 10
0.0
 20
0.0
 30
0.0
 70
   128
 71
     3
 72
     4
 73
    -1
  0
VERTEX
  5
167B
  8
0
 10
0.0
 20
0.0
 30
0.0
 70
   128
 71
     2
 72
    -3
 73
     1
  0
SEQEND
  5
1C6C
  8
0
  0
POLYLINE
  5
167C
  8
0
 66
     1
 10
0.0
 20
0.0
 30
0.0
 70
    64
 71
     8
 72
     6
  0
VERTEX
  5
167D
  8
0
 10
8.298710951963454
 20
4.114848499837598
 30
270.8868957023001
 70
   192
  0
VERTEX
  5
167E
  8
0
 10
8.298710951963564
 20
4.114848499837496
 30
252.7000000000001
 70
   192
  0
VERTEX
  5
167F
  8
0
 10
7.924841698041612
 20
4.472055057206042
 30
252.7000000000001
 70
   192
  0
VERTEX
  5
1680
  8
0
 10
7.924841698041766
 20
4.472055057205888
 30
270.8868957023001
 70
   192
  0
VERTEX
  5
1681
  8
0
 10
8.44474418447687
 20
3.618362289591209
 30
270.8868957023001
 70
   192
  0
VERTEX
  5
1682
  8
0
 10
8.44474418447688
 20
3.618362289591118
 30
252.7000000000001
 70
   192
  0
VERTEX
  5
1683
  8
0
 10
7.422217716336649
 20
4.595316547452617
 30
252.7000000000001
 70
   192
  0
VERTEX
  5
1684
  8
0
 10
7.422217716336799
 20
4.595316547452565
 30
270.8868957023001
 70
   192
  0
VERTEX
  5
1685
  8
0
 10
0.0
 20
0.0
 30
0.0
 70
   128
 71
     1
 72
     2
 73
    -3
  0
VERTEX
  5
1686
  8
0
 10
0.0
 20
0.0
 30
0.0
 70
   128
 71
    -1
 72
     3
 73
     4
  0
VERTEX
  5
1687
  8
0
 10
0.0
 20
0.0
 30
0.0
 70
   128
 71
     5
 72
     6
 73
    -2
  0
VERTEX
  5
1688
  8
0
 10
0.0
 20
0.0
 30
0.0
 70
   128
 71
    -5
 72
     2
 73
     1
  0
VERTEX
  5
1689
  8
0
 10
0.0
 20
0.0
 30
0.0
 70
   128
 71
     4
 72
     3
 73
    -7
  0
VERTEX
  5
168A
  8
0
 10
0.0
 20
0.0
 30
0.0
 70
   128
 71
    -4
 72
     7
 73
     8
  0
SEQEND
  5
1C6D
  8
0
  0
POLYLINE
  5
168B
  8
0
 66
     1
 10
0.0
 20
0.0
 30
0.0
 70
    64
 71
    10
 72
     8
  0
VERTEX
  5
168C
  8
0
 10
6.919593734631579
 20
4.718578037699092
 30
252.7000000000001
 70
   192
  0
VERTEX
  5
168D
  8
0
 10
6.545682284218666
 20
5.077635966109967
 30
252.7000000000001
 70
   192
  0
VERTEX
  5
168E
  8
0
 10
6.545682284218802
 20
5.077635966109685
 30
270.8868957022982
 70
   192
  0
VERTEX
  5
168F
  8
0
 10
6.919593734631702
 20
4.718578037698965
 30
270.8868957023001
 70
   192
  0
VERTEX
  5
1690
  8
0
 10
6.397792406101579
 20
5.655582502229734
 30
264.824597134815
 70
   192
  0
VERTEX
  5
1691
  8
0
 10
6.39855194293951
 20
5.622257823463043
 30
270.8868957022501
 70
   192
  0
VERTEX
  5
1692
  8
0
 10
6.39855194293951
 20
5.622257823463209
 30
252.7000000000001
 70
   192
  0
VERTEX
  5
1693
  8
0
 10
6.397792406101578
 20
5.655582502229782
 30
258.762298567402
 70
   192
  0
VERTEX
  5
1694
  8
0
 10
7.422217716336649
 20
4.595316547452617
 30
252.7000000000001
 70
   192
  0
VERTEX
  5
1695
  8
0
 10
7.422217716336799
 20
4.595316547452565
 30
270.8868957023001
 70
   192
  0
VERTEX
  5
1696
  8
0
 10
0.0
 20
0.0
 30
0.0
 70
   128
 71
     1
 72
     2
 73
    -3
  0
VERTEX
  5
1697
  8
0
 10
0.0
 20
0.0
 30
0.0
 70
   128
 71
     4
 72
    -1
 73
     3
  0
VERTEX
  5
1698
  8
0
 10
0.0
 20
0.0
 30
0.0
 70
   128
 71
     5
 72
     6
 73
     3
  0
VERTEX
  5
1699
  8
0
 10
0.0
 20
0.0
 30
0.0
 70
   128
 71
     2
 72
     7
 73
     8
  0
VERTEX
  5
169A
  8
0
 10
0.0
 20
0.0
 30
0.0
 70
   128
 71
     8
 72
    -5
 73
     2
  0
VERTEX
  5
169B
  8
0
 10
0.0
 20
0.0
 30
0.0
 70
   128
 71
     5
 72
     3
 73
    -2
  0
VERTEX
  5
169C
  8
0
 10
0.0
 20
0.0
 30
0.0
 70
   128
 71
     9
 72
     1
 73
    -4
  0
VERTEX
  5
169D
  8
0
 10
0.0
 20
0.0
 30
0.0
 70
   128
 71
    10
 72
    -9
 73
     4
  0
SEQEND
  5
1C6E
  8
0
  0
ENDBLK
  5
1C51
  8
0
  0
BLOCK
  8
0
  2
*X5
 70
     1
 10
0.0
 20
0.0
 30
0.0
  3
*X5
  1

  0
POLYLINE
  5
169F
  8
0
 66
     1
 10
0.0
 20
0.0
 30
0.0
 70
    64
 71
    13
 72
    11
  0
VERTEX
  5
16A0
  8
0
 10
176.5908998763795
 20
11.42098294965312
 30
229.9927891327457
 70
   192
  0
VERTEX
  5
16A1
  8
0
 10
172.4373270787648
 20
8.76438295780358
 30
229.8840240035406
 70
   192
  0
VERTEX
  5
16A2
  8
0
 10
169.6896761938976
 20
4.755155654074783
 30
229.81207423297
 70
   192
  0
VERTEX
  5
16A3
  8
0
 10
168.7228696054365
 20
-0.0000000005112195
 30
229.7867565779571
 70
   192
  0
VERTEX
  5
16A4
  8
0
 10
169.6904288515369
 20
-4.756881080431704
 30
229.8120939420039
 70
   192
  0
VERTEX
  5
16A5
  8
0
 10
172.4405926221972
 20
-8.767292922799179
 30
229.8841095148047
 70
   192
  0
VERTEX
  5
16A6
  8
0
 10
176.590899878579
 20
-11.42098294989804
 30
229.9927891328016
 70
   192
  0
VERTEX
  5
16A7
  8
0
 10
125.4270677092325
 20
-12.13789934887047
 30
228.6530170380607
 70
   192
  0
VERTEX
  5
16A8
  8
0
 10
74.2610805189494
 20
-12.58033414996562
 30
227.3131885110928
 70
   192
  0
VERTEX
  5
16A9
  8
0
 10
23.09293831228965
 20
-12.74828734131079
 30
225.9733035525371
 70
   192
  0
VERTEX
  5
16AA
  8
0
 10
23.09293831103995
 20
12.74828333723921
 30
225.9733035525016
 70
   192
  0
VERTEX
  5
16AB
  8
0
 10
74.26119114045966
 20
12.58033052433838
 30
227.3131914078183
 70
   192
  0
VERTEX
  5
16AC
  8
0
 10
125.4271783304188
 20
12.13789705787161
 30
228.6530199347789
 70
   192
  0
VERTEX
  5
16AD
  8
0
 10
0.0
 20
0.0
 30
0.0
 70
   128
 71
    10
 72
    11
 73
   -12
  0
VERTEX
  5
16AE
  8
0
 10
0.0
 20
0.0
 30
0.0
 70
   128
 71
     9
 72
   -10
 73
   -12
  0
VERTEX
  5
16AF
  8
0
 10
0.0
 20
0.0
 30
0.0
 70
   128
 71
   -13
 72
     8
 73
    -9
  0
VERTEX
  5
16B0
  8
0
 10
0.0
 20
0.0
 30
0.0
 70
   128
 71
    12
 72
   -13
 73
    -9
  0
VERTEX
  5
16B1
  8
0
 10
0.0
 20
0.0
 30
0.0
 70
   128
 71
    13
 72
     1
 73
    -2
  0
VERTEX
  5
16B2
  8
0
 10
0.0
 20
0.0
 30
0.0
 70
   128
 71
     2
 72
    -3
 73
   -13
  0
VERTEX
  5
16B3
  8
0
 10
0.0
 20
0.0
 30
0.0
 70
   128
 71
     3
 72
    -4
 73
   -13
  0
VERTEX
  5
16B4
  8
0
 10
0.0
 20
0.0
 30
0.0
 70
   128
 71
    -5
 72
    -8
 73
   -13
  0
VERTEX
  5
16B5
  8
0
 10
0.0
 20
0.0
 30
0.0
 70
   128
 71
     4
 72
    -5
 73
   -13
  0
VERTEX
  5
16B6
  8
0
 10
0.0
 20
0.0
 30
0.0
 70
   128
 71
     5
 72
    -6
 73
    -8
  0
VERTEX
  5
16B7
  8
0
 10
0.0
 20
0.0
 30
0.0
 70
   128
 71
     6
 72
     7
 73
    -8
  0
SEQEND
  5
1C71
  8
0
  0
POLYLINE
  5
16B8
  8
0
 66
     1
 10
0.0
 20
0.0
 30
0.0
 70
    64
 71
    16
 72
    14
  0
VERTEX
  5
16B9
  8
0
 10
169.6904288515369
 20
-4.756881080431704
 30
229.8120939420039
 70
   192
  0
VERTEX
  5
16BA
  8
0
 10
168.7228696054365
 20
-0.0000000005112195
 30
229.7867565779571
 70
   192
  0
VERTEX
  5
16BB
  8
0
 10
168.6695884999573
 20
-0.0000000000763925
 30
230.1658296594238
 70
   192
  0
VERTEX
  5
16BC
  8
0
 10
168.6163110227304
 20
-0.0000000000953089
 30
230.5449032507881
 70
   192
  0
VERTEX
  5
16BD
  8
0
 10
168.5630353357295
 20
-0.0000000000008049
 30
230.9239772671586
 70
   192
  0
VERTEX
  5
16BE
  8
0
 10
176.590899878579
 20
-11.42098294989804
 30
229.9927891328016
 70
   192
  0
VERTEX
  5
16BF
  8
0
 10
172.4405926221972
 20
-8.767292922799179
 30
229.8841095148047
 70
   192
  0
VERTEX
  5
16C0
  8
0
 10
174.628749700016
 20
-10.60830978740761
 30
231.77645782695
 70
   192
  0
VERTEX
  5
16C1
  8
0
 10
186.7588886556202
 20
-10.6083097874076
 30
233.481237680827
 70
   192
  0
VERTEX
  5
16C2
  8
0
 10
185.899418907569
 20
-11.26103322749176
 30
230.2365412842801
 70
   192
  0
VERTEX
  5
16C3
  8
0
 10
182.8497254451486
 20
-12.11696125099352
 30
230.2288287271775
 70
   192
  0
VERTEX
  5
16C4
  8
0
 10
192.824603019899
 20
-0.0000000000008188
 30
234.3337182406746
 70
   192
  0
VERTEX
  5
16C5
  8
0
 10
193.372919776579
 20
-0.0000000000008049
 30
230.4322417919741
 70
   192
  0
VERTEX
  5
16C6
  8
0
 10
192.410973430868
 20
-4.746144903573191
 30
230.4070523403672
 70
   192
  0
VERTEX
  5
16C7
  8
0
 10
179.6793640620029
 20
-12.17551992191659
 30
230.1462663798201
 70
   192
  0
VERTEX
  5
16C8
  8
0
 10
189.8999496705234
 20
-8.524737970547063
 30
230.3412988691206
 70
   192
  0
VERTEX
  5
16C9
  8
0
 10
0.0
 20
0.0
 30
0.0
 70
   128
 71
     1
 72
     2
 73
     3
  0
VERTEX
  5
16CA
  8
0
 10
0.0
 20
0.0
 30
0.0
 70
   128
 71
     3
 72
     4
 73
     1
  0
VERTEX
  5
16CB
  8
0
 10
0.0
 20
0.0
 30
0.0
 70
   128
 71
     4
 72
     5
 73
     1
  0
VERTEX
  5
16CC
  8
0
 10
0.0
 20
0.0
 30
0.0
 70
   128
 71
     6
 72
     7
 73
     8
  0
VERTEX
  5
16CD
  8
0
 10
0.0
 20
0.0
 30
0.0
 70
   128
 71
     9
 72
    10
 73
    11
  0
VERTEX
  5
16CE
  8
0
 10
0.0
 20
0.0
 30
0.0
 70
   128
 71
    12
 72
    13
 73
    14
  0
VERTEX
  5
16CF
  8
0
 10
0.0
 20
0.0
 30
0.0
 70
   128
 71
    15
 72
     6
 73
     8
  0
VERTEX
  5
16D0
  8
0
 10
0.0
 20
0.0
 30
0.0
 70
   128
 71
     1
 72
     5
 73
     8
  0
VERTEX
  5
16D1
  8
0
 10
0.0
 20
0.0
 30
0.0
 70
   128
 71
    12
 72
    14
 73
    16
  0
VERTEX
  5
16D2
  8
0
 10
0.0
 20
0.0
 30
0.0
 70
   128
 71
     9
 72
    12
 73
    16
  0
VERTEX
  5
16D3
  8
0
 10
0.0
 20
0.0
 30
0.0
 70
   128
 71
     8
 72
     7
 73
     1
  0
VERTEX
  5
16D4
  8
0
 10
0.0
 20
0.0
 30
0.0
 70
   128
 71
    11
 72
    15
 73
     8
  0
VERTEX
  5
16D5
  8
0
 10
0.0
 20
0.0
 30
0.0
 70
   128
 71
     9
 72
    11
 73
     8
  0
VERTEX
  5
16D6
  8
0
 10
0.0
 20
0.0
 30
0.0
 70
   128
 71
    16
 72
    10
 73
     9
  0
SEQEND
  5
1C72
  8
0
  0
POLYLINE
  5
16D7
  8
0
 66
     1
 10
0.0
 20
0.0
 30
0.0
 70
    64
 71
    16
 72
    14
  0
VERTEX
  5
16D8
  8
0
 10
174.628749700016
 20
10.60830978740596
 30
231.7764578269501
 70
   192
  0
VERTEX
  5
16D9
  8
0
 10
176.5908998763795
 20
11.42098294965312
 30
229.9927891327457
 70
   192
  0
VERTEX
  5
16DA
  8
0
 10
179.6718957920042
 20
12.17479902467671
 30
230.1462013444762
 70
   192
  0
VERTEX
  5
16DB
  8
0
 10
168.6695884999573
 20
-0.0000000000763925
 30
230.1658296594238
 70
   192
  0
VERTEX
  5
16DC
  8
0
 10
168.7228696054365
 20
-0.0000000005112195
 30
229.7867565779571
 70
   192
  0
VERTEX
  5
16DD
  8
0
 10
169.6896761938976
 20
4.755155654074783
 30
229.81207423297
 70
   192
  0
VERTEX
  5
16DE
  8
0
 10
182.8423914235233
 20
12.11797059412259
 30
230.2285174144164
 70
   192
  0
VERTEX
  5
16DF
  8
0
 10
186.7588886556201
 20
10.608309787406
 30
233.4812376808271
 70
   192
  0
VERTEX
  5
16E0
  8
0
 10
185.8994189073755
 20
11.26103322755495
 30
230.2365412842786
 70
   192
  0
VERTEX
  5
16E1
  8
0
 10
192.4109509303614
 20
4.746068252678071
 30
230.4070517511707
 70
   192
  0
VERTEX
  5
16E2
  8
0
 10
192.824603019899
 20
-0.0000000000008188
 30
234.3337182406746
 70
   192
  0
VERTEX
  5
16E3
  8
0
 10
189.9003000051738
 20
8.52432131730952
 30
230.3413080429563
 70
   192
  0
VERTEX
  5
16E4
  8
0
 10
193.372919776579
 20
-0.0000000000008049
 30
230.4322417919741
 70
   192
  0
VERTEX
  5
16E5
  8
0
 10
168.5630353357295
 20
-0.0000000000008049
 30
230.9239772671586
 70
   192
  0
VERTEX
  5
16E6
  8
0
 10
168.6163110227304
 20
-0.0000000000953089
 30
230.5449032507881
 70
   192
  0
VERTEX
  5
16E7
  8
0
 10
172.4373270787648
 20
8.76438295780358
 30
229.8840240035406
 70
   192
  0
VERTEX
  5
16E8
  8
0
 10
0.0
 20
0.0
 30
0.0
 70
   128
 71
     1
 72
     2
 73
     3
  0
VERTEX
  5
16E9
  8
0
 10
0.0
 20
0.0
 30
0.0
 70
   128
 71
     4
 72
     5
 73
     6
  0
VERTEX
  5
16EA
  8
0
 10
0.0
 20
0.0
 30
0.0
 70
   128
 71
     7
 72
     8
 73
     1
  0
VERTEX
  5
16EB
  8
0
 10
0.0
 20
0.0
 30
0.0
 70
   128
 71
     7
 72
     9
 73
     8
  0
VERTEX
  5
16EC
  8
0
 10
0.0
 20
0.0
 30
0.0
 70
   128
 71
    10
 72
    11
 73
     8
  0
VERTEX
  5
16ED
  8
0
 10
0.0
 20
0.0
 30
0.0
 70
   128
 71
    12
 72
    10
 73
     8
  0
VERTEX
  5
16EE
  8
0
 10
0.0
 20
0.0
 30
0.0
 70
   128
 71
    10
 72
    13
 73
    11
  0
VERTEX
  5
16EF
  8
0
 10
0.0
 20
0.0
 30
0.0
 70
   128
 71
     6
 72
    14
 73
    15
  0
VERTEX
  5
16F0
  8
0
 10
0.0
 20
0.0
 30
0.0
 70
   128
 71
    15
 72
     4
 73
     6
  0
VERTEX
  5
16F1
  8
0
 10
0.0
 20
0.0
 30
0.0
 70
   128
 71
    16
 72
     2
 73
     1
  0
VERTEX
  5
16F2
  8
0
 10
0.0
 20
0.0
 30
0.0
 70
   128
 71
     8
 72
     9
 73
    12
  0
VERTEX
  5
16F3
  8
0
 10
0.0
 20
0.0
 30
0.0
 70
   128
 71
     1
 72
     3
 73
     7
  0
VERTEX
  5
16F4
  8
0
 10
0.0
 20
0.0
 30
0.0
 70
   128
 71
     6
 72
    16
 73
     1
  0
VERTEX
  5
16F5
  8
0
 10
0.0
 20
0.0
 30
0.0
 70
   128
 71
    14
 72
     6
 73
     1
  0
SEQEND
  5
1C73
  8
0
  0
POLYLINE
  5
16F6
  8
0
 66
     1
 10
0.0
 20
0.0
 30
0.0
 70
    64
 71
    18
 72
    16
  0
VERTEX
  5
16F7
  8
0
 10
195.58409309533
 20
15.58355827535553
 30
234.9894839142501
 70
   192
  0
VERTEX
  5
16F8
  8
0
 10
195.6309289596383
 20
15.0080863874202
 30
232.7901422093458
 70
   192
  0
VERTEX
  5
16F9
  8
0
 10
195.6438435057099
 20
13.28405551701439
 30
231.066401114145
 70
   192
  0
VERTEX
  5
16FA
  8
0
 10
195.6177962674955
 20
11.08434408522927
 30
230.4910259517021
 70
   192
  0
VERTEX
  5
16FB
  8
0
 10
192.3783572146659
 20
11.14434083000027
 30
230.4061982547509
 70
   192
  0
VERTEX
  5
16FC
  8
0
 10
189.1388979700692
 20
11.2032372054215
 30
230.3213700290216
 70
   192
  0
VERTEX
  5
16FD
  8
0
 10
185.8994189073755
 20
11.26103322755495
 30
230.2365412842786
 70
   192
  0
VERTEX
  5
16FE
  8
0
 10
182.8423914235233
 20
12.11797059412259
 30
230.2285174144164
 70
   192
  0
VERTEX
  5
16FF
  8
0
 10
179.6718957920042
 20
12.17479902467671
 30
230.1462013444762
 70
   192
  0
VERTEX
  5
1700
  8
0
 10
176.5908998763795
 20
11.42098294965312
 30
229.9927891327457
 70
   192
  0
VERTEX
  5
1701
  8
0
 10
125.4271783304188
 20
12.13789705787161
 30
228.6530199347789
 70
   192
  0
VERTEX
  5
1702
  8
0
 10
74.26119114045966
 20
12.58033052433838
 30
227.3131914078183
 70
   192
  0
VERTEX
  5
1703
  8
0
 10
23.09293831103995
 20
12.74828333723921
 30
225.9733035525016
 70
   192
  0
VERTEX
  5
1704
  8
0
 10
23.07921129165528
 20
14.9489509735978
 30
226.5479591493934
 70
   192
  0
VERTEX
  5
1705
  8
0
 10
23.03510473642393
 20
16.67342939533334
 30
228.2718476008268
 70
   192
  0
VERTEX
  5
1706
  8
0
 10
22.97784299603085
 20
17.24828104026034
 30
230.4717615154001
 70
   192
  0
VERTEX
  5
1707
  8
0
 10
80.516256896248
 20
17.04028144382771
 30
231.9777474281075
 70
   192
  0
VERTEX
  5
1708
  8
0
 10
138.0523707258896
 20
16.48536713196856
 30
233.4836731407368
 70
   192
  0
VERTEX
  5
1709
  8
0
 10
0.0
 20
0.0
 30
0.0
 70
   128
 71
    12
 72
    13
 73
    14
  0
VERTEX
  5
170A
  8
0
 10
0.0
 20
0.0
 30
0.0
 70
   128
 71
    15
 72
    17
 73
    12
  0
VERTEX
  5
170B
  8
0
 10
0.0
 20
0.0
 30
0.0
 70
   128
 71
    14
 72
    15
 73
    12
  0
VERTEX
  5
170C
  8
0
 10
0.0
 20
0.0
 30
0.0
 70
   128
 71
    15
 72
    16
 73
    17
  0
VERTEX
  5
170D
  8
0
 10
0.0
 20
0.0
 30
0.0
 70
   128
 71
    18
 72
    11
 73
    12
  0
VERTEX
  5
170E
  8
0
 10
0.0
 20
0.0
 30
0.0
 70
   128
 71
    17
 72
    18
 73
    12
  0
VERTEX
  5
170F
  8
0
 10
0.0
 20
0.0
 30
0.0
 70
   128
 71
     8
 72
     1
 73
     2
  0
VERTEX
  5
1710
  8
0
 10
0.0
 20
0.0
 30
0.0
 70
   128
 71
     2
 72
     3
 73
     8
  0
VERTEX
  5
1711
  8
0
 10
0.0
 20
0.0
 30
0.0
 70
   128
 71
     4
 72
     5
 73
     8
  0
VERTEX
  5
1712
  8
0
 10
0.0
 20
0.0
 30
0.0
 70
   128
 71
     3
 72
     4
 73
     8
  0
VERTEX
  5
1713
  8
0
 10
0.0
 20
0.0
 30
0.0
 70
   128
 71
     5
 72
     6
 73
     8
  0
VERTEX
  5
1714
  8
0
 10
0.0
 20
0.0
 30
0.0
 70
   128
 71
     6
 72
     7
 73
     8
  0
VERTEX
  5
1715
  8
0
 10
0.0
 20
0.0
 30
0.0
 70
   128
 71
     8
 72
     9
 73
     1
  0
VERTEX
  5
1716
  8
0
 10
0.0
 20
0.0
 30
0.0
 70
   128
 71
    18
 72
     1
 73
     9
  0
VERTEX
  5
1717
  8
0
 10
0.0
 20
0.0
 30
0.0
 70
   128
 71
    11
 72
    18
 73
     9
  0
VERTEX
  5
1718
  8
0
 10
0.0
 20
0.0
 30
0.0
 70
   128
 71
     9
 72
    10
 73
    11
  0
SEQEND
  5
1C74
  8
0
  0
POLYLINE
  5
1719
  8
0
 66
     1
 10
0.0
 20
0.0
 30
0.0
 70
    64
 71
    14
 72
    12
  0
VERTEX
  5
171A
  8
0
 10
23.09293831103995
 20
12.74828333723921
 30
225.9733035525016
 70
   192
  0
VERTEX
  5
171B
  8
0
 10
23.09293831228965
 20
-12.74828734131079
 30
225.9733035525371
 70
   192
  0
VERTEX
  5
171C
  8
0
 10
21.94322658231882
 20
-12.74927145584069
 30
225.8291989624562
 70
   192
  0
VERTEX
  5
171D
  8
0
 10
21.94337114970212
 20
12.74926837530528
 30
225.8292714142446
 70
   192
  0
VERTEX
  5
171E
  8
0
 10
19.82142857237971
 20
-12.75000207311579
 30
224.8992704431575
 70
   192
  0
VERTEX
  5
171F
  8
0
 10
19.8214285734645
 20
12.75000000617421
 30
224.8992704439121
 70
   192
  0
VERTEX
  5
1720
  8
0
 10
20.83745129615815
 20
12.74982542618569
 30
225.4667454183474
 70
   192
  0
VERTEX
  5
1721
  8
0
 10
20.8372253104694
 20
-12.74982798162664
 30
225.4666021682818
 70
   192
  0
VERTEX
  5
1722
  8
0
 10
17.25
 20
-12.75000000000077
 30
219.9753596026
 70
   192
  0
VERTEX
  5
1723
  8
0
 10
17.25
 20
12.74999999999923
 30
219.9753596026002
 70
   192
  0
VERTEX
  5
1724
  8
0
 10
17.55683243627509
 20
12.74999999999921
 30
221.8674333040699
 70
   192
  0
VERTEX
  5
1725
  8
0
 10
17.55683243612242
 20
-12.75000000000077
 30
221.8674333036124
 70
   192
  0
VERTEX
  5
1726
  8
0
 10
18.44402769229155
 20
12.75000000022791
 30
223.5662828791408
 70
   192
  0
VERTEX
  5
1727
  8
0
 10
18.44402769171776
 20
-12.75000007678281
 30
223.5662828783714
 70
   192
  0
VERTEX
  5
1728
  8
0
 10
0.0
 20
0.0
 30
0.0
 70
   128
 71
     1
 72
     2
 73
     3
  0
VERTEX
  5
1729
  8
0
 10
0.0
 20
0.0
 30
0.0
 70
   128
 71
     4
 72
     1
 73
     3
  0
VERTEX
  5
172A
  8
0
 10
0.0
 20
0.0
 30
0.0
 70
   128
 71
     5
 72
     6
 73
     7
  0
VERTEX
  5
172B
  8
0
 10
0.0
 20
0.0
 30
0.0
 70
   128
 71
     8
 72
     5
 73
     7
  0
VERTEX
  5
172C
  8
0
 10
0.0
 20
0.0
 30
0.0
 70
   128
 71
     9
 72
    10
 73
   -11
  0
VERTEX
  5
172D
  8
0
 10
0.0
 20
0.0
 30
0.0
 70
   128
 71
    12
 72
    -9
 73
    11
  0
VERTEX
  5
172E
  8
0
 10
0.0
 20
0.0
 30
0.0
 70
   128
 71
     7
 72
     4
 73
     3
  0
VERTEX
  5
172F
  8
0
 10
0.0
 20
0.0
 30
0.0
 70
   128
 71
     8
 72
     7
 73
     3
  0
VERTEX
  5
1730
  8
0
 10
0.0
 20
0.0
 30
0.0
 70
   128
 71
    13
 72
     6
 73
    -5
  0
VERTEX
  5
1731
  8
0
 10
0.0
 20
0.0
 30
0.0
 70
   128
 71
    14
 72
   -13
 73
     5
  0
VERTEX
  5
1732
  8
0
 10
0.0
 20
0.0
 30
0.0
 70
   128
 71
    11
 72
    13
 73
   -14
  0
VERTEX
  5
1733
  8
0
 10
0.0
 20
0.0
 30
0.0
 70
   128
 71
    12
 72
   -11
 73
    14
  0
SEQEND
  5
1C75
  8
0
  0
POLYLINE
  5
1734
  8
0
 66
     1
 10
0.0
 20
0.0
 30
0.0
 70
    64
 71
    18
 72
    16
  0
VERTEX
  5
1735
  8
0
 10
23.09293831228965
 20
-12.74828734131079
 30
225.9733035525371
 70
   192
  0
VERTEX
  5
1736
  8
0
 10
74.2610805189494
 20
-12.58033414996562
 30
227.3131885110928
 70
   192
  0
VERTEX
  5
1737
  8
0
 10
125.4270677092325
 20
-12.13789934887047
 30
228.6530170380607
 70
   192
  0
VERTEX
  5
1738
  8
0
 10
176.590899878579
 20
-11.42098294989804
 30
229.9927891328016
 70
   192
  0
VERTEX
  5
1739
  8
0
 10
179.6793640620029
 20
-12.17551992191659
 30
230.1462663798201
 70
   192
  0
VERTEX
  5
173A
  8
0
 10
182.8497254451486
 20
-12.11696125099352
 30
230.2288287271775
 70
   192
  0
VERTEX
  5
173B
  8
0
 10
185.899418907569
 20
-11.26103322749176
 30
230.2365412842801
 70
   192
  0
VERTEX
  5
173C
  8
0
 10
189.1388979712385
 20
-11.20323726279683
 30
230.3213700290474
 70
   192
  0
VERTEX
  5
173D
  8
0
 10
192.3783572157884
 20
-11.14434088873503
 30
230.4061982547766
 70
   192
  0
VERTEX
  5
173E
  8
0
 10
195.6177962675395
 20
-11.08434409030843
 30
230.4910259517026
 70
   192
  0
VERTEX
  5
173F
  8
0
 10
195.6438435056929
 20
-13.28405552202922
 30
231.0664011179034
 70
   192
  0
VERTEX
  5
1740
  8
0
 10
195.6309289593937
 20
-15.00808638906639
 30
232.7901422125947
 70
   192
  0
VERTEX
  5
1741
  8
0
 10
195.5840930946445
 20
-15.58355827536842
 30
234.9894839139826
 70
   192
  0
VERTEX
  5
1742
  8
0
 10
138.0523707252181
 20
-16.48536713197785
 30
233.4836731423377
 70
   192
  0
VERTEX
  5
1743
  8
0
 10
80.51625689584718
 20
-17.0402814438305
 30
231.977747429576
 70
   192
  0
VERTEX
  5
1744
  8
0
 10
22.97784299604025
 20
-17.24828104026036
 30
230.4717615147
 70
   192
  0
VERTEX
  5
1745
  8
0
 10
23.03510470179981
 20
-16.67343014546322
 30
228.2718489382801
 70
   192
  0
VERTEX
  5
1746
  8
0
 10
23.07921125358528
 20
-14.94895365019618
 30
226.5479606495323
 70
   192
  0
VERTEX
  5
1747
  8
0
 10
0.0
 20
0.0
 30
0.0
 70
   128
 71
    12
 72
    13
 73
    14
  0
VERTEX
  5
1748
  8
0
 10
0.0
 20
0.0
 30
0.0
 70
   128
 71
    15
 72
    17
 73
    12
  0
VERTEX
  5
1749
  8
0
 10
0.0
 20
0.0
 30
0.0
 70
   128
 71
    14
 72
    15
 73
    12
  0
VERTEX
  5
174A
  8
0
 10
0.0
 20
0.0
 30
0.0
 70
   128
 71
    15
 72
    16
 73
    17
  0
VERTEX
  5
174B
  8
0
 10
0.0
 20
0.0
 30
0.0
 70
   128
 71
    18
 72
    11
 73
    12
  0
VERTEX
  5
174C
  8
0
 10
0.0
 20
0.0
 30
0.0
 70
   128
 71
    17
 72
    18
 73
    12
  0
VERTEX
  5
174D
  8
0
 10
0.0
 20
0.0
 30
0.0
 70
   128
 71
     3
 72
     4
 73
     5
  0
VERTEX
  5
174E
  8
0
 10
0.0
 20
0.0
 30
0.0
 70
   128
 71
    18
 72
     1
 73
     2
  0
VERTEX
  5
174F
  8
0
 10
0.0
 20
0.0
 30
0.0
 70
   128
 71
     5
 72
    11
 73
    18
  0
VERTEX
  5
1750
  8
0
 10
0.0
 20
0.0
 30
0.0
 70
   128
 71
     3
 72
     5
 73
    18
  0
VERTEX
  5
1751
  8
0
 10
0.0
 20
0.0
 30
0.0
 70
   128
 71
     2
 72
     3
 73
    18
  0
VERTEX
  5
1752
  8
0
 10
0.0
 20
0.0
 30
0.0
 70
   128
 71
     5
 72
     6
 73
    11
  0
VERTEX
  5
1753
  8
0
 10
0.0
 20
0.0
 30
0.0
 70
   128
 71
     7
 72
     8
 73
    11
  0
VERTEX
  5
1754
  8
0
 10
0.0
 20
0.0
 30
0.0
 70
   128
 71
     6
 72
     7
 73
    11
  0
VERTEX
  5
1755
  8
0
 10
0.0
 20
0.0
 30
0.0
 70
   128
 71
     8
 72
     9
 73
    11
  0
VERTEX
  5
1756
  8
0
 10
0.0
 20
0.0
 30
0.0
 70
   128
 71
     9
 72
    10
 73
    11
  0
SEQEND
  5
1C76
  8
0
  0
POLYLINE
  5
1757
  8
0
 66
     1
 10
0.0
 20
0.0
 30
0.0
 70
    64
 71
    15
 72
    13
  0
VERTEX
  5
1758
  8
0
 10
195.6177962675395
 20
-11.08434409030843
 30
230.4910259517026
 70
   192
  0
VERTEX
  5
1759
  8
0
 10
192.3783572157884
 20
-11.14434088873503
 30
230.4061982547766
 70
   192
  0
VERTEX
  5
175A
  8
0
 10
189.1388979712385
 20
-11.20323726279683
 30
230.3213700290474
 70
   192
  0
VERTEX
  5
175B
  8
0
 10
185.899418907569
 20
-11.26103322749176
 30
230.2365412842801
 70
   192
  0
VERTEX
  5
175C
  8
0
 10
189.8999496705234
 20
-8.524737970547063
 30
230.3412988691206
 70
   192
  0
VERTEX
  5
175D
  8
0
 10
192.410973430868
 20
-4.746144903573191
 30
230.4070523403672
 70
   192
  0
VERTEX
  5
175E
  8
0
 10
193.372919776579
 20
-0.0000000000008049
 30
230.4322417919741
 70
   192
  0
VERTEX
  5
175F
  8
0
 10
192.4109509303614
 20
4.746068252678071
 30
230.4070517511707
 70
   192
  0
VERTEX
  5
1760
  8
0
 10
189.9003000051738
 20
8.52432131730952
 30
230.3413080429563
 70
   192
  0
VERTEX
  5
1761
  8
0
 10
185.8994189073755
 20
11.26103322755495
 30
230.2365412842786
 70
   192
  0
VERTEX
  5
1762
  8
0
 10
189.1388979700692
 20
11.2032372054215
 30
230.3213700290216
 70
   192
  0
VERTEX
  5
1763
  8
0
 10
192.3783572146659
 20
11.14434083000027
 30
230.4061982547509
 70
   192
  0
VERTEX
  5
1764
  8
0
 10
195.6177962674955
 20
11.08434408522927
 30
230.4910259517021
 70
   192
  0
VERTEX
  5
1765
  8
0
 10
195.6177962675673
 20
3.694781358366348
 30
230.4910259516716
 70
   192
  0
VERTEX
  5
1766
  8
0
 10
195.6177962675787
 20
-3.694781366813797
 30
230.4910259516717
 70
   192
  0
VERTEX
  5
1767
  8
0
 10
0.0
 20
0.0
 30
0.0
 70
   128
 71
     9
 72
    10
 73
   -11
  0
VERTEX
  5
1768
  8
0
 10
0.0
 20
0.0
 30
0.0
 70
   128
 71
    11
 72
   -12
 73
    -9
  0
VERTEX
  5
1769
  8
0
 10
0.0
 20
0.0
 30
0.0
 70
   128
 71
   -14
 72
     8
 73
    -9
  0
VERTEX
  5
176A
  8
0
 10
0.0
 20
0.0
 30
0.0
 70
   128
 71
    13
 72
   -14
 73
    -9
  0
VERTEX
  5
176B
  8
0
 10
0.0
 20
0.0
 30
0.0
 70
   128
 71
    12
 72
   -13
 73
    -9
  0
VERTEX
  5
176C
  8
0
 10
0.0
 20
0.0
 30
0.0
 70
   128
 71
   -15
 72
     6
 73
    -7
  0
VERTEX
  5
176D
  8
0
 10
0.0
 20
0.0
 30
0.0
 70
   128
 71
    14
 72
   -15
 73
    -7
  0
VERTEX
  5
176E
  8
0
 10
0.0
 20
0.0
 30
0.0
 70
   128
 71
     7
 72
    -8
 73
   -14
  0
VERTEX
  5
176F
  8
0
 10
0.0
 20
0.0
 30
0.0
 70
   128
 71
    -5
 72
     2
 73
    -3
  0
VERTEX
  5
1770
  8
0
 10
0.0
 20
0.0
 30
0.0
 70
   128
 71
     3
 72
     4
 73
    -5
  0
VERTEX
  5
1771
  8
0
 10
0.0
 20
0.0
 30
0.0
 70
   128
 71
    15
 72
     1
 73
    -2
  0
VERTEX
  5
1772
  8
0
 10
0.0
 20
0.0
 30
0.0
 70
   128
 71
    -6
 72
   -15
 73
    -2
  0
VERTEX
  5
1773
  8
0
 10
0.0
 20
0.0
 30
0.0
 70
   128
 71
     5
 72
    -6
 73
    -2
  0
SEQEND
  5
1C77
  8
0
  0
POLYLINE
  5
1774
  8
0
 66
     1
 10
0.0
 20
0.0
 30
0.0
 70
    64
 71
     9
 72
     7
  0
VERTEX
  5
1775
  8
0
 10
195.6309289596383
 20
15.0080863874202
 30
232.7901422093458
 70
   192
  0
VERTEX
  5
1776
  8
0
 10
195.58409309533
 20
15.58355827535553
 30
234.9894839142501
 70
   192
  0
VERTEX
  5
1777
  8
0
 10
197.7982620192383
 20
14.95294976775539
 30
234.9894839141001
 70
   192
  0
VERTEX
  5
1778
  8
0
 10
195.6438435057099
 20
13.28405551701439
 30
231.066401114145
 70
   192
  0
VERTEX
  5
1779
  8
0
 10
199.4108785761984
 20
13.3099107560932
 30
234.9894839141002
 70
   192
  0
VERTEX
  5
177A
  8
0
 10
200.0
 20
11.08434407586878
 30
234.9894839141001
 70
   192
  0
VERTEX
  5
177B
  8
0
 10
199.4365396372682
 20
11.08427077324787
 30
232.8092218683899
 70
   192
  0
VERTEX
  5
177C
  8
0
 10
198.010943924201
 20
11.08413203073118
 30
231.2548308986978
 70
   192
  0
VERTEX
  5
177D
  8
0
 10
195.6177962674955
 20
11.08434408522927
 30
230.4910259517021
 70
   192
  0
VERTEX
  5
177E
  8
0
 10
0.0
 20
0.0
 30
0.0
 70
   128
 71
     1
 72
     2
 73
     3
  0
VERTEX
  5
177F
  8
0
 10
0.0
 20
0.0
 30
0.0
 70
   128
 71
     3
 72
     4
 73
     1
  0
VERTEX
  5
1780
  8
0
 10
0.0
 20
0.0
 30
0.0
 70
   128
 71
     5
 72
     6
 73
     7
  0
VERTEX
  5
1781
  8
0
 10
0.0
 20
0.0
 30
0.0
 70
   128
 71
     8
 72
     9
 73
     4
  0
VERTEX
  5
1782
  8
0
 10
0.0
 20
0.0
 30
0.0
 70
   128
 71
     8
 72
     4
 73
     3
  0
VERTEX
  5
1783
  8
0
 10
0.0
 20
0.0
 30
0.0
 70
   128
 71
     3
 72
     5
 73
     7
  0
VERTEX
  5
1784
  8
0
 10
0.0
 20
0.0
 30
0.0
 70
   128
 71
     3
 72
     7
 73
     8
  0
SEQEND
  5
1C78
  8
0
  0
POLYLINE
  5
1785
  8
0
 66
     1
 10
0.0
 20
0.0
 30
0.0
 70
    64
 71
    13
 72
    11
  0
VERTEX
  5
1786
  8
0
 10
19.02826112572
 20
17.24983440232133
 30
229.5871885058803
 70
   192
  0
VERTEX
  5
1787
  8
0
 10
17.25000000340955
 20
17.2499999999996
 30
228.5922035747951
 70
   192
  0
VERTEX
  5
1788
  8
0
 10
17.25000000283755
 20
17.25000000000028
 30
233.9614690498653
 70
   192
  0
VERTEX
  5
1789
  8
0
 10
20.95719320661903
 20
17.24927990827504
 30
230.219847668397
 70
   192
  0
VERTEX
  5
178A
  8
0
 10
22.97784299603085
 20
17.24828104026034
 30
230.4717615154001
 70
   192
  0
VERTEX
  5
178B
  8
0
 10
17.25000000215833
 20
17.25000000000017
 30
239.3307345249333
 70
   192
  0
VERTEX
  5
178C
  8
0
 10
17.2500000012813
 20
17.24999999999914
 30
244.7000000000002
 70
   192
  0
VERTEX
  5
178D
  8
0
 10
76.69777357956656
 20
17.06483262292014
 30
244.7000000000002
 70
   192
  0
VERTEX
  5
178E
  8
0
 10
195.58409309463
 20
15.5835582753674
 30
244.7000000000002
 70
   192
  0
VERTEX
  5
178F
  8
0
 10
195.58409309533
 20
15.58355827535553
 30
234.9894839142501
 70
   192
  0
VERTEX
  5
1790
  8
0
 10
138.0523707258896
 20
16.48536713196856
 30
233.4836731407368
 70
   192
  0
VERTEX
  5
1791
  8
0
 10
136.14324022726
 20
16.50934486259574
 30
244.7000000000002
 70
   192
  0
VERTEX
  5
1792
  8
0
 10
80.516256896248
 20
17.04028144382771
 30
231.9777474281075
 70
   192
  0
VERTEX
  5
1793
  8
0
 10
0.0
 20
0.0
 30
0.0
 70
   128
 71
     1
 72
     2
 73
     3
  0
VERTEX
  5
1794
  8
0
 10
0.0
 20
0.0
 30
0.0
 70
   128
 71
     3
 72
     4
 73
     1
  0
VERTEX
  5
1795
  8
0
 10
0.0
 20
0.0
 30
0.0
 70
   128
 71
     3
 72
     5
 73
     4
  0
VERTEX
  5
1796
  8
0
 10
0.0
 20
0.0
 30
0.0
 70
   128
 71
     6
 72
     7
 73
    -8
  0
VERTEX
  5
1797
  8
0
 10
0.0
 20
0.0
 30
0.0
 70
   128
 71
     9
 72
    10
 73
    11
  0
VERTEX
  5
1798
  8
0
 10
0.0
 20
0.0
 30
0.0
 70
   128
 71
     9
 72
    11
 73
    12
  0
VERTEX
  5
1799
  8
0
 10
0.0
 20
0.0
 30
0.0
 70
   128
 71
    12
 72
    11
 73
    13
  0
VERTEX
  5
179A
  8
0
 10
0.0
 20
0.0
 30
0.0
 70
   128
 71
    12
 72
    13
 73
     8
  0
VERTEX
  5
179B
  8
0
 10
0.0
 20
0.0
 30
0.0
 70
   128
 71
     8
 72
    13
 73
     5
  0
VERTEX
  5
179C
  8
0
 10
0.0
 20
0.0
 30
0.0
 70
   128
 71
     8
 72
     5
 73
     3
  0
VERTEX
  5
179D
  8
0
 10
0.0
 20
0.0
 30
0.0
 70
   128
 71
     8
 72
     3
 73
    -6
  0
SEQEND
  5
1C79
  8
0
  0
POLYLINE
  5
179E
  8
0
 66
     1
 10
0.0
 20
0.0
 30
0.0
 70
    64
 71
    12
 72
    10
  0
VERTEX
  5
179F
  8
0
 10
17.25000000340955
 20
17.2499999999996
 30
228.5922035747951
 70
   192
  0
VERTEX
  5
17A0
  8
0
 10
19.02826112572
 20
17.24983440232133
 30
229.5871885058803
 70
   192
  0
VERTEX
  5
17A1
  8
0
 10
20.95719320661903
 20
17.24927990827504
 30
230.219847668397
 70
   192
  0
VERTEX
  5
17A2
  8
0
 10
22.97784299603085
 20
17.24828104026034
 30
230.4717615154001
 70
   192
  0
VERTEX
  5
17A3
  8
0
 10
23.03510473642393
 20
16.67342939533334
 30
228.2718476008268
 70
   192
  0
VERTEX
  5
17A4
  8
0
 10
23.07921129165528
 20
14.9489509735978
 30
226.5479591493934
 70
   192
  0
VERTEX
  5
17A5
  8
0
 10
23.09293831103995
 20
12.74828333723921
 30
225.9733035525016
 70
   192
  0
VERTEX
  5
17A6
  8
0
 10
21.94337114970212
 20
12.74926837530528
 30
225.8292714142446
 70
   192
  0
VERTEX
  5
17A7
  8
0
 10
20.83745129615815
 20
12.74982542618569
 30
225.4667454183474
 70
   192
  0
VERTEX
  5
17A8
  8
0
 10
19.8214285734645
 20
12.75000000617421
 30
224.8992704439121
 70
   192
  0
VERTEX
  5
17A9
  8
0
 10
19.49295536292681
 20
14.95068754999618
 30
225.3710041781299
 70
   192
  0
VERTEX
  5
17AA
  8
0
 10
18.50753573968317
 20
16.6751718880077
 30
226.786205368969
 70
   192
  0
VERTEX
  5
17AB
  8
0
 10
0.0
 20
0.0
 30
0.0
 70
   128
 71
     6
 72
     7
 73
     8
  0
VERTEX
  5
17AC
  8
0
 10
0.0
 20
0.0
 30
0.0
 70
   128
 71
     9
 72
    11
 73
     6
  0
VERTEX
  5
17AD
  8
0
 10
0.0
 20
0.0
 30
0.0
 70
   128
 71
     8
 72
     9
 73
     6
  0
VERTEX
  5
17AE
  8
0
 10
0.0
 20
0.0
 30
0.0
 70
   128
 71
     9
 72
    10
 73
    11
  0
VERTEX
  5
17AF
  8
0
 10
0.0
 20
0.0
 30
0.0
 70
   128
 71
    12
 72
     5
 73
     6
  0
VERTEX
  5
17B0
  8
0
 10
0.0
 20
0.0
 30
0.0
 70
   128
 71
    11
 72
    12
 73
     6
  0
VERTEX
  5
17B1
  8
0
 10
0.0
 20
0.0
 30
0.0
 70
   128
 71
    12
 72
     1
 73
     2
  0
VERTEX
  5
17B2
  8
0
 10
0.0
 20
0.0
 30
0.0
 70
   128
 71
     3
 72
     5
 73
    12
  0
VERTEX
  5
17B3
  8
0
 10
0.0
 20
0.0
 30
0.0
 70
   128
 71
     2
 72
     3
 73
    12
  0
VERTEX
  5
17B4
  8
0
 10
0.0
 20
0.0
 30
0.0
 70
   128
 71
     3
 72
     4
 73
     5
  0
SEQEND
  5
1C7A
  8
0
  0
POLYLINE
  5
17B5
  8
0
 66
     1
 10
0.0
 20
0.0
 30
0.0
 70
    64
 71
    12
 72
    10
  0
VERTEX
  5
17B6
  8
0
 10
22.97784299604025
 20
-17.24828104026036
 30
230.4717615147
 70
   192
  0
VERTEX
  5
17B7
  8
0
 10
21.01371323989115
 20
-17.24924725620909
 30
230.2326379885746
 70
   192
  0
VERTEX
  5
17B8
  8
0
 10
18.9765815605982
 20
-17.24983364939395
 30
229.5644629657345
 70
   192
  0
VERTEX
  5
17B9
  8
0
 10
17.2500000016195
 20
-17.24999999999945
 30
228.592203573588
 70
   192
  0
VERTEX
  5
17BA
  8
0
 10
18.50753574061849
 20
-16.67517197424129
 30
226.7862053646105
 70
   192
  0
VERTEX
  5
17BB
  8
0
 10
19.49295536442562
 20
-14.95068825003965
 30
225.3710041735381
 70
   192
  0
VERTEX
  5
17BC
  8
0
 10
19.8214285723797
 20
-12.75000207311579
 30
224.8992704431575
 70
   192
  0
VERTEX
  5
17BD
  8
0
 10
20.8372253104694
 20
-12.74982798162664
 30
225.4666021682818
 70
   192
  0
VERTEX
  5
17BE
  8
0
 10
21.94322658231882
 20
-12.74927145584069
 30
225.8291989624562
 70
   192
  0
VERTEX
  5
17BF
  8
0
 10
23.09293831228965
 20
-12.74828734131079
 30
225.9733035525371
 70
   192
  0
VERTEX
  5
17C0
  8
0
 10
23.07921125358528
 20
-14.94895365019618
 30
226.5479606495323
 70
   192
  0
VERTEX
  5
17C1
  8
0
 10
23.03510470179981
 20
-16.67343014546322
 30
228.2718489382801
 70
   192
  0
VERTEX
  5
17C2
  8
0
 10
0.0
 20
0.0
 30
0.0
 70
   128
 71
     6
 72
     7
 73
     8
  0
VERTEX
  5
17C3
  8
0
 10
0.0
 20
0.0
 30
0.0
 70
   128
 71
     9
 72
    11
 73
     6
  0
VERTEX
  5
17C4
  8
0
 10
0.0
 20
0.0
 30
0.0
 70
   128
 71
     8
 72
     9
 73
     6
  0
VERTEX
  5
17C5
  8
0
 10
0.0
 20
0.0
 30
0.0
 70
   128
 71
     9
 72
    10
 73
    11
  0
VERTEX
  5
17C6
  8
0
 10
0.0
 20
0.0
 30
0.0
 70
   128
 71
    12
 72
     5
 73
     6
  0
VERTEX
  5
17C7
  8
0
 10
0.0
 20
0.0
 30
0.0
 70
   128
 71
    11
 72
    12
 73
     6
  0
VERTEX
  5
17C8
  8
0
 10
0.0
 20
0.0
 30
0.0
 70
   128
 71
    12
 72
     1
 73
     2
  0
VERTEX
  5
17C9
  8
0
 10
0.0
 20
0.0
 30
0.0
 70
   128
 71
     3
 72
     5
 73
    12
  0
VERTEX
  5
17CA
  8
0
 10
0.0
 20
0.0
 30
0.0
 70
   128
 71
     2
 72
     3
 73
    12
  0
VERTEX
  5
17CB
  8
0
 10
0.0
 20
0.0
 30
0.0
 70
   128
 71
     3
 72
     4
 73
     5
  0
SEQEND
  5
1C7B
  8
0
  0
POLYLINE
  5
17CC
  8
0
 66
     1
 10
0.0
 20
0.0
 30
0.0
 70
    64
 71
    12
 72
    10
  0
VERTEX
  5
17CD
  8
0
 10
19.49295536442562
 20
-14.95068825003965
 30
225.3710041735381
 70
   192
  0
VERTEX
  5
17CE
  8
0
 10
18.50753574061849
 20
-16.67517197424129
 30
226.7862053646105
 70
   192
  0
VERTEX
  5
17CF
  8
0
 10
14.9998803878573
 20
-16.64693012572375
 30
219.9753596026
 70
   192
  0
VERTEX
  5
17D0
  8
0
 10
16.64693012611788
 20
-14.99988038717408
 30
219.9753596026
 70
   192
  0
VERTEX
  5
17D1
  8
0
 10
13.28590795564724
 20
-17.25000000000078
 30
223.2867566910149
 70
   192
  0
VERTEX
  5
17D2
  8
0
 10
12.75000000043994
 20
-17.25000000000077
 30
219.9753596040665
 70
   192
  0
VERTEX
  5
17D3
  8
0
 10
14.8387291168909
 20
-17.25000000000079
 30
226.2601828361092
 70
   192
  0
VERTEX
  5
17D4
  8
0
 10
17.2500000016195
 20
-17.24999999999945
 30
228.592203573588
 70
   192
  0
VERTEX
  5
17D5
  8
0
 10
18.44402769171776
 20
-12.75000007678281
 30
223.5662828783714
 70
   192
  0
VERTEX
  5
17D6
  8
0
 10
19.8214285723797
 20
-12.75000207311579
 30
224.8992704431575
 70
   192
  0
VERTEX
  5
17D7
  8
0
 10
17.55683243612242
 20
-12.75000000000077
 30
221.8674333036124
 70
   192
  0
VERTEX
  5
17D8
  8
0
 10
17.25
 20
-12.75000000000077
 30
219.9753596026
 70
   192
  0
VERTEX
  5
17D9
  8
0
 10
0.0
 20
0.0
 30
0.0
 70
   128
 71
     1
 72
     2
 73
     3
  0
VERTEX
  5
17DA
  8
0
 10
0.0
 20
0.0
 30
0.0
 70
   128
 71
     1
 72
     3
 73
     4
  0
VERTEX
  5
17DB
  8
0
 10
0.0
 20
0.0
 30
0.0
 70
   128
 71
     5
 72
     6
 73
     3
  0
VERTEX
  5
17DC
  8
0
 10
0.0
 20
0.0
 30
0.0
 70
   128
 71
     3
 72
     7
 73
     5
  0
VERTEX
  5
17DD
  8
0
 10
0.0
 20
0.0
 30
0.0
 70
   128
 71
     8
 72
     7
 73
     3
  0
VERTEX
  5
17DE
  8
0
 10
0.0
 20
0.0
 30
0.0
 70
   128
 71
     8
 72
     3
 73
     2
  0
VERTEX
  5
17DF
  8
0
 10
0.0
 20
0.0
 30
0.0
 70
   128
 71
     9
 72
    10
 73
     1
  0
VERTEX
  5
17E0
  8
0
 10
0.0
 20
0.0
 30
0.0
 70
   128
 71
     1
 72
     4
 73
    11
  0
VERTEX
  5
17E1
  8
0
 10
0.0
 20
0.0
 30
0.0
 70
   128
 71
     1
 72
    11
 73
     9
  0
VERTEX
  5
17E2
  8
0
 10
0.0
 20
0.0
 30
0.0
 70
   128
 71
     4
 72
    12
 73
    11
  0
SEQEND
  5
1C7C
  8
0
  0
POLYLINE
  5
17E3
  8
0
 66
     1
 10
0.0
 20
0.0
 30
0.0
 70
    64
 71
     4
 72
     2
  0
VERTEX
  5
17E4
  8
0
 10
17.25
 20
12.74999999999923
 30
219.9753596026002
 70
   192
  0
VERTEX
  5
17E5
  8
0
 10
17.25
 20
-12.75000000000077
 30
219.9753596026
 70
   192
  0
VERTEX
  5
17E6
  8
0
 10
17.25
 20
-12.75000000000002
 30
5.500000000000043
 70
   192
  0
VERTEX
  5
17E7
  8
0
 10
17.25
 20
12.74999999999998
 30
5.500000000000133
 70
   192
  0
VERTEX
  5
17E8
  8
0
 10
0.0
 20
0.0
 30
0.0
 70
   128
 71
     3
 72
     4
 73
    -1
  0
VERTEX
  5
17E9
  8
0
 10
0.0
 20
0.0
 30
0.0
 70
   128
 71
     2
 72
    -3
 73
     1
  0
SEQEND
  5
1C7D
  8
0
  0
POLYLINE
  5
17EA
  8
0
 66
     1
 10
0.0
 20
0.0
 30
0.0
 70
    64
 71
    12
 72
    10
  0
VERTEX
  5
17EB
  8
0
 10
19.49295536292681
 20
14.95068754999618
 30
225.3710041781299
 70
   192
  0
VERTEX
  5
17EC
  8
0
 10
16.64693012607455
 20
14.99988038724753
 30
219.9753596026001
 70
   192
  0
VERTEX
  5
17ED
  8
0
 10
14.99988038770728
 20
16.6469301258088
 30
219.9753596026002
 70
   192
  0
VERTEX
  5
17EE
  8
0
 10
18.50753573968317
 20
16.6751718880077
 30
226.786205368969
 70
   192
  0
VERTEX
  5
17EF
  8
0
 10
17.55683243627509
 20
12.74999999999921
 30
221.8674333040699
 70
   192
  0
VERTEX
  5
17F0
  8
0
 10
17.25
 20
12.74999999999923
 30
219.9753596026002
 70
   192
  0
VERTEX
  5
17F1
  8
0
 10
18.44402769229155
 20
12.75000000022791
 30
223.5662828791408
 70
   192
  0
VERTEX
  5
17F2
  8
0
 10
19.8214285734645
 20
12.75000000617422
 30
224.8992704439122
 70
   192
  0
VERTEX
  5
17F3
  8
0
 10
14.83872911774941
 20
17.24999999999921
 30
226.2601828372583
 70
   192
  0
VERTEX
  5
17F4
  8
0
 10
17.25000000340955
 20
17.2499999999996
 30
228.5922035747951
 70
   192
  0
VERTEX
  5
17F5
  8
0
 10
13.28590795587345
 20
17.24999999999923
 30
223.2867566916955
 70
   192
  0
VERTEX
  5
17F6
  8
0
 10
12.75000000035294
 20
17.24999999999924
 30
219.9753596040666
 70
   192
  0
VERTEX
  5
17F7
  8
0
 10
0.0
 20
0.0
 30
0.0
 70
   128
 71
     1
 72
     2
 73
     3
  0
VERTEX
  5
17F8
  8
0
 10
0.0
 20
0.0
 30
0.0
 70
   128
 71
     1
 72
     3
 73
     4
  0
VERTEX
  5
17F9
  8
0
 10
0.0
 20
0.0
 30
0.0
 70
   128
 71
     5
 72
     6
 73
     2
  0
VERTEX
  5
17FA
  8
0
 10
0.0
 20
0.0
 30
0.0
 70
   128
 71
     2
 72
     7
 73
     5
  0
VERTEX
  5
17FB
  8
0
 10
0.0
 20
0.0
 30
0.0
 70
   128
 71
     8
 72
     7
 73
     2
  0
VERTEX
  5
17FC
  8
0
 10
0.0
 20
0.0
 30
0.0
 70
   128
 71
     8
 72
     2
 73
     1
  0
VERTEX
  5
17FD
  8
0
 10
0.0
 20
0.0
 30
0.0
 70
   128
 71
     9
 72
    10
 73
     4
  0
VERTEX
  5
17FE
  8
0
 10
0.0
 20
0.0
 30
0.0
 70
   128
 71
     4
 72
     3
 73
    11
  0
VERTEX
  5
17FF
  8
0
 10
0.0
 20
0.0
 30
0.0
 70
   128
 71
     4
 72
    11
 73
     9
  0
VERTEX
  5
1800
  8
0
 10
0.0
 20
0.0
 30
0.0
 70
   128
 71
     3
 72
    12
 73
    11
  0
SEQEND
  5
1C7E
  8
0
  0
POLYLINE
  5
1801
  8
0
 66
     1
 10
0.0
 20
0.0
 30
0.0
 70
    64
 71
    13
 72
    11
  0
VERTEX
  5
1802
  8
0
 10
17.2500000008069
 20
-17.2500000000012
 30
244.7
 70
   192
  0
VERTEX
  5
1803
  8
0
 10
21.01371323989115
 20
-17.24924725620909
 30
230.2326379885746
 70
   192
  0
VERTEX
  5
1804
  8
0
 10
22.97784299604025
 20
-17.24828104026036
 30
230.4717615147
 70
   192
  0
VERTEX
  5
1805
  8
0
 10
18.9765815605982
 20
-17.24983364939395
 30
229.5644629657345
 70
   192
  0
VERTEX
  5
1806
  8
0
 10
17.2500000016195
 20
-17.24999999999945
 30
228.592203573588
 70
   192
  0
VERTEX
  5
1807
  8
0
 10
195.5840930943345
 20
-15.58355827537363
 30
241.4631613046364
 70
   192
  0
VERTEX
  5
1808
  8
0
 10
195.5840930954595
 20
-15.58355827535385
 30
244.7
 70
   192
  0
VERTEX
  5
1809
  8
0
 10
136.1432402282818
 20
-16.50934486258644
 30
244.7
 70
   192
  0
VERTEX
  5
180A
  8
0
 10
80.51625689584718
 20
-17.0402814438305
 30
231.977747429576
 70
   192
  0
VERTEX
  5
180B
  8
0
 10
76.69777358007707
 20
-17.06483262291779
 30
244.7
 70
   192
  0
VERTEX
  5
180C
  8
0
 10
138.0523707252181
 20
-16.48536713197785
 30
233.4836731423377
 70
   192
  0
VERTEX
  5
180D
  8
0
 10
195.5840930941233
 20
-15.58355827537742
 30
238.2263226092911
 70
   192
  0
VERTEX
  5
180E
  8
0
 10
195.5840930946445
 20
-15.58355827536842
 30
234.9894839139825
 70
   192
  0
VERTEX
  5
180F
  8
0
 10
0.0
 20
0.0
 30
0.0
 70
   128
 71
     1
 72
     2
 73
     3
  0
VERTEX
  5
1810
  8
0
 10
0.0
 20
0.0
 30
0.0
 70
   128
 71
     4
 72
     2
 73
     1
  0
VERTEX
  5
1811
  8
0
 10
0.0
 20
0.0
 30
0.0
 70
   128
 71
     1
 72
     5
 73
     4
  0
VERTEX
  5
1812
  8
0
 10
0.0
 20
0.0
 30
0.0
 70
   128
 71
     6
 72
     7
 73
    -8
  0
VERTEX
  5
1813
  8
0
 10
0.0
 20
0.0
 30
0.0
 70
   128
 71
     1
 72
     3
 73
     9
  0
VERTEX
  5
1814
  8
0
 10
0.0
 20
0.0
 30
0.0
 70
   128
 71
     1
 72
     9
 73
    10
  0
VERTEX
  5
1815
  8
0
 10
0.0
 20
0.0
 30
0.0
 70
   128
 71
    10
 72
     9
 73
    11
  0
VERTEX
  5
1816
  8
0
 10
0.0
 20
0.0
 30
0.0
 70
   128
 71
    10
 72
    11
 73
     8
  0
VERTEX
  5
1817
  8
0
 10
0.0
 20
0.0
 30
0.0
 70
   128
 71
    12
 72
    -6
 73
     8
  0
VERTEX
  5
1818
  8
0
 10
0.0
 20
0.0
 30
0.0
 70
   128
 71
    12
 72
     8
 73
    11
  0
VERTEX
  5
1819
  8
0
 10
0.0
 20
0.0
 30
0.0
 70
   128
 71
    11
 72
    13
 73
    12
  0
SEQEND
  5
1C7F
  8
0
  0
POLYLINE
  5
181A
  8
0
 66
     1
 10
0.0
 20
0.0
 30
0.0
 70
    64
 71
     9
 72
     7
  0
VERTEX
  5
181B
  8
0
 10
199.4362712967973
 20
-11.0842757894226
 30
232.8091733483416
 70
   192
  0
VERTEX
  5
181C
  8
0
 10
200.0
 20
-11.08434407571108
 30
234.9894839141
 70
   192
  0
VERTEX
  5
181D
  8
0
 10
199.4108785768836
 20
-13.30991075489022
 30
234.9894839141
 70
   192
  0
VERTEX
  5
181E
  8
0
 10
198.011307618065
 20
-11.08412469980204
 30
231.2553917284125
 70
   192
  0
VERTEX
  5
181F
  8
0
 10
197.7982620198338
 20
-14.95294976740294
 30
234.9894839141001
 70
   192
  0
VERTEX
  5
1820
  8
0
 10
195.5840930946445
 20
-15.58355827536842
 30
234.9894839139825
 70
   192
  0
VERTEX
  5
1821
  8
0
 10
195.6309289593937
 20
-15.00808638906639
 30
232.7901422125947
 70
   192
  0
VERTEX
  5
1822
  8
0
 10
195.6438435056929
 20
-13.28405552202922
 30
231.0664011179034
 70
   192
  0
VERTEX
  5
1823
  8
0
 10
195.6177962675395
 20
-11.08434409030843
 30
230.4910259517026
 70
   192
  0
VERTEX
  5
1824
  8
0
 10
0.0
 20
0.0
 30
0.0
 70
   128
 71
     1
 72
     2
 73
     3
  0
VERTEX
  5
1825
  8
0
 10
0.0
 20
0.0
 30
0.0
 70
   128
 71
     3
 72
     4
 73
     1
  0
VERTEX
  5
1826
  8
0
 10
0.0
 20
0.0
 30
0.0
 70
   128
 71
     5
 72
     6
 73
     7
  0
VERTEX
  5
1827
  8
0
 10
0.0
 20
0.0
 30
0.0
 70
   128
 71
     5
 72
     7
 73
     8
  0
VERTEX
  5
1828
  8
0
 10
0.0
 20
0.0
 30
0.0
 70
   128
 71
     3
 72
     5
 73
     8
  0
VERTEX
  5
1829
  8
0
 10
0.0
 20
0.0
 30
0.0
 70
   128
 71
     3
 72
     8
 73
     9
  0
VERTEX
  5
182A
  8
0
 10
0.0
 20
0.0
 30
0.0
 70
   128
 71
     3
 72
     9
 73
     4
  0
SEQEND
  5
1C80
  8
0
  0
POLYLINE
  5
182B
  8
0
 66
     1
 10
0.0
 20
0.0
 30
0.0
 70
    64
 71
    12
 72
    10
  0
VERTEX
  5
182C
  8
0
 10
195.6177962675673
 20
3.694781358366348
 30
230.4910259516716
 70
   192
  0
VERTEX
  5
182D
  8
0
 10
195.6177962674955
 20
11.08434408522927
 30
230.4910259517021
 70
   192
  0
VERTEX
  5
182E
  8
0
 10
198.010943924201
 20
11.08413203073118
 30
231.2548308986978
 70
   192
  0
VERTEX
  5
182F
  8
0
 10
198.011307618065
 20
-11.08412469980204
 30
231.2553917284125
 70
   192
  0
VERTEX
  5
1830
  8
0
 10
195.6177962675787
 20
-3.694781366813797
 30
230.4910259516717
 70
   192
  0
VERTEX
  5
1831
  8
0
 10
195.6177962675395
 20
-11.08434409030843
 30
230.4910259517026
 70
   192
  0
VERTEX
  5
1832
  8
0
 10
199.4365396372682
 20
11.08427077324787
 30
232.8092218683899
 70
   192
  0
VERTEX
  5
1833
  8
0
 10
199.4362712967973
 20
-11.0842757894226
 30
232.8091733483416
 70
   192
  0
VERTEX
  5
1834
  8
0
 10
200.0
 20
-3.694781357637575
 30
234.9894839141001
 70
   192
  0
VERTEX
  5
1835
  8
0
 10
200.0
 20
-11.08434407571108
 30
234.9894839141
 70
   192
  0
VERTEX
  5
1836
  8
0
 10
200.0
 20
3.694781359075725
 30
234.9894839141002
 70
   192
  0
VERTEX
  5
1837
  8
0
 10
200.0
 20
11.08434407586878
 30
234.9894839141001
 70
   192
  0
VERTEX
  5
1838
  8
0
 10
0.0
 20
0.0
 30
0.0
 70
   128
 71
     1
 72
     2
 73
    -3
  0
VERTEX
  5
1839
  8
0
 10
0.0
 20
0.0
 30
0.0
 70
   128
 71
     3
 72
     4
 73
     5
  0
VERTEX
  5
183A
  8
0
 10
0.0
 20
0.0
 30
0.0
 70
   128
 71
     3
 72
     5
 73
    -1
  0
VERTEX
  5
183B
  8
0
 10
0.0
 20
0.0
 30
0.0
 70
   128
 71
     4
 72
     6
 73
     5
  0
VERTEX
  5
183C
  8
0
 10
0.0
 20
0.0
 30
0.0
 70
   128
 71
     4
 72
     3
 73
     7
  0
VERTEX
  5
183D
  8
0
 10
0.0
 20
0.0
 30
0.0
 70
   128
 71
     4
 72
     7
 73
     8
  0
VERTEX
  5
183E
  8
0
 10
0.0
 20
0.0
 30
0.0
 70
   128
 71
     9
 72
    10
 73
    -8
  0
VERTEX
  5
183F
  8
0
 10
0.0
 20
0.0
 30
0.0
 70
   128
 71
    -8
 72
    11
 73
    -9
  0
VERTEX
  5
1840
  8
0
 10
0.0
 20
0.0
 30
0.0
 70
   128
 71
     8
 72
     7
 73
    12
  0
VERTEX
  5
1841
  8
0
 10
0.0
 20
0.0
 30
0.0
 70
   128
 71
     8
 72
    12
 73
   -11
  0
SEQEND
  5
1C81
  8
0
  0
POLYLINE
  5
1842
  8
0
 66
     1
 10
0.0
 20
0.0
 30
0.0
 70
    64
 71
    10
 72
     8
  0
VERTEX
  5
1843
  8
0
 10
199.4108785758272
 20
13.30991075674499
 30
244.7
 70
   192
  0
VERTEX
  5
1844
  8
0
 10
199.4108785761984
 20
13.3099107560932
 30
234.9894839141002
 70
   192
  0
VERTEX
  5
1845
  8
0
 10
197.7982620192383
 20
14.95294976775539
 30
234.9894839141001
 70
   192
  0
VERTEX
  5
1846
  8
0
 10
197.7982620179483
 20
14.95294976852141
 30
244.7
 70
   192
  0
VERTEX
  5
1847
  8
0
 10
200.0
 20
11.08434407434847
 30
238.2263226094001
 70
   192
  0
VERTEX
  5
1848
  8
0
 10
200.0
 20
11.08434407586878
 30
234.9894839141001
 70
   192
  0
VERTEX
  5
1849
  8
0
 10
200.0
 20
11.08434407434868
 30
241.4631613047001
 70
   192
  0
VERTEX
  5
184A
  8
0
 10
200.0
 20
11.08434407586915
 30
244.7000000000001
 70
   192
  0
VERTEX
  5
184B
  8
0
 10
195.58409309533
 20
15.58355827535553
 30
234.9894839142501
 70
   192
  0
VERTEX
  5
184C
  8
0
 10
195.58409309463
 20
15.5835582753674
 30
244.7000000000002
 70
   192
  0
VERTEX
  5
184D
  8
0
 10
0.0
 20
0.0
 30
0.0
 70
   128
 71
     1
 72
     2
 73
    -3
  0
VERTEX
  5
184E
  8
0
 10
0.0
 20
0.0
 30
0.0
 70
   128
 71
    -1
 72
     3
 73
     4
  0
VERTEX
  5
184F
  8
0
 10
0.0
 20
0.0
 30
0.0
 70
   128
 71
     5
 72
     6
 73
    -2
  0
VERTEX
  5
1850
  8
0
 10
0.0
 20
0.0
 30
0.0
 70
   128
 71
     2
 72
    -1
 73
    -7
  0
VERTEX
  5
1851
  8
0
 10
0.0
 20
0.0
 30
0.0
 70
   128
 71
    -2
 72
     7
 73
    -5
  0
VERTEX
  5
1852
  8
0
 10
0.0
 20
0.0
 30
0.0
 70
   128
 71
     1
 72
     8
 73
    -7
  0
VERTEX
  5
1853
  8
0
 10
0.0
 20
0.0
 30
0.0
 70
   128
 71
     4
 72
     3
 73
    -9
  0
VERTEX
  5
1854
  8
0
 10
0.0
 20
0.0
 30
0.0
 70
   128
 71
    -4
 72
     9
 73
    10
  0
SEQEND
  5
1C82
  8
0
  0
POLYLINE
  5
1855
  8
0
 66
     1
 10
0.0
 20
0.0
 30
0.0
 70
    64
 71
    12
 72
    10
  0
VERTEX
  5
1856
  8
0
 10
195.5766134424632
 20
15.18337603503321
 30
245.3922541360829
 70
   192
  0
VERTEX
  5
1857
  8
0
 10
195.5820796108229
 20
15.4758312264264
 30
245.0997478661166
 70
   192
  0
VERTEX
  5
1858
  8
0
 10
17.25000000004746
 20
17.14225413608241
 30
245.0997478661171
 70
   192
  0
VERTEX
  5
1859
  8
0
 10
17.24999999999998
 20
16.8497478661161
 30
245.3922541360835
 70
   192
  0
VERTEX
  5
185A
  8
0
 10
76.69777357956656
 20
17.06483262292014
 30
244.7000000000002
 70
   192
  0
VERTEX
  5
185B
  8
0
 10
17.2500000012813
 20
17.24999999999914
 30
244.7000000000002
 70
   192
  0
VERTEX
  5
185C
  8
0
 10
136.14324022726
 20
16.50934486259574
 30
244.7000000000002
 70
   192
  0
VERTEX
  5
185D
  8
0
 10
195.58409309463
 20
15.5835582753674
 30
244.7000000000002
 70
   192
  0
VERTEX
  5
185E
  8
0
 10
76.69279002683272
 20
16.26484814564863
 30
245.5000000000002
 70
   192
  0
VERTEX
  5
185F
  8
0
 10
17.24999999999945
 20
16.44999999999949
 30
245.5000000000001
 70
   192
  0
VERTEX
  5
1860
  8
0
 10
136.1332733164812
 20
15.70940695227875
 30
245.5000000000002
 70
   192
  0
VERTEX
  5
1861
  8
0
 10
195.5691432123085
 20
14.78369797442885
 30
245.5000000000001
 70
   192
  0
VERTEX
  5
1862
  8
0
 10
0.0
 20
0.0
 30
0.0
 70
   128
 71
     1
 72
     2
 73
    -3
  0
VERTEX
  5
1863
  8
0
 10
0.0
 20
0.0
 30
0.0
 70
   128
 71
    -1
 72
     3
 73
     4
  0
VERTEX
  5
1864
  8
0
 10
0.0
 20
0.0
 30
0.0
 70
   128
 71
     5
 72
     6
 73
     3
  0
VERTEX
  5
1865
  8
0
 10
0.0
 20
0.0
 30
0.0
 70
   128
 71
     7
 72
     5
 73
    -3
  0
VERTEX
  5
1866
  8
0
 10
0.0
 20
0.0
 30
0.0
 70
   128
 71
    -7
 72
     3
 73
     2
  0
VERTEX
  5
1867
  8
0
 10
0.0
 20
0.0
 30
0.0
 70
   128
 71
     2
 72
     8
 73
     7
  0
VERTEX
  5
1868
  8
0
 10
0.0
 20
0.0
 30
0.0
 70
   128
 71
     9
 72
     4
 73
    10
  0
VERTEX
  5
1869
  8
0
 10
0.0
 20
0.0
 30
0.0
 70
   128
 71
    11
 72
    12
 73
     1
  0
VERTEX
  5
186A
  8
0
 10
0.0
 20
0.0
 30
0.0
 70
   128
 71
     1
 72
     4
 73
    -9
  0
VERTEX
  5
186B
  8
0
 10
0.0
 20
0.0
 30
0.0
 70
   128
 71
    -1
 72
     9
 73
    11
  0
SEQEND
  5
1C83
  8
0
  0
POLYLINE
  5
186C
  8
0
 66
     1
 10
0.0
 20
0.0
 30
0.0
 70
    64
 71
    18
 72
    16
  0
VERTEX
  5
186D
  8
0
 10
-12.74999999416568
 20
17.24999999999998
 30
5.500000000000147
 70
   192
  0
VERTEX
  5
186E
  8
0
 10
-4.249999995263869
 20
17.24999999999998
 30
5.500000000000151
 70
   192
  0
VERTEX
  5
186F
  8
0
 10
4.250000002782307
 20
17.24999999999998
 30
5.50000000000015
 70
   192
  0
VERTEX
  5
1870
  8
0
 10
12.750000000401
 20
17.24999999999998
 30
5.500000000000147
 70
   192
  0
VERTEX
  5
1871
  8
0
 10
12.75000000043672
 20
17.24999999999973
 30
76.99178653490631
 70
   192
  0
VERTEX
  5
1872
  8
0
 10
12.7500000004338
 20
17.24999999999948
 30
148.4835730696495
 70
   192
  0
VERTEX
  5
1873
  8
0
 10
12.75000000035294
 20
17.24999999999924
 30
219.9753596040666
 70
   192
  0
VERTEX
  5
1874
  8
0
 10
13.28590795587345
 20
17.24999999999923
 30
223.2867566916955
 70
   192
  0
VERTEX
  5
1875
  8
0
 10
14.83872911774941
 20
17.24999999999921
 30
226.2601828372583
 70
   192
  0
VERTEX
  5
1876
  8
0
 10
17.25000000340955
 20
17.2499999999996
 30
228.5922035747951
 70
   192
  0
VERTEX
  5
1877
  8
0
 10
17.25000000283755
 20
17.25000000000028
 30
233.9614690498653
 70
   192
  0
VERTEX
  5
1878
  8
0
 10
17.25000000215833
 20
17.25000000000017
 30
239.3307345249333
 70
   192
  0
VERTEX
  5
1879
  8
0
 10
17.2500000012813
 20
17.24999999999914
 30
244.7000000000002
 70
   192
  0
VERTEX
  5
187A
  8
0
 10
7.250000003514832
 20
17.24999999999915
 30
244.7000000000002
 70
   192
  0
VERTEX
  5
187B
  8
0
 10
-2.749999994871063
 20
17.24999999999915
 30
244.7000000000002
 70
   192
  0
VERTEX
  5
187C
  8
0
 10
-12.74999999421
 20
17.24999999999914
 30
244.7000000000002
 70
   192
  0
VERTEX
  5
187D
  8
0
 10
-12.7499999929127
 20
17.24999999999943
 30
164.9666666666668
 70
   192
  0
VERTEX
  5
187E
  8
0
 10
-12.74999999289895
 20
17.2499999999997
 30
85.23333333333345
 70
   192
  0
VERTEX
  5
187F
  8
0
 10
0.0
 20
0.0
 30
0.0
 70
   128
 71
     7
 72
    -6
 73
   -17
  0
VERTEX
  5
1880
  8
0
 10
0.0
 20
0.0
 30
0.0
 70
   128
 71
    -7
 72
   -17
 73
   -14
  0
VERTEX
  5
1881
  8
0
 10
0.0
 20
0.0
 30
0.0
 70
   128
 71
   -14
 72
     8
 73
    -7
  0
VERTEX
  5
1882
  8
0
 10
0.0
 20
0.0
 30
0.0
 70
   128
 71
   -14
 72
     9
 73
    -8
  0
VERTEX
  5
1883
  8
0
 10
0.0
 20
0.0
 30
0.0
 70
   128
 71
   -14
 72
    11
 73
   -10
  0
VERTEX
  5
1884
  8
0
 10
0.0
 20
0.0
 30
0.0
 70
   128
 71
   -14
 72
    10
 73
    -9
  0
VERTEX
  5
1885
  8
0
 10
0.0
 20
0.0
 30
0.0
 70
   128
 71
   -14
 72
    12
 73
   -11
  0
VERTEX
  5
1886
  8
0
 10
0.0
 20
0.0
 30
0.0
 70
   128
 71
    14
 72
    13
 73
   -12
  0
VERTEX
  5
1887
  8
0
 10
0.0
 20
0.0
 30
0.0
 70
   128
 71
   -17
 72
    15
 73
   -14
  0
VERTEX
  5
1888
  8
0
 10
0.0
 20
0.0
 30
0.0
 70
   128
 71
    17
 72
    16
 73
   -15
  0
VERTEX
  5
1889
  8
0
 10
0.0
 20
0.0
 30
0.0
 70
   128
 71
     6
 72
    -5
 73
   -18
  0
VERTEX
  5
188A
  8
0
 10
0.0
 20
0.0
 30
0.0
 70
   128
 71
    -6
 72
    18
 73
   -17
  0
VERTEX
  5
188B
  8
0
 10
0.0
 20
0.0
 30
0.0
 70
   128
 71
     2
 72
     1
 73
   -18
  0
VERTEX
  5
188C
  8
0
 10
0.0
 20
0.0
 30
0.0
 70
   128
 71
    -2
 72
   -18
 73
    -5
  0
VERTEX
  5
188D
  8
0
 10
0.0
 20
0.0
 30
0.0
 70
   128
 71
    -5
 72
     3
 73
    -2
  0
VERTEX
  5
188E
  8
0
 10
0.0
 20
0.0
 30
0.0
 70
   128
 71
     5
 72
     4
 73
    -3
  0
SEQEND
  5
1C84
  8
0
  0
POLYLINE
  5
188F
  8
0
 66
     1
 10
0.0
 20
0.0
 30
0.0
 70
    64
 71
    10
 72
     8
  0
VERTEX
  5
1890
  8
0
 10
14.99988038763221
 20
-16.6469301258529
 30
5.499999999999991
 70
   192
  0
VERTEX
  5
1891
  8
0
 10
16.64693012605288
 20
-14.99988038728584
 30
5.499999999999998
 70
   192
  0
VERTEX
  5
1892
  8
0
 10
16.64693012611788
 20
-14.99988038717408
 30
219.9753596026
 70
   192
  0
VERTEX
  5
1893
  8
0
 10
12.75000000039521
 20
-17.25000000000027
 30
76.99178653490617
 70
   192
  0
VERTEX
  5
1894
  8
0
 10
12.7500000002498
 20
-17.25000000000002
 30
5.500000000000026
 70
   192
  0
VERTEX
  5
1895
  8
0
 10
12.7500000004542
 20
-17.25000000000052
 30
148.4835730696494
 70
   192
  0
VERTEX
  5
1896
  8
0
 10
14.9998803878573
 20
-16.64693012572375
 30
219.9753596026
 70
   192
  0
VERTEX
  5
1897
  8
0
 10
17.25
 20
-12.75000000000002
 30
5.500000000000043
 70
   192
  0
VERTEX
  5
1898
  8
0
 10
17.25
 20
-12.75000000000077
 30
219.9753596026
 70
   192
  0
VERTEX
  5
1899
  8
0
 10
12.75000000043994
 20
-17.25000000000077
 30
219.9753596040665
 70
   192
  0
VERTEX
  5
189A
  8
0
 10
0.0
 20
0.0
 30
0.0
 70
   128
 71
     1
 72
     2
 73
    -3
  0
VERTEX
  5
189B
  8
0
 10
0.0
 20
0.0
 30
0.0
 70
   128
 71
     4
 72
     5
 73
    -1
  0
VERTEX
  5
189C
  8
0
 10
0.0
 20
0.0
 30
0.0
 70
   128
 71
    -1
 72
     6
 73
    -4
  0
VERTEX
  5
189D
  8
0
 10
0.0
 20
0.0
 30
0.0
 70
   128
 71
     1
 72
    -7
 73
    -6
  0
VERTEX
  5
189E
  8
0
 10
0.0
 20
0.0
 30
0.0
 70
   128
 71
     2
 72
     8
 73
    -9
  0
VERTEX
  5
189F
  8
0
 10
0.0
 20
0.0
 30
0.0
 70
   128
 71
    10
 72
    -6
 73
     7
  0
VERTEX
  5
18A0
  8
0
 10
0.0
 20
0.0
 30
0.0
 70
   128
 71
     7
 72
    -1
 73
     3
  0
VERTEX
  5
18A1
  8
0
 10
0.0
 20
0.0
 30
0.0
 70
   128
 71
     3
 72
    -2
 73
     9
  0
SEQEND
  5
1C85
  8
0
  0
POLYLINE
  5
18A2
  8
0
 66
     1
 10
0.0
 20
0.0
 30
0.0
 70
    64
 71
    16
 72
    14
  0
VERTEX
  5
18A3
  8
0
 10
17.2500000008069
 20
-17.2500000000012
 30
244.7
 70
   192
  0
VERTEX
  5
18A4
  8
0
 10
7.250000001790037
 20
-17.25000000000096
 30
244.7
 70
   192
  0
VERTEX
  5
18A5
  8
0
 10
-2.749999997442504
 20
-17.25000000000087
 30
244.7
 70
   192
  0
VERTEX
  5
18A6
  8
0
 10
-12.74999999710432
 20
-17.25000000000086
 30
244.7
 70
   192
  0
VERTEX
  5
18A7
  8
0
 10
-12.74999999647512
 20
-17.25000000000058
 30
164.9666666666667
 70
   192
  0
VERTEX
  5
18A8
  8
0
 10
-12.74999999659823
 20
-17.2500000000003
 30
85.23333333333336
 70
   192
  0
VERTEX
  5
18A9
  8
0
 10
-12.74999999758124
 20
-17.25000000000002
 30
5.500000000000002
 70
   192
  0
VERTEX
  5
18AA
  8
0
 10
-4.249999997722227
 20
-17.25000000000002
 30
5.500000000000022
 70
   192
  0
VERTEX
  5
18AB
  8
0
 10
4.250000001458412
 20
-17.25000000000002
 30
5.500000000000028
 70
   192
  0
VERTEX
  5
18AC
  8
0
 10
12.7500000002498
 20
-17.25000000000002
 30
5.500000000000026
 70
   192
  0
VERTEX
  5
18AD
  8
0
 10
12.75000000039521
 20
-17.25000000000027
 30
76.99178653490617
 70
   192
  0
VERTEX
  5
18AE
  8
0
 10
12.7500000004542
 20
-17.25000000000052
 30
148.4835730696494
 70
   192
  0
VERTEX
  5
18AF
  8
0
 10
12.75000000043994
 20
-17.25000000000077
 30
219.9753596040665
 70
   192
  0
VERTEX
  5
18B0
  8
0
 10
13.28590795564724
 20
-17.25000000000078
 30
223.2867566910149
 70
   192
  0
VERTEX
  5
18B1
  8
0
 10
14.8387291168909
 20
-17.25000000000079
 30
226.2601828361092
 70
   192
  0
VERTEX
  5
18B2
  8
0
 10
17.2500000016195
 20
-17.24999999999945
 30
228.592203573588
 70
   192
  0
VERTEX
  5
18B3
  8
0
 10
0.0
 20
0.0
 30
0.0
 70
   128
 71
     6
 72
     7
 73
    -8
  0
VERTEX
  5
18B4
  8
0
 10
0.0
 20
0.0
 30
0.0
 70
   128
 71
   -11
 72
    -6
 73
    -8
  0
VERTEX
  5
18B5
  8
0
 10
0.0
 20
0.0
 30
0.0
 70
   128
 71
     8
 72
    -9
 73
   -11
  0
VERTEX
  5
18B6
  8
0
 10
0.0
 20
0.0
 30
0.0
 70
   128
 71
     9
 72
    10
 73
   -11
  0
VERTEX
  5
18B7
  8
0
 10
0.0
 20
0.0
 30
0.0
 70
   128
 71
   -12
 72
     5
 73
    -6
  0
VERTEX
  5
18B8
  8
0
 10
0.0
 20
0.0
 30
0.0
 70
   128
 71
    11
 72
   -12
 73
    -6
  0
VERTEX
  5
18B9
  8
0
 10
0.0
 20
0.0
 30
0.0
 70
   128
 71
   -13
 72
     4
 73
    -5
  0
VERTEX
  5
18BA
  8
0
 10
0.0
 20
0.0
 30
0.0
 70
   128
 71
    12
 72
   -13
 73
    -5
  0
VERTEX
  5
18BB
  8
0
 10
0.0
 20
0.0
 30
0.0
 70
   128
 71
    13
 72
   -14
 73
    -4
  0
VERTEX
  5
18BC
  8
0
 10
0.0
 20
0.0
 30
0.0
 70
   128
 71
   -15
 72
     3
 73
    -4
  0
VERTEX
  5
18BD
  8
0
 10
0.0
 20
0.0
 30
0.0
 70
   128
 71
    14
 72
   -15
 73
    -4
  0
VERTEX
  5
18BE
  8
0
 10
0.0
 20
0.0
 30
0.0
 70
   128
 71
    16
 72
     1
 73
    -2
  0
VERTEX
  5
18BF
  8
0
 10
0.0
 20
0.0
 30
0.0
 70
   128
 71
    15
 72
   -16
 73
    -2
  0
VERTEX
  5
18C0
  8
0
 10
0.0
 20
0.0
 30
0.0
 70
   128
 71
     2
 72
    -3
 73
   -15
  0
SEQEND
  5
1C86
  8
0
  0
POLYLINE
  5
18C1
  8
0
 66
     1
 10
0.0
 20
0.0
 30
0.0
 70
    64
 71
    10
 72
     8
  0
VERTEX
  5
18C2
  8
0
 10
14.99988038785929
 20
16.64693012572183
 30
5.50000000000013
 70
   192
  0
VERTEX
  5
18C3
  8
0
 10
12.750000000401
 20
17.24999999999998
 30
5.500000000000147
 70
   192
  0
VERTEX
  5
18C4
  8
0
 10
12.75000000043672
 20
17.24999999999973
 30
76.99178653490631
 70
   192
  0
VERTEX
  5
18C5
  8
0
 10
12.7500000004338
 20
17.24999999999948
 30
148.4835730696495
 70
   192
  0
VERTEX
  5
18C6
  8
0
 10
12.75000000035294
 20
17.24999999999924
 30
219.9753596040666
 70
   192
  0
VERTEX
  5
18C7
  8
0
 10
14.99988038770728
 20
16.6469301258088
 30
219.9753596026002
 70
   192
  0
VERTEX
  5
18C8
  8
0
 10
16.64693012607455
 20
14.99988038724753
 30
219.9753596026001
 70
   192
  0
VERTEX
  5
18C9
  8
0
 10
16.64693012611845
 20
14.9998803871723
 30
5.500000000000123
 70
   192
  0
VERTEX
  5
18CA
  8
0
 10
17.25
 20
12.74999999999923
 30
219.9753596026002
 70
   192
  0
VERTEX
  5
18CB
  8
0
 10
17.25
 20
12.74999999999998
 30
5.500000000000133
 70
   192
  0
VERTEX
  5
18CC
  8
0
 10
0.0
 20
0.0
 30
0.0
 70
   128
 71
     1
 72
     2
 73
    -3
  0
VERTEX
  5
18CD
  8
0
 10
0.0
 20
0.0
 30
0.0
 70
   128
 71
     4
 72
     5
 73
    -6
  0
VERTEX
  5
18CE
  8
0
 10
0.0
 20
0.0
 30
0.0
 70
   128
 71
    -6
 72
     3
 73
    -4
  0
VERTEX
  5
18CF
  8
0
 10
0.0
 20
0.0
 30
0.0
 70
   128
 71
     6
 72
    -1
 73
    -3
  0
VERTEX
  5
18D0
  8
0
 10
0.0
 20
0.0
 30
0.0
 70
   128
 71
     1
 72
     6
 73
    -7
  0
VERTEX
  5
18D1
  8
0
 10
0.0
 20
0.0
 30
0.0
 70
   128
 71
    -1
 72
     7
 73
     8
  0
VERTEX
  5
18D2
  8
0
 10
0.0
 20
0.0
 30
0.0
 70
   128
 71
     8
 72
     7
 73
    -9
  0
VERTEX
  5
18D3
  8
0
 10
0.0
 20
0.0
 30
0.0
 70
   128
 71
    -8
 72
     9
 73
    10
  0
SEQEND
  5
1C87
  8
0
  0
POLYLINE
  5
18D4
  8
0
 66
     1
 10
0.0
 20
0.0
 30
0.0
 70
    64
 71
     8
 72
     6
  0
VERTEX
  5
18D5
  8
0
 10
17.18265883505204
 20
12.74999999999998
 30
5.250157583677045
 70
   192
  0
VERTEX
  5
18D6
  8
0
 10
17.18265883505204
 20
-12.75000000000002
 30
5.250157583676958
 70
   192
  0
VERTEX
  5
18D7
  8
0
 10
16.99984241632309
 20
-12.75000000000002
 30
5.067341164948004
 70
   192
  0
VERTEX
  5
18D8
  8
0
 10
16.99984241632309
 20
12.74999999999998
 30
5.067341164948093
 70
   192
  0
VERTEX
  5
18D9
  8
0
 10
17.25
 20
12.74999999999998
 30
5.500000000000133
 70
   192
  0
VERTEX
  5
18DA
  8
0
 10
17.25
 20
-12.75000000000002
 30
5.500000000000043
 70
   192
  0
VERTEX
  5
18DB
  8
0
 10
16.75
 20
-12.75000000000002
 30
5.000000000000043
 70
   192
  0
VERTEX
  5
18DC
  8
0
 10
16.75
 20
12.74999999999998
 30
5.000000000000133
 70
   192
  0
VERTEX
  5
18DD
  8
0
 10
0.0
 20
0.0
 30
0.0
 70
   128
 71
     1
 72
     2
 73
    -3
  0
VERTEX
  5
18DE
  8
0
 10
0.0
 20
0.0
 30
0.0
 70
   128
 71
    -1
 72
     3
 73
     4
  0
VERTEX
  5
18DF
  8
0
 10
0.0
 20
0.0
 30
0.0
 70
   128
 71
     5
 72
     6
 73
    -2
  0
VERTEX
  5
18E0
  8
0
 10
0.0
 20
0.0
 30
0.0
 70
   128
 71
    -5
 72
     2
 73
     1
  0
VERTEX
  5
18E1
  8
0
 10
0.0
 20
0.0
 30
0.0
 70
   128
 71
     4
 72
     3
 73
    -7
  0
VERTEX
  5
18E2
  8
0
 10
0.0
 20
0.0
 30
0.0
 70
   128
 71
    -4
 72
     7
 73
     8
  0
SEQEND
  5
1C88
  8
0
  0
POLYLINE
  5
18E3
  8
0
 66
     1
 10
0.0
 20
0.0
 30
0.0
 70
    64
 71
    12
 72
    10
  0
VERTEX
  5
18E4
  8
0
 10
17.25000000000912
 20
-16.84974786611853
 30
245.3922541360839
 70
   192
  0
VERTEX
  5
18E5
  8
0
 10
17.25000000003929
 20
-17.14225413608549
 30
245.0997478661175
 70
   192
  0
VERTEX
  5
18E6
  8
0
 10
195.5820796108462
 20
-15.4758312264267
 30
245.0997478661173
 70
   192
  0
VERTEX
  5
18E7
  8
0
 10
195.5766134424559
 20
-15.18337603503323
 30
245.3922541360837
 70
   192
  0
VERTEX
  5
18E8
  8
0
 10
136.1432402282818
 20
-16.50934486258644
 30
244.7
 70
   192
  0
VERTEX
  5
18E9
  8
0
 10
195.5840930954595
 20
-15.58355827535385
 30
244.7
 70
   192
  0
VERTEX
  5
18EA
  8
0
 10
76.69777358007707
 20
-17.06483262291779
 30
244.7
 70
   192
  0
VERTEX
  5
18EB
  8
0
 10
17.2500000008069
 20
-17.2500000000012
 30
244.7
 70
   192
  0
VERTEX
  5
18EC
  8
0
 10
136.1332733164872
 20
-15.70940695227876
 30
245.5000000000001
 70
   192
  0
VERTEX
  5
18ED
  8
0
 10
195.56914321231
 20
-14.78369797443068
 30
245.5
 70
   192
  0
VERTEX
  5
18EE
  8
0
 10
76.6927900268399
 20
-16.26484814564825
 30
245.5000000000001
 70
   192
  0
VERTEX
  5
18EF
  8
0
 10
17.24999999999235
 20
-16.45000000000126
 30
245.5
 70
   192
  0
VERTEX
  5
18F0
  8
0
 10
0.0
 20
0.0
 30
0.0
 70
   128
 71
     1
 72
     2
 73
    -3
  0
VERTEX
  5
18F1
  8
0
 10
0.0
 20
0.0
 30
0.0
 70
   128
 71
    -1
 72
     3
 73
     4
  0
VERTEX
  5
18F2
  8
0
 10
0.0
 20
0.0
 30
0.0
 70
   128
 71
     5
 72
     6
 73
     3
  0
VERTEX
  5
18F3
  8
0
 10
0.0
 20
0.0
 30
0.0
 70
   128
 71
     7
 72
     5
 73
    -3
  0
VERTEX
  5
18F4
  8
0
 10
0.0
 20
0.0
 30
0.0
 70
   128
 71
    -7
 72
     3
 73
     2
  0
VERTEX
  5
18F5
  8
0
 10
0.0
 20
0.0
 30
0.0
 70
   128
 71
     2
 72
     8
 73
     7
  0
VERTEX
  5
18F6
  8
0
 10
0.0
 20
0.0
 30
0.0
 70
   128
 71
     9
 72
     4
 73
    10
  0
VERTEX
  5
18F7
  8
0
 10
0.0
 20
0.0
 30
0.0
 70
   128
 71
    11
 72
    12
 73
     1
  0
VERTEX
  5
18F8
  8
0
 10
0.0
 20
0.0
 30
0.0
 70
   128
 71
     1
 72
     4
 73
    -9
  0
VERTEX
  5
18F9
  8
0
 10
0.0
 20
0.0
 30
0.0
 70
   128
 71
    -1
 72
     9
 73
    11
  0
SEQEND
  5
1C89
  8
0
  0
POLYLINE
  5
18FA
  8
0
 66
     1
 10
0.0
 20
0.0
 30
0.0
 70
    64
 71
    12
 72
    10
  0
VERTEX
  5
18FB
  8
0
 10
199.4108785768836
 20
-13.30991075489022
 30
234.9894839141
 70
   192
  0
VERTEX
  5
18FC
  8
0
 10
199.4108785768757
 20
-13.30991075490408
 30
244.7
 70
   192
  0
VERTEX
  5
18FD
  8
0
 10
197.7982620198055
 20
-14.95294976741977
 30
244.7000000000001
 70
   192
  0
VERTEX
  5
18FE
  8
0
 10
197.7982620198338
 20
-14.95294976740294
 30
234.9894839141001
 70
   192
  0
VERTEX
  5
18FF
  8
0
 10
200.0
 20
-11.08434407664499
 30
241.4631613047001
 70
   192
  0
VERTEX
  5
1900
  8
0
 10
200.0
 20
-11.08434407571129
 30
244.7
 70
   192
  0
VERTEX
  5
1901
  8
0
 10
200.0
 20
-11.0843440766448
 30
238.2263226094001
 70
   192
  0
VERTEX
  5
1902
  8
0
 10
200.0
 20
-11.08434407571108
 30
234.9894839141
 70
   192
  0
VERTEX
  5
1903
  8
0
 10
195.5840930941233
 20
-15.58355827537742
 30
238.2263226092911
 70
   192
  0
VERTEX
  5
1904
  8
0
 10
195.5840930946445
 20
-15.58355827536842
 30
234.9894839139825
 70
   192
  0
VERTEX
  5
1905
  8
0
 10
195.5840930943345
 20
-15.58355827537363
 30
241.4631613046364
 70
   192
  0
VERTEX
  5
1906
  8
0
 10
195.5840930954595
 20
-15.58355827535385
 30
244.7
 70
   192
  0
VERTEX
  5
1907
  8
0
 10
0.0
 20
0.0
 30
0.0
 70
   128
 71
     1
 72
     2
 73
    -3
  0
VERTEX
  5
1908
  8
0
 10
0.0
 20
0.0
 30
0.0
 70
   128
 71
    -1
 72
     3
 73
     4
  0
VERTEX
  5
1909
  8
0
 10
0.0
 20
0.0
 30
0.0
 70
   128
 71
     5
 72
     6
 73
    -2
  0
VERTEX
  5
190A
  8
0
 10
0.0
 20
0.0
 30
0.0
 70
   128
 71
     2
 72
    -1
 73
    -7
  0
VERTEX
  5
190B
  8
0
 10
0.0
 20
0.0
 30
0.0
 70
   128
 71
    -2
 72
     7
 73
    -5
  0
VERTEX
  5
190C
  8
0
 10
0.0
 20
0.0
 30
0.0
 70
   128
 71
     1
 72
     8
 73
    -7
  0
VERTEX
  5
190D
  8
0
 10
0.0
 20
0.0
 30
0.0
 70
   128
 71
     9
 72
    10
 73
    -4
  0
VERTEX
  5
190E
  8
0
 10
0.0
 20
0.0
 30
0.0
 70
   128
 71
    -4
 72
    11
 73
    -9
  0
VERTEX
  5
190F
  8
0
 10
0.0
 20
0.0
 30
0.0
 70
   128
 71
     4
 72
     3
 73
   -12
  0
VERTEX
  5
1910
  8
0
 10
0.0
 20
0.0
 30
0.0
 70
   128
 71
    -4
 72
    12
 73
   -11
  0
SEQEND
  5
1C8A
  8
0
  0
POLYLINE
  5
1911
  8
0
 66
     1
 10
0.0
 20
0.0
 30
0.0
 70
    64
 71
    12
 72
    10
  0
VERTEX
  5
1912
  8
0
 10
200.0
 20
11.08434407586915
 30
244.7000000000001
 70
   192
  0
VERTEX
  5
1913
  8
0
 10
200.0
 20
3.694781359075802
 30
244.7000000000001
 70
   192
  0
VERTEX
  5
1914
  8
0
 10
200.0
 20
-3.694781357637647
 30
244.7000000000001
 70
   192
  0
VERTEX
  5
1915
  8
0
 10
200.0
 20
-11.08434407571129
 30
244.7
 70
   192
  0
VERTEX
  5
1916
  8
0
 10
200.0
 20
-11.08434407664499
 30
241.4631613047001
 70
   192
  0
VERTEX
  5
1917
  8
0
 10
200.0
 20
-11.0843440766448
 30
238.2263226094001
 70
   192
  0
VERTEX
  5
1918
  8
0
 10
200.0
 20
-11.08434407571108
 30
234.9894839141
 70
   192
  0
VERTEX
  5
1919
  8
0
 10
200.0
 20
-3.694781357637575
 30
234.9894839141001
 70
   192
  0
VERTEX
  5
191A
  8
0
 10
200.0
 20
3.694781359075725
 30
234.9894839141002
 70
   192
  0
VERTEX
  5
191B
  8
0
 10
200.0
 20
11.08434407586878
 30
234.9894839141001
 70
   192
  0
VERTEX
  5
191C
  8
0
 10
200.0
 20
11.08434407434847
 30
238.2263226094001
 70
   192
  0
VERTEX
  5
191D
  8
0
 10
200.0
 20
11.08434407434868
 30
241.4631613047001
 70
   192
  0
VERTEX
  5
191E
  8
0
 10
0.0
 20
0.0
 30
0.0
 70
   128
 71
     6
 72
     7
 73
    -8
  0
VERTEX
  5
191F
  8
0
 10
0.0
 20
0.0
 30
0.0
 70
   128
 71
    -9
 72
   -11
 73
    -6
  0
VERTEX
  5
1920
  8
0
 10
0.0
 20
0.0
 30
0.0
 70
   128
 71
     8
 72
    -9
 73
    -6
  0
VERTEX
  5
1921
  8
0
 10
0.0
 20
0.0
 30
0.0
 70
   128
 71
     9
 72
    10
 73
   -11
  0
VERTEX
  5
1922
  8
0
 10
0.0
 20
0.0
 30
0.0
 70
   128
 71
   -12
 72
     5
 73
    -6
  0
VERTEX
  5
1923
  8
0
 10
0.0
 20
0.0
 30
0.0
 70
   128
 71
    11
 72
   -12
 73
    -6
  0
VERTEX
  5
1924
  8
0
 10
0.0
 20
0.0
 30
0.0
 70
   128
 71
    12
 72
     1
 73
    -2
  0
VERTEX
  5
1925
  8
0
 10
0.0
 20
0.0
 30
0.0
 70
   128
 71
    -3
 72
    -5
 73
   -12
  0
VERTEX
  5
1926
  8
0
 10
0.0
 20
0.0
 30
0.0
 70
   128
 71
     2
 72
    -3
 73
   -12
  0
VERTEX
  5
1927
  8
0
 10
0.0
 20
0.0
 30
0.0
 70
   128
 71
     3
 72
     4
 73
    -5
  0
SEQEND
  5
1C8B
  8
0
  0
POLYLINE
  5
1928
  8
0
 66
     1
 10
0.0
 20
0.0
 30
0.0
 70
    64
 71
    12
 72
    10
  0
VERTEX
  5
1929
  8
0
 10
197.7982620179483
 20
14.95294976852141
 30
244.7
 70
   192
  0
VERTEX
  5
192A
  8
0
 10
195.58409309463
 20
15.5835582753674
 30
244.7000000000002
 70
   192
  0
VERTEX
  5
192B
  8
0
 10
195.5820796108229
 20
15.4758312264264
 30
245.0997478661166
 70
   192
  0
VERTEX
  5
192C
  8
0
 10
199.8922541360832
 20
11.08434408245582
 30
245.099747866117
 70
   192
  0
VERTEX
  5
192D
  8
0
 10
199.4108785758272
 20
13.30991075674499
 30
244.7
 70
   192
  0
VERTEX
  5
192E
  8
0
 10
200.0
 20
11.08434407586915
 30
244.7000000000001
 70
   192
  0
VERTEX
  5
192F
  8
0
 10
195.5766134424632
 20
15.18337603503321
 30
245.3922541360829
 70
   192
  0
VERTEX
  5
1930
  8
0
 10
199.599747866117
 20
11.08434408270916
 30
245.3922541360834
 70
   192
  0
VERTEX
  5
1931
  8
0
 10
198.7156112712902
 20
12.91425446295018
 30
245.5000000000002
 70
   192
  0
VERTEX
  5
1932
  8
0
 10
199.2
 20
11.0843440827092
 30
245.5000000000001
 70
   192
  0
VERTEX
  5
1933
  8
0
 10
197.3896821025542
 20
14.26519764724938
 30
245.5000000000002
 70
   192
  0
VERTEX
  5
1934
  8
0
 10
195.5691432123085
 20
14.78369797442885
 30
245.5000000000001
 70
   192
  0
VERTEX
  5
1935
  8
0
 10
0.0
 20
0.0
 30
0.0
 70
   128
 71
     1
 72
     2
 73
     3
  0
VERTEX
  5
1936
  8
0
 10
0.0
 20
0.0
 30
0.0
 70
   128
 71
     3
 72
     4
 73
    -5
  0
VERTEX
  5
1937
  8
0
 10
0.0
 20
0.0
 30
0.0
 70
   128
 71
    -3
 72
     5
 73
     1
  0
VERTEX
  5
1938
  8
0
 10
0.0
 20
0.0
 30
0.0
 70
   128
 71
     4
 72
     6
 73
     5
  0
VERTEX
  5
1939
  8
0
 10
0.0
 20
0.0
 30
0.0
 70
   128
 71
     7
 72
     8
 73
    -4
  0
VERTEX
  5
193A
  8
0
 10
0.0
 20
0.0
 30
0.0
 70
   128
 71
    -7
 72
     4
 73
     3
  0
VERTEX
  5
193B
  8
0
 10
0.0
 20
0.0
 30
0.0
 70
   128
 71
     9
 72
    10
 73
     8
  0
VERTEX
  5
193C
  8
0
 10
0.0
 20
0.0
 30
0.0
 70
   128
 71
     8
 72
    11
 73
     9
  0
VERTEX
  5
193D
  8
0
 10
0.0
 20
0.0
 30
0.0
 70
   128
 71
    12
 72
    11
 73
     8
  0
VERTEX
  5
193E
  8
0
 10
0.0
 20
0.0
 30
0.0
 70
   128
 71
    12
 72
     8
 73
     7
  0
SEQEND
  5
1C8C
  8
0
  0
POLYLINE
  5
193F
  8
0
 66
     1
 10
0.0
 20
0.0
 30
0.0
 70
    64
 71
    22
 72
    20
  0
VERTEX
  5
1940
  8
0
 10
195.56914321231
 20
-14.78369797443068
 30
245.5
 70
   192
  0
VERTEX
  5
1941
  8
0
 10
197.3911302699745
 20
-14.26511713969641
 30
245.5
 70
   192
  0
VERTEX
  5
1942
  8
0
 10
198.7154893970736
 20
-12.91578044372876
 30
245.5000000000001
 70
   192
  0
VERTEX
  5
1943
  8
0
 10
199.2
 20
-11.08434408271086
 30
245.5000000000001
 70
   192
  0
VERTEX
  5
1944
  8
0
 10
199.2
 20
11.0843440827092
 30
245.5000000000001
 70
   192
  0
VERTEX
  5
1945
  8
0
 10
198.7156112712902
 20
12.91425446295018
 30
245.5000000000002
 70
   192
  0
VERTEX
  5
1946
  8
0
 10
197.3896821025542
 20
14.26519764724938
 30
245.5000000000002
 70
   192
  0
VERTEX
  5
1947
  8
0
 10
195.5691432123085
 20
14.78369797442885
 30
245.5000000000001
 70
   192
  0
VERTEX
  5
1948
  8
0
 10
136.1332733164812
 20
15.70940695227875
 30
245.5000000000002
 70
   192
  0
VERTEX
  5
1949
  8
0
 10
76.69279002683272
 20
16.26484814564863
 30
245.5000000000002
 70
   192
  0
VERTEX
  5
194A
  8
0
 10
17.24999999999945
 20
16.44999999999949
 30
245.5000000000001
 70
   192
  0
VERTEX
  5
194B
  8
0
 10
-12.75000000000134
 20
16.44999999999914
 30
245.5000000000001
 70
   192
  0
VERTEX
  5
194C
  8
0
 10
-14.60141204878676
 20
15.95408392452744
 30
245.5000000000001
 70
   192
  0
VERTEX
  5
194D
  8
0
 10
-15.95401453794655
 20
14.60148844482276
 30
245.5000000000001
 70
   192
  0
VERTEX
  5
194E
  8
0
 10
-16.45
 20
12.74999999999914
 30
245.5000000000001
 70
   192
  0
VERTEX
  5
194F
  8
0
 10
-16.45
 20
-12.75000000000086
 30
245.5
 70
   192
  0
VERTEX
  5
1950
  8
0
 10
-15.95408392452674
 20
-14.60141204879021
 30
245.5000000000001
 70
   192
  0
VERTEX
  5
1951
  8
0
 10
-14.60148844481885
 20
-15.95401453795185
 30
245.5000000000001
 70
   192
  0
VERTEX
  5
1952
  8
0
 10
-12.74999999999332
 20
-16.45000000000055
 30
245.5
 70
   192
  0
VERTEX
  5
1953
  8
0
 10
17.24999999999235
 20
-16.45000000000126
 30
245.5
 70
   192
  0
VERTEX
  5
1954
  8
0
 10
76.6927900268399
 20
-16.26484814564825
 30
245.5000000000001
 70
   192
  0
VERTEX
  5
1955
  8
0
 10
136.1332733164872
 20
-15.70940695227876
 30
245.5000000000001
 70
   192
  0
VERTEX
  5
1956
  8
0
 10
0.0
 20
0.0
 30
0.0
 70
   128
 71
    18
 72
    19
 73
   -20
  0
VERTEX
  5
1957
  8
0
 10
0.0
 20
0.0
 30
0.0
 70
   128
 71
    17
 72
   -18
 73
   -20
  0
VERTEX
  5
1958
  8
0
 10
0.0
 20
0.0
 30
0.0
 70
   128
 71
    16
 72
   -17
 73
   -20
  0
VERTEX
  5
1959
  8
0
 10
0.0
 20
0.0
 30
0.0
 70
   128
 71
    15
 72
   -16
 73
   -20
  0
VERTEX
  5
195A
  8
0
 10
0.0
 20
0.0
 30
0.0
 70
   128
 71
    14
 72
   -15
 73
   -20
  0
VERTEX
  5
195B
  8
0
 10
0.0
 20
0.0
 30
0.0
 70
   128
 71
    13
 72
   -14
 73
   -20
  0
VERTEX
  5
195C
  8
0
 10
0.0
 20
0.0
 30
0.0
 70
   128
 71
    12
 72
   -13
 73
   -20
  0
VERTEX
  5
195D
  8
0
 10
0.0
 20
0.0
 30
0.0
 70
   128
 71
    11
 72
   -12
 73
   -20
  0
VERTEX
  5
195E
  8
0
 10
0.0
 20
0.0
 30
0.0
 70
   128
 71
   -21
 72
    10
 73
   -11
  0
VERTEX
  5
195F
  8
0
 10
0.0
 20
0.0
 30
0.0
 70
   128
 71
    20
 72
   -21
 73
   -11
  0
VERTEX
  5
1960
  8
0
 10
0.0
 20
0.0
 30
0.0
 70
   128
 71
   -22
 72
     9
 73
   -10
  0
VERTEX
  5
1961
  8
0
 10
0.0
 20
0.0
 30
0.0
 70
   128
 71
    21
 72
   -22
 73
   -10
  0
VERTEX
  5
1962
  8
0
 10
0.0
 20
0.0
 30
0.0
 70
   128
 71
     7
 72
     8
 73
    -9
  0
VERTEX
  5
1963
  8
0
 10
0.0
 20
0.0
 30
0.0
 70
   128
 71
     6
 72
    -7
 73
    -9
  0
VERTEX
  5
1964
  8
0
 10
0.0
 20
0.0
 30
0.0
 70
   128
 71
     5
 72
    -6
 73
    -9
  0
VERTEX
  5
1965
  8
0
 10
0.0
 20
0.0
 30
0.0
 70
   128
 71
     4
 72
    -5
 73
    -9
  0
VERTEX
  5
1966
  8
0
 10
0.0
 20
0.0
 30
0.0
 70
   128
 71
     3
 72
    -4
 73
    -9
  0
VERTEX
  5
1967
  8
0
 10
0.0
 20
0.0
 30
0.0
 70
   128
 71
     2
 72
    -3
 73
    -9
  0
VERTEX
  5
1968
  8
0
 10
0.0
 20
0.0
 30
0.0
 70
   128
 71
     1
 72
    -2
 73
    -9
  0
VERTEX
  5
1969
  8
0
 10
0.0
 20
0.0
 30
0.0
 70
   128
 71
    22
 72
    -1
 73
    -9
  0
SEQEND
  5
1C8D
  8
0
  0
POLYLINE
  5
196A
  8
0
 66
     1
 10
0.0
 20
0.0
 30
0.0
 70
    64
 71
    10
 72
     8
  0
VERTEX
  5
196B
  8
0
 10
12.75000000000904
 20
16.74999999999998
 30
5.000000000000147
 70
   192
  0
VERTEX
  5
196C
  8
0
 10
-12.74999999994
 20
16.74999999999998
 30
5.000000000000147
 70
   192
  0
VERTEX
  5
196D
  8
0
 10
-12.74999999993645
 20
16.99984241632307
 30
5.067341164948109
 70
   192
  0
VERTEX
  5
196E
  8
0
 10
12.75000000001022
 20
16.99984241632307
 30
5.067341164948109
 70
   192
  0
VERTEX
  5
196F
  8
0
 10
-12.74999999972031
 20
17.18265883505202
 30
5.250157583677064
 70
   192
  0
VERTEX
  5
1970
  8
0
 10
12.75000000002496
 20
17.18265883505202
 30
5.250157583677064
 70
   192
  0
VERTEX
  5
1971
  8
0
 10
4.250000002782307
 20
17.24999999999998
 30
5.50000000000015
 70
   192
  0
VERTEX
  5
1972
  8
0
 10
12.750000000401
 20
17.24999999999998
 30
5.500000000000147
 70
   192
  0
VERTEX
  5
1973
  8
0
 10
-4.249999995263869
 20
17.24999999999998
 30
5.500000000000151
 70
   192
  0
VERTEX
  5
1974
  8
0
 10
-12.74999999416568
 20
17.24999999999998
 30
5.500000000000147
 70
   192
  0
VERTEX
  5
1975
  8
0
 10
0.0
 20
0.0
 30
0.0
 70
   128
 71
     1
 72
     2
 73
    -3
  0
VERTEX
  5
1976
  8
0
 10
0.0
 20
0.0
 30
0.0
 70
   128
 71
    -1
 72
     3
 73
     4
  0
VERTEX
  5
1977
  8
0
 10
0.0
 20
0.0
 30
0.0
 70
   128
 71
     4
 72
     3
 73
    -5
  0
VERTEX
  5
1978
  8
0
 10
0.0
 20
0.0
 30
0.0
 70
   128
 71
    -4
 72
     5
 73
     6
  0
VERTEX
  5
1979
  8
0
 10
0.0
 20
0.0
 30
0.0
 70
   128
 71
     7
 72
     8
 73
    -6
  0
VERTEX
  5
197A
  8
0
 10
0.0
 20
0.0
 30
0.0
 70
   128
 71
    -6
 72
     9
 73
    -7
  0
VERTEX
  5
197B
  8
0
 10
0.0
 20
0.0
 30
0.0
 70
   128
 71
     6
 72
    -5
 73
    -9
  0
VERTEX
  5
197C
  8
0
 10
0.0
 20
0.0
 30
0.0
 70
   128
 71
     5
 72
    10
 73
    -9
  0
SEQEND
  5
1C8E
  8
0
  0
POLYLINE
  5
197D
  8
0
 66
     1
 10
0.0
 20
0.0
 30
0.0
 70
    64
 71
    12
 72
    10
  0
VERTEX
  5
197E
  8
0
 10
-14.99988038264367
 20
16.64693012873115
 30
244.7000000000001
 70
   192
  0
VERTEX
  5
197F
  8
0
 10
-14.99988038262056
 20
16.64693012874531
 30
5.500000000000131
 70
   192
  0
VERTEX
  5
1980
  8
0
 10
-16.64693012434556
 20
14.99988039024121
 30
5.500000000000125
 70
   192
  0
VERTEX
  5
1981
  8
0
 10
-16.64693012435224
 20
14.99988039022882
 30
244.7
 70
   192
  0
VERTEX
  5
1982
  8
0
 10
-12.74999999421
 20
17.24999999999914
 30
244.7000000000002
 70
   192
  0
VERTEX
  5
1983
  8
0
 10
-12.7499999929127
 20
17.24999999999943
 30
164.9666666666668
 70
   192
  0
VERTEX
  5
1984
  8
0
 10
-12.74999999289895
 20
17.2499999999997
 30
85.23333333333345
 70
   192
  0
VERTEX
  5
1985
  8
0
 10
-12.74999999416568
 20
17.24999999999998
 30
5.500000000000147
 70
   192
  0
VERTEX
  5
1986
  8
0
 10
-17.25
 20
12.75000000095083
 30
164.9666666666668
 70
   192
  0
VERTEX
  5
1987
  8
0
 10
-17.25
 20
12.750000000778
 30
244.7000000000002
 70
   192
  0
VERTEX
  5
1988
  8
0
 10
-17.25
 20
12.75000000095246
 30
85.23333333333343
 70
   192
  0
VERTEX
  5
1989
  8
0
 10
-17.25
 20
12.75000000078274
 30
5.500000000000133
 70
   192
  0
VERTEX
  5
198A
  8
0
 10
0.0
 20
0.0
 30
0.0
 70
   128
 71
     1
 72
     2
 73
    -3
  0
VERTEX
  5
198B
  8
0
 10
0.0
 20
0.0
 30
0.0
 70
   128
 71
    -1
 72
     3
 73
     4
  0
VERTEX
  5
198C
  8
0
 10
0.0
 20
0.0
 30
0.0
 70
   128
 71
     1
 72
     5
 73
    -6
  0
VERTEX
  5
198D
  8
0
 10
0.0
 20
0.0
 30
0.0
 70
   128
 71
     7
 72
     8
 73
    -2
  0
VERTEX
  5
198E
  8
0
 10
0.0
 20
0.0
 30
0.0
 70
   128
 71
    -2
 72
     6
 73
    -7
  0
VERTEX
  5
198F
  8
0
 10
0.0
 20
0.0
 30
0.0
 70
   128
 71
     2
 72
    -1
 73
    -6
  0
VERTEX
  5
1990
  8
0
 10
0.0
 20
0.0
 30
0.0
 70
   128
 71
     9
 72
    10
 73
    -4
  0
VERTEX
  5
1991
  8
0
 10
0.0
 20
0.0
 30
0.0
 70
   128
 71
    -4
 72
    11
 73
    -9
  0
VERTEX
  5
1992
  8
0
 10
0.0
 20
0.0
 30
0.0
 70
   128
 71
     4
 72
    -3
 73
   -11
  0
VERTEX
  5
1993
  8
0
 10
0.0
 20
0.0
 30
0.0
 70
   128
 71
     3
 72
    12
 73
   -11
  0
SEQEND
  5
1C8F
  8
0
  0
POLYLINE
  5
1994
  8
0
 66
     1
 10
0.0
 20
0.0
 30
0.0
 70
    64
 71
    10
 72
     8
  0
VERTEX
  5
1995
  8
0
 10
-12.75000000000134
 20
16.44999999999914
 30
245.5000000000001
 70
   192
  0
VERTEX
  5
1996
  8
0
 10
17.24999999999945
 20
16.44999999999949
 30
245.5000000000001
 70
   192
  0
VERTEX
  5
1997
  8
0
 10
17.24999999999998
 20
16.8497478661161
 30
245.3922541360835
 70
   192
  0
VERTEX
  5
1998
  8
0
 10
-12.75000000000005
 20
16.84974786611574
 30
245.3922541360836
 70
   192
  0
VERTEX
  5
1999
  8
0
 10
17.25000000004746
 20
17.14225413608241
 30
245.0997478661171
 70
   192
  0
VERTEX
  5
199A
  8
0
 10
-12.74999999978555
 20
17.1422541360823
 30
245.0997478661173
 70
   192
  0
VERTEX
  5
199B
  8
0
 10
-2.749999994871063
 20
17.24999999999915
 30
244.7000000000002
 70
   192
  0
VERTEX
  5
199C
  8
0
 10
-12.74999999421
 20
17.24999999999914
 30
244.7000000000002
 70
   192
  0
VERTEX
  5
199D
  8
0
 10
7.250000003514832
 20
17.24999999999915
 30
244.7000000000002
 70
   192
  0
VERTEX
  5
199E
  8
0
 10
17.2500000012813
 20
17.24999999999914
 30
244.7000000000002
 70
   192
  0
VERTEX
  5
199F
  8
0
 10
0.0
 20
0.0
 30
0.0
 70
   128
 71
     1
 72
     2
 73
    -3
  0
VERTEX
  5
19A0
  8
0
 10
0.0
 20
0.0
 30
0.0
 70
   128
 71
    -1
 72
     3
 73
     4
  0
VERTEX
  5
19A1
  8
0
 10
0.0
 20
0.0
 30
0.0
 70
   128
 71
     4
 72
     3
 73
    -5
  0
VERTEX
  5
19A2
  8
0
 10
0.0
 20
0.0
 30
0.0
 70
   128
 71
    -4
 72
     5
 73
     6
  0
VERTEX
  5
19A3
  8
0
 10
0.0
 20
0.0
 30
0.0
 70
   128
 71
     7
 72
     8
 73
    -6
  0
VERTEX
  5
19A4
  8
0
 10
0.0
 20
0.0
 30
0.0
 70
   128
 71
    -6
 72
     9
 73
    -7
  0
VERTEX
  5
19A5
  8
0
 10
0.0
 20
0.0
 30
0.0
 70
   128
 71
     6
 72
    -5
 73
    -9
  0
VERTEX
  5
19A6
  8
0
 10
0.0
 20
0.0
 30
0.0
 70
   128
 71
     5
 72
    10
 73
    -9
  0
SEQEND
  5
1C90
  8
0
  0
POLYLINE
  5
19A7
  8
0
 66
     1
 10
0.0
 20
0.0
 30
0.0
 70
    64
 71
    12
 72
    10
  0
VERTEX
  5
19A8
  8
0
 10
12.75000000000925
 20
-17.18265883505206
 30
5.250157583676941
 70
   192
  0
VERTEX
  5
19A9
  8
0
 10
16.99984241632309
 20
-12.75000000000002
 30
5.067341164948004
 70
   192
  0
VERTEX
  5
19AA
  8
0
 10
17.18265883505204
 20
-12.75000000000002
 30
5.250157583676958
 70
   192
  0
VERTEX
  5
19AB
  8
0
 10
12.75
 20
-16.9998424163231
 30
5.067341164947988
 70
   192
  0
VERTEX
  5
19AC
  8
0
 10
16.21393788976548
 20
-14.74989367769003
 30
5.000000000000036
 70
   192
  0
VERTEX
  5
19AD
  8
0
 10
16.75
 20
-12.75000000000002
 30
5.000000000000043
 70
   192
  0
VERTEX
  5
19AE
  8
0
 10
14.74989367769
 20
-16.2139378897655
 30
5.00000000000003
 70
   192
  0
VERTEX
  5
19AF
  8
0
 10
12.75
 20
-16.75000000000002
 30
5.000000000000028
 70
   192
  0
VERTEX
  5
19B0
  8
0
 10
16.64693012605288
 20
-14.99988038728584
 30
5.499999999999998
 70
   192
  0
VERTEX
  5
19B1
  8
0
 10
17.25
 20
-12.75000000000002
 30
5.500000000000043
 70
   192
  0
VERTEX
  5
19B2
  8
0
 10
14.99988038763221
 20
-16.6469301258529
 30
5.499999999999991
 70
   192
  0
VERTEX
  5
19B3
  8
0
 10
12.7500000002498
 20
-17.25000000000002
 30
5.500000000000026
 70
   192
  0
VERTEX
  5
19B4
  8
0
 10
0.0
 20
0.0
 30
0.0
 70
   128
 71
    -1
 72
     2
 73
     3
  0
VERTEX
  5
19B5
  8
0
 10
0.0
 20
0.0
 30
0.0
 70
   128
 71
     4
 72
    -2
 73
     1
  0
VERTEX
  5
19B6
  8
0
 10
0.0
 20
0.0
 30
0.0
 70
   128
 71
     5
 72
     6
 73
     2
  0
VERTEX
  5
19B7
  8
0
 10
0.0
 20
0.0
 30
0.0
 70
   128
 71
    -2
 72
     7
 73
     5
  0
VERTEX
  5
19B8
  8
0
 10
0.0
 20
0.0
 30
0.0
 70
   128
 71
     4
 72
     8
 73
     7
  0
VERTEX
  5
19B9
  8
0
 10
0.0
 20
0.0
 30
0.0
 70
   128
 71
     4
 72
    -7
 73
     2
  0
VERTEX
  5
19BA
  8
0
 10
0.0
 20
0.0
 30
0.0
 70
   128
 71
     9
 72
     3
 73
    10
  0
VERTEX
  5
19BB
  8
0
 10
0.0
 20
0.0
 30
0.0
 70
   128
 71
    11
 72
    12
 73
     1
  0
VERTEX
  5
19BC
  8
0
 10
0.0
 20
0.0
 30
0.0
 70
   128
 71
     1
 72
     3
 73
    -9
  0
VERTEX
  5
19BD
  8
0
 10
0.0
 20
0.0
 30
0.0
 70
   128
 71
    -1
 72
     9
 73
    11
  0
SEQEND
  5
1C91
  8
0
  0
POLYLINE
  5
19BE
  8
0
 66
     1
 10
0.0
 20
0.0
 30
0.0
 70
    64
 71
    12
 72
    10
  0
VERTEX
  5
19BF
  8
0
 10
-14.99988038456648
 20
-16.64693012762258
 30
5.500000000000157
 70
   192
  0
VERTEX
  5
19C0
  8
0
 10
-14.99988038517253
 20
-16.64693012727323
 30
244.7000000000001
 70
   192
  0
VERTEX
  5
19C1
  8
0
 10
-16.64693012534247
 20
-14.99988038851608
 30
244.7
 70
   192
  0
VERTEX
  5
19C2
  8
0
 10
-16.64693012464772
 20
-14.9998803897191
 30
5.500000000000163
 70
   192
  0
VERTEX
  5
19C3
  8
0
 10
-12.74999999758124
 20
-17.25000000000002
 30
5.500000000000002
 70
   192
  0
VERTEX
  5
19C4
  8
0
 10
-12.74999999659823
 20
-17.2500000000003
 30
85.23333333333336
 70
   192
  0
VERTEX
  5
19C5
  8
0
 10
-12.74999999647512
 20
-17.25000000000058
 30
164.9666666666667
 70
   192
  0
VERTEX
  5
19C6
  8
0
 10
-12.74999999710432
 20
-17.25000000000086
 30
244.7
 70
   192
  0
VERTEX
  5
19C7
  8
0
 10
-17.25
 20
-12.75000000186513
 30
85.23333333333342
 70
   192
  0
VERTEX
  5
19C8
  8
0
 10
-17.25
 20
-12.75000000156232
 30
5.500000000000012
 70
   192
  0
VERTEX
  5
19C9
  8
0
 10
-17.25
 20
-12.75000000159399
 30
164.9666666666668
 70
   192
  0
VERTEX
  5
19CA
  8
0
 10
-17.25
 20
-12.75000000051835
 30
244.7
 70
   192
  0
VERTEX
  5
19CB
  8
0
 10
0.0
 20
0.0
 30
0.0
 70
   128
 71
     1
 72
     2
 73
    -3
  0
VERTEX
  5
19CC
  8
0
 10
0.0
 20
0.0
 30
0.0
 70
   128
 71
    -1
 72
     3
 73
     4
  0
VERTEX
  5
19CD
  8
0
 10
0.0
 20
0.0
 30
0.0
 70
   128
 71
     1
 72
     5
 73
    -6
  0
VERTEX
  5
19CE
  8
0
 10
0.0
 20
0.0
 30
0.0
 70
   128
 71
     7
 72
     8
 73
    -2
  0
VERTEX
  5
19CF
  8
0
 10
0.0
 20
0.0
 30
0.0
 70
   128
 71
    -2
 72
     6
 73
    -7
  0
VERTEX
  5
19D0
  8
0
 10
0.0
 20
0.0
 30
0.0
 70
   128
 71
     2
 72
    -1
 73
    -6
  0
VERTEX
  5
19D1
  8
0
 10
0.0
 20
0.0
 30
0.0
 70
   128
 71
     9
 72
    10
 73
    -4
  0
VERTEX
  5
19D2
  8
0
 10
0.0
 20
0.0
 30
0.0
 70
   128
 71
    -4
 72
    11
 73
    -9
  0
VERTEX
  5
19D3
  8
0
 10
0.0
 20
0.0
 30
0.0
 70
   128
 71
     4
 72
    -3
 73
   -11
  0
VERTEX
  5
19D4
  8
0
 10
0.0
 20
0.0
 30
0.0
 70
   128
 71
     3
 72
    12
 73
   -11
  0
SEQEND
  5
1C92
  8
0
  0
POLYLINE
  5
19D5
  8
0
 66
     1
 10
0.0
 20
0.0
 30
0.0
 70
    64
 71
    10
 72
     8
  0
VERTEX
  5
19D6
  8
0
 10
-12.74999999999975
 20
-16.84974786611778
 30
245.3922541360833
 70
   192
  0
VERTEX
  5
19D7
  8
0
 10
-12.74999999989276
 20
-17.14225413608412
 30
245.099747866117
 70
   192
  0
VERTEX
  5
19D8
  8
0
 10
17.25000000003929
 20
-17.14225413608549
 30
245.0997478661175
 70
   192
  0
VERTEX
  5
19D9
  8
0
 10
17.24999999999235
 20
-16.45000000000126
 30
245.5
 70
   192
  0
VERTEX
  5
19DA
  8
0
 10
-12.74999999999332
 20
-16.45000000000055
 30
245.5
 70
   192
  0
VERTEX
  5
19DB
  8
0
 10
17.25000000000912
 20
-16.84974786611853
 30
245.3922541360839
 70
   192
  0
VERTEX
  5
19DC
  8
0
 10
7.250000001790037
 20
-17.25000000000096
 30
244.7
 70
   192
  0
VERTEX
  5
19DD
  8
0
 10
17.2500000008069
 20
-17.2500000000012
 30
244.7
 70
   192
  0
VERTEX
  5
19DE
  8
0
 10
-2.749999997442504
 20
-17.25000000000087
 30
244.7
 70
   192
  0
VERTEX
  5
19DF
  8
0
 10
-12.74999999710432
 20
-17.25000000000086
 30
244.7
 70
   192
  0
VERTEX
  5
19E0
  8
0
 10
0.0
 20
0.0
 30
0.0
 70
   128
 71
     1
 72
     2
 73
    -3
  0
VERTEX
  5
19E1
  8
0
 10
0.0
 20
0.0
 30
0.0
 70
   128
 71
     4
 72
     5
 73
    -1
  0
VERTEX
  5
19E2
  8
0
 10
0.0
 20
0.0
 30
0.0
 70
   128
 71
    -4
 72
     1
 73
     6
  0
VERTEX
  5
19E3
  8
0
 10
0.0
 20
0.0
 30
0.0
 70
   128
 71
     6
 72
    -1
 73
     3
  0
VERTEX
  5
19E4
  8
0
 10
0.0
 20
0.0
 30
0.0
 70
   128
 71
     7
 72
     8
 73
    -3
  0
VERTEX
  5
19E5
  8
0
 10
0.0
 20
0.0
 30
0.0
 70
   128
 71
    -3
 72
     9
 73
    -7
  0
VERTEX
  5
19E6
  8
0
 10
0.0
 20
0.0
 30
0.0
 70
   128
 71
     3
 72
    -2
 73
    -9
  0
VERTEX
  5
19E7
  8
0
 10
0.0
 20
0.0
 30
0.0
 70
   128
 71
     2
 72
    10
 73
    -9
  0
SEQEND
  5
1C93
  8
0
  0
POLYLINE
  5
19E8
  8
0
 66
     1
 10
0.0
 20
0.0
 30
0.0
 70
    64
 71
    10
 72
     8
  0
VERTEX
  5
19E9
  8
0
 10
-12.7499999999975
 20
-16.75000000000002
 30
4.99999999999998
 70
   192
  0
VERTEX
  5
19EA
  8
0
 10
12.75
 20
-16.75000000000002
 30
5.000000000000028
 70
   192
  0
VERTEX
  5
19EB
  8
0
 10
12.75
 20
-16.9998424163231
 30
5.067341164947988
 70
   192
  0
VERTEX
  5
19EC
  8
0
 10
-12.74999999999991
 20
-16.99984241632311
 30
5.067341164947988
 70
   192
  0
VERTEX
  5
19ED
  8
0
 10
12.75000000000925
 20
-17.18265883505206
 30
5.250157583676941
 70
   192
  0
VERTEX
  5
19EE
  8
0
 10
-12.74999999991042
 20
-17.18265883505206
 30
5.250157583676942
 70
   192
  0
VERTEX
  5
19EF
  8
0
 10
-4.249999997722227
 20
-17.25000000000002
 30
5.500000000000022
 70
   192
  0
VERTEX
  5
19F0
  8
0
 10
-12.74999999758124
 20
-17.25000000000002
 30
5.500000000000002
 70
   192
  0
VERTEX
  5
19F1
  8
0
 10
4.250000001458412
 20
-17.25000000000002
 30
5.500000000000028
 70
   192
  0
VERTEX
  5
19F2
  8
0
 10
12.7500000002498
 20
-17.25000000000002
 30
5.500000000000026
 70
   192
  0
VERTEX
  5
19F3
  8
0
 10
0.0
 20
0.0
 30
0.0
 70
   128
 71
     1
 72
     2
 73
    -3
  0
VERTEX
  5
19F4
  8
0
 10
0.0
 20
0.0
 30
0.0
 70
   128
 71
    -1
 72
     3
 73
     4
  0
VERTEX
  5
19F5
  8
0
 10
0.0
 20
0.0
 30
0.0
 70
   128
 71
     4
 72
     3
 73
    -5
  0
VERTEX
  5
19F6
  8
0
 10
0.0
 20
0.0
 30
0.0
 70
   128
 71
    -4
 72
     5
 73
     6
  0
VERTEX
  5
19F7
  8
0
 10
0.0
 20
0.0
 30
0.0
 70
   128
 71
     7
 72
     8
 73
    -6
  0
VERTEX
  5
19F8
  8
0
 10
0.0
 20
0.0
 30
0.0
 70
   128
 71
    -6
 72
     9
 73
    -7
  0
VERTEX
  5
19F9
  8
0
 10
0.0
 20
0.0
 30
0.0
 70
   128
 71
     6
 72
    -5
 73
    -9
  0
VERTEX
  5
19FA
  8
0
 10
0.0
 20
0.0
 30
0.0
 70
   128
 71
     5
 72
    10
 73
    -9
  0
SEQEND
  5
1C94
  8
0
  0
POLYLINE
  5
19FB
  8
0
 66
     1
 10
0.0
 20
0.0
 30
0.0
 70
    64
 71
    12
 72
    10
  0
VERTEX
  5
19FC
  8
0
 10
17.18265883505204
 20
12.74999999999998
 30
5.250157583677045
 70
   192
  0
VERTEX
  5
19FD
  8
0
 10
16.99984241632309
 20
12.74999999999998
 30
5.067341164948093
 70
   192
  0
VERTEX
  5
19FE
  8
0
 10
12.75000000001022
 20
16.99984241632307
 30
5.067341164948109
 70
   192
  0
VERTEX
  5
19FF
  8
0
 10
12.75000000002496
 20
17.18265883505202
 30
5.250157583677064
 70
   192
  0
VERTEX
  5
1A00
  8
0
 10
14.74989367769356
 20
16.21393788976342
 30
5.000000000000145
 70
   192
  0
VERTEX
  5
1A01
  8
0
 10
12.75000000000904
 20
16.74999999999998
 30
5.000000000000147
 70
   192
  0
VERTEX
  5
1A02
  8
0
 10
16.21393788976652
 20
14.74989367768821
 30
5.000000000000139
 70
   192
  0
VERTEX
  5
1A03
  8
0
 10
16.75
 20
12.74999999999998
 30
5.000000000000133
 70
   192
  0
VERTEX
  5
1A04
  8
0
 10
16.64693012611845
 20
14.9998803871723
 30
5.500000000000123
 70
   192
  0
VERTEX
  5
1A05
  8
0
 10
17.25
 20
12.74999999999998
 30
5.500000000000133
 70
   192
  0
VERTEX
  5
1A06
  8
0
 10
14.99988038785929
 20
16.64693012572183
 30
5.50000000000013
 70
   192
  0
VERTEX
  5
1A07
  8
0
 10
12.750000000401
 20
17.24999999999998
 30
5.500000000000147
 70
   192
  0
VERTEX
  5
1A08
  8
0
 10
0.0
 20
0.0
 30
0.0
 70
   128
 71
     1
 72
     2
 73
    -3
  0
VERTEX
  5
1A09
  8
0
 10
0.0
 20
0.0
 30
0.0
 70
   128
 71
    -1
 72
     3
 73
     4
  0
VERTEX
  5
1A0A
  8
0
 10
0.0
 20
0.0
 30
0.0
 70
   128
 71
     5
 72
     6
 73
     3
  0
VERTEX
  5
1A0B
  8
0
 10
0.0
 20
0.0
 30
0.0
 70
   128
 71
     3
 72
     7
 73
     5
  0
VERTEX
  5
1A0C
  8
0
 10
0.0
 20
0.0
 30
0.0
 70
   128
 71
     8
 72
     7
 73
     3
  0
VERTEX
  5
1A0D
  8
0
 10
0.0
 20
0.0
 30
0.0
 70
   128
 71
     8
 72
     3
 73
     2
  0
VERTEX
  5
1A0E
  8
0
 10
0.0
 20
0.0
 30
0.0
 70
   128
 71
     9
 72
    10
 73
     1
  0
VERTEX
  5
1A0F
  8
0
 10
0.0
 20
0.0
 30
0.0
 70
   128
 71
     1
 72
     4
 73
   -11
  0
VERTEX
  5
1A10
  8
0
 10
0.0
 20
0.0
 30
0.0
 70
   128
 71
    -1
 72
    11
 73
     9
  0
VERTEX
  5
1A11
  8
0
 10
0.0
 20
0.0
 30
0.0
 70
   128
 71
     4
 72
    12
 73
    11
  0
SEQEND
  5
1C95
  8
0
  0
POLYLINE
  5
1A12
  8
0
 66
     1
 10
0.0
 20
0.0
 30
0.0
 70
    64
 71
    12
 72
    10
  0
VERTEX
  5
1A13
  8
0
 10
197.7982620198055
 20
-14.95294976741977
 30
244.7000000000001
 70
   192
  0
VERTEX
  5
1A14
  8
0
 10
195.5820796108462
 20
-15.4758312264267
 30
245.0997478661173
 70
   192
  0
VERTEX
  5
1A15
  8
0
 10
195.5840930954595
 20
-15.58355827535385
 30
244.7
 70
   192
  0
VERTEX
  5
1A16
  8
0
 10
197.3911302699745
 20
-14.26511713969641
 30
245.5
 70
   192
  0
VERTEX
  5
1A17
  8
0
 10
195.56914321231
 20
-14.78369797443068
 30
245.5
 70
   192
  0
VERTEX
  5
1A18
  8
0
 10
195.5766134424559
 20
-15.18337603503323
 30
245.3922541360837
 70
   192
  0
VERTEX
  5
1A19
  8
0
 10
198.7154893970736
 20
-12.91578044372876
 30
245.5000000000001
 70
   192
  0
VERTEX
  5
1A1A
  8
0
 10
199.5997478661169
 20
-11.08434408271085
 30
245.3922541360833
 70
   192
  0
VERTEX
  5
1A1B
  8
0
 10
199.2
 20
-11.08434408271086
 30
245.5000000000001
 70
   192
  0
VERTEX
  5
1A1C
  8
0
 10
199.8922541360833
 20
-11.08434408245161
 30
245.0997478661171
 70
   192
  0
VERTEX
  5
1A1D
  8
0
 10
199.4108785768757
 20
-13.30991075490408
 30
244.7
 70
   192
  0
VERTEX
  5
1A1E
  8
0
 10
200.0
 20
-11.08434407571129
 30
244.7
 70
   192
  0
VERTEX
  5
1A1F
  8
0
 10
0.0
 20
0.0
 30
0.0
 70
   128
 71
     1
 72
     2
 73
     3
  0
VERTEX
  5
1A20
  8
0
 10
0.0
 20
0.0
 30
0.0
 70
   128
 71
     4
 72
     5
 73
     6
  0
VERTEX
  5
1A21
  8
0
 10
0.0
 20
0.0
 30
0.0
 70
   128
 71
     6
 72
     7
 73
     4
  0
VERTEX
  5
1A22
  8
0
 10
0.0
 20
0.0
 30
0.0
 70
   128
 71
     8
 72
     9
 73
     7
  0
VERTEX
  5
1A23
  8
0
 10
0.0
 20
0.0
 30
0.0
 70
   128
 71
     8
 72
     7
 73
     6
  0
VERTEX
  5
1A24
  8
0
 10
0.0
 20
0.0
 30
0.0
 70
   128
 71
    10
 72
     8
 73
    -6
  0
VERTEX
  5
1A25
  8
0
 10
0.0
 20
0.0
 30
0.0
 70
   128
 71
   -10
 72
     6
 73
     2
  0
VERTEX
  5
1A26
  8
0
 10
0.0
 20
0.0
 30
0.0
 70
   128
 71
    11
 72
    12
 73
    10
  0
VERTEX
  5
1A27
  8
0
 10
0.0
 20
0.0
 30
0.0
 70
   128
 71
    10
 72
     2
 73
    -1
  0
VERTEX
  5
1A28
  8
0
 10
0.0
 20
0.0
 30
0.0
 70
   128
 71
   -10
 72
     1
 73
    11
  0
SEQEND
  5
1C96
  8
0
  0
POLYLINE
  5
1A29
  8
0
 66
     1
 10
0.0
 20
0.0
 30
0.0
 70
    64
 71
    10
 72
     8
  0
VERTEX
  5
1A2A
  8
0
 10
199.2
 20
11.0843440827092
 30
245.5000000000001
 70
   192
  0
VERTEX
  5
1A2B
  8
0
 10
199.2
 20
-11.08434408271086
 30
245.5000000000001
 70
   192
  0
VERTEX
  5
1A2C
  8
0
 10
199.5997478661169
 20
-11.08434408271085
 30
245.3922541360833
 70
   192
  0
VERTEX
  5
1A2D
  8
0
 10
199.599747866117
 20
11.08434408270916
 30
245.3922541360834
 70
   192
  0
VERTEX
  5
1A2E
  8
0
 10
199.8922541360833
 20
-11.08434408245161
 30
245.0997478661171
 70
   192
  0
VERTEX
  5
1A2F
  8
0
 10
199.8922541360832
 20
11.08434408245582
 30
245.099747866117
 70
   192
  0
VERTEX
  5
1A30
  8
0
 10
200.0
 20
3.694781359075802
 30
244.7000000000001
 70
   192
  0
VERTEX
  5
1A31
  8
0
 10
200.0
 20
11.08434407586915
 30
244.7000000000001
 70
   192
  0
VERTEX
  5
1A32
  8
0
 10
200.0
 20
-3.694781357637647
 30
244.7000000000001
 70
   192
  0
VERTEX
  5
1A33
  8
0
 10
200.0
 20
-11.08434407571129
 30
244.7
 70
   192
  0
VERTEX
  5
1A34
  8
0
 10
0.0
 20
0.0
 30
0.0
 70
   128
 71
     1
 72
     2
 73
    -3
  0
VERTEX
  5
1A35
  8
0
 10
0.0
 20
0.0
 30
0.0
 70
   128
 71
    -1
 72
     3
 73
     4
  0
VERTEX
  5
1A36
  8
0
 10
0.0
 20
0.0
 30
0.0
 70
   128
 71
     4
 72
     3
 73
    -5
  0
VERTEX
  5
1A37
  8
0
 10
0.0
 20
0.0
 30
0.0
 70
   128
 71
    -4
 72
     5
 73
     6
  0
VERTEX
  5
1A38
  8
0
 10
0.0
 20
0.0
 30
0.0
 70
   128
 71
     7
 72
     8
 73
    -6
  0
VERTEX
  5
1A39
  8
0
 10
0.0
 20
0.0
 30
0.0
 70
   128
 71
    -6
 72
     9
 73
    -7
  0
VERTEX
  5
1A3A
  8
0
 10
0.0
 20
0.0
 30
0.0
 70
   128
 71
     6
 72
    -5
 73
    -9
  0
VERTEX
  5
1A3B
  8
0
 10
0.0
 20
0.0
 30
0.0
 70
   128
 71
     5
 72
    10
 73
    -9
  0
SEQEND
  5
1C97
  8
0
  0
POLYLINE
  5
1A3C
  8
0
 66
     1
 10
0.0
 20
0.0
 30
0.0
 70
    64
 71
    12
 72
    10
  0
VERTEX
  5
1A3D
  8
0
 10
-15.95408392452674
 20
-14.60141204879021
 30
245.5000000000001
 70
   192
  0
VERTEX
  5
1A3E
  8
0
 10
-16.45
 20
-12.75000000000086
 30
245.5
 70
   192
  0
VERTEX
  5
1A3F
  8
0
 10
-16.84974786611694
 20
-12.75000000000085
 30
245.3922541360834
 70
   192
  0
VERTEX
  5
1A40
  8
0
 10
-14.60148844481885
 20
-15.95401453795185
 30
245.5000000000001
 70
   192
  0
VERTEX
  5
1A41
  8
0
 10
-12.74999999999332
 20
-16.45000000000055
 30
245.5
 70
   192
  0
VERTEX
  5
1A42
  8
0
 10
-12.74999999999975
 20
-16.84974786611778
 30
245.3922541360833
 70
   192
  0
VERTEX
  5
1A43
  8
0
 10
-12.74999999989276
 20
-17.14225413608412
 30
245.099747866117
 70
   192
  0
VERTEX
  5
1A44
  8
0
 10
-17.14225413608327
 20
-12.75000000002002
 30
245.099747866117
 70
   192
  0
VERTEX
  5
1A45
  8
0
 10
-14.99988038517253
 20
-16.64693012727323
 30
244.7000000000001
 70
   192
  0
VERTEX
  5
1A46
  8
0
 10
-12.74999999710432
 20
-17.25000000000086
 30
244.7
 70
   192
  0
VERTEX
  5
1A47
  8
0
 10
-16.64693012534247
 20
-14.99988038851608
 30
244.7
 70
   192
  0
VERTEX
  5
1A48
  8
0
 10
-17.25
 20
-12.75000000051835
 30
244.7
 70
   192
  0
VERTEX
  5
1A49
  8
0
 10
0.0
 20
0.0
 30
0.0
 70
   128
 71
     1
 72
     2
 73
     3
  0
VERTEX
  5
1A4A
  8
0
 10
0.0
 20
0.0
 30
0.0
 70
   128
 71
     3
 72
     4
 73
     1
  0
VERTEX
  5
1A4B
  8
0
 10
0.0
 20
0.0
 30
0.0
 70
   128
 71
     5
 72
     4
 73
     3
  0
VERTEX
  5
1A4C
  8
0
 10
0.0
 20
0.0
 30
0.0
 70
   128
 71
     5
 72
     3
 73
     6
  0
VERTEX
  5
1A4D
  8
0
 10
0.0
 20
0.0
 30
0.0
 70
   128
 71
     7
 72
     6
 73
    -3
  0
VERTEX
  5
1A4E
  8
0
 10
0.0
 20
0.0
 30
0.0
 70
   128
 71
    -7
 72
     3
 73
     8
  0
VERTEX
  5
1A4F
  8
0
 10
0.0
 20
0.0
 30
0.0
 70
   128
 71
     9
 72
    10
 73
     7
  0
VERTEX
  5
1A50
  8
0
 10
0.0
 20
0.0
 30
0.0
 70
   128
 71
     7
 72
     8
 73
   -11
  0
VERTEX
  5
1A51
  8
0
 10
0.0
 20
0.0
 30
0.0
 70
   128
 71
    -7
 72
    11
 73
     9
  0
VERTEX
  5
1A52
  8
0
 10
0.0
 20
0.0
 30
0.0
 70
   128
 71
     8
 72
    12
 73
    11
  0
SEQEND
  5
1C98
  8
0
  0
POLYLINE
  5
1A53
  8
0
 66
     1
 10
0.0
 20
0.0
 30
0.0
 70
    64
 71
    10
 72
     8
  0
VERTEX
  5
1A54
  8
0
 10
-16.45
 20
-12.75000000000086
 30
245.5
 70
   192
  0
VERTEX
  5
1A55
  8
0
 10
-16.45
 20
12.74999999999914
 30
245.5000000000001
 70
   192
  0
VERTEX
  5
1A56
  8
0
 10
-16.84974786611694
 20
12.74999999999914
 30
245.3922541360835
 70
   192
  0
VERTEX
  5
1A57
  8
0
 10
-16.84974786611694
 20
-12.75000000000085
 30
245.3922541360834
 70
   192
  0
VERTEX
  5
1A58
  8
0
 10
-17.14225413608327
 20
12.75000000002799
 30
245.0997478661171
 70
   192
  0
VERTEX
  5
1A59
  8
0
 10
-17.14225413608327
 20
-12.75000000002002
 30
245.099747866117
 70
   192
  0
VERTEX
  5
1A5A
  8
0
 10
-17.25
 20
-4.249999999817192
 30
244.7000000000001
 70
   192
  0
VERTEX
  5
1A5B
  8
0
 10
-17.25
 20
-12.75000000051835
 30
244.7
 70
   192
  0
VERTEX
  5
1A5C
  8
0
 10
-17.25
 20
4.250000000595938
 30
244.7000000000002
 70
   192
  0
VERTEX
  5
1A5D
  8
0
 10
-17.25
 20
12.750000000778
 30
244.7000000000002
 70
   192
  0
VERTEX
  5
1A5E
  8
0
 10
0.0
 20
0.0
 30
0.0
 70
   128
 71
     1
 72
     2
 73
    -3
  0
VERTEX
  5
1A5F
  8
0
 10
0.0
 20
0.0
 30
0.0
 70
   128
 71
    -1
 72
     3
 73
     4
  0
VERTEX
  5
1A60
  8
0
 10
0.0
 20
0.0
 30
0.0
 70
   128
 71
     4
 72
     3
 73
    -5
  0
VERTEX
  5
1A61
  8
0
 10
0.0
 20
0.0
 30
0.0
 70
   128
 71
    -4
 72
     5
 73
     6
  0
VERTEX
  5
1A62
  8
0
 10
0.0
 20
0.0
 30
0.0
 70
   128
 71
     7
 72
     8
 73
    -6
  0
VERTEX
  5
1A63
  8
0
 10
0.0
 20
0.0
 30
0.0
 70
   128
 71
    -6
 72
     9
 73
    -7
  0
VERTEX
  5
1A64
  8
0
 10
0.0
 20
0.0
 30
0.0
 70
   128
 71
     6
 72
    -5
 73
    -9
  0
VERTEX
  5
1A65
  8
0
 10
0.0
 20
0.0
 30
0.0
 70
   128
 71
     5
 72
    10
 73
    -9
  0
SEQEND
  5
1C99
  8
0
  0
POLYLINE
  5
1A66
  8
0
 66
     1
 10
0.0
 20
0.0
 30
0.0
 70
    64
 71
    12
 72
    10
  0
VERTEX
  5
1A67
  8
0
 10
-12.75000000000005
 20
16.84974786611574
 30
245.3922541360836
 70
   192
  0
VERTEX
  5
1A68
  8
0
 10
-17.14225413608327
 20
12.75000000002799
 30
245.0997478661171
 70
   192
  0
VERTEX
  5
1A69
  8
0
 10
-16.84974786611694
 20
12.74999999999914
 30
245.3922541360835
 70
   192
  0
VERTEX
  5
1A6A
  8
0
 10
-16.64693012435224
 20
14.99988039022882
 30
244.7
 70
   192
  0
VERTEX
  5
1A6B
  8
0
 10
-17.25
 20
12.750000000778
 30
244.7000000000002
 70
   192
  0
VERTEX
  5
1A6C
  8
0
 10
-14.99988038264367
 20
16.64693012873115
 30
244.7000000000001
 70
   192
  0
VERTEX
  5
1A6D
  8
0
 10
-15.95401453794655
 20
14.60148844482276
 30
245.5000000000001
 70
   192
  0
VERTEX
  5
1A6E
  8
0
 10
-16.45
 20
12.74999999999914
 30
245.5000000000001
 70
   192
  0
VERTEX
  5
1A6F
  8
0
 10
-12.74999999421
 20
17.24999999999914
 30
244.7000000000002
 70
   192
  0
VERTEX
  5
1A70
  8
0
 10
-12.74999999978555
 20
17.1422541360823
 30
245.0997478661173
 70
   192
  0
VERTEX
  5
1A71
  8
0
 10
-14.60141204878676
 20
15.95408392452744
 30
245.5000000000001
 70
   192
  0
VERTEX
  5
1A72
  8
0
 10
-12.75000000000134
 20
16.44999999999914
 30
245.5000000000001
 70
   192
  0
VERTEX
  5
1A73
  8
0
 10
0.0
 20
0.0
 30
0.0
 70
   128
 71
    -1
 72
     2
 73
     3
  0
VERTEX
  5
1A74
  8
0
 10
0.0
 20
0.0
 30
0.0
 70
   128
 71
     4
 72
     5
 73
     2
  0
VERTEX
  5
1A75
  8
0
 10
0.0
 20
0.0
 30
0.0
 70
   128
 71
     2
 72
     6
 73
     4
  0
VERTEX
  5
1A76
  8
0
 10
0.0
 20
0.0
 30
0.0
 70
   128
 71
     7
 72
     3
 73
     8
  0
VERTEX
  5
1A77
  8
0
 10
0.0
 20
0.0
 30
0.0
 70
   128
 71
     9
 72
     6
 73
     2
  0
VERTEX
  5
1A78
  8
0
 10
0.0
 20
0.0
 30
0.0
 70
   128
 71
     9
 72
     2
 73
    10
  0
VERTEX
  5
1A79
  8
0
 10
0.0
 20
0.0
 30
0.0
 70
   128
 71
    10
 72
    -2
 73
     1
  0
VERTEX
  5
1A7A
  8
0
 10
0.0
 20
0.0
 30
0.0
 70
   128
 71
    11
 72
    12
 73
     1
  0
VERTEX
  5
1A7B
  8
0
 10
0.0
 20
0.0
 30
0.0
 70
   128
 71
     1
 72
     3
 73
     7
  0
VERTEX
  5
1A7C
  8
0
 10
0.0
 20
0.0
 30
0.0
 70
   128
 71
     1
 72
     7
 73
    11
  0
SEQEND
  5
1C9A
  8
0
  0
POLYLINE
  5
1A7D
  8
0
 66
     1
 10
0.0
 20
0.0
 30
0.0
 70
    64
 71
    12
 72
    10
  0
VERTEX
  5
1A7E
  8
0
 10
-17.25
 20
-12.75000000051835
 30
244.7
 70
   192
  0
VERTEX
  5
1A7F
  8
0
 10
-17.25
 20
-4.249999999817192
 30
244.7000000000001
 70
   192
  0
VERTEX
  5
1A80
  8
0
 10
-17.25
 20
4.250000000595938
 30
244.7000000000002
 70
   192
  0
VERTEX
  5
1A81
  8
0
 10
-17.25
 20
12.750000000778
 30
244.7000000000002
 70
   192
  0
VERTEX
  5
1A82
  8
0
 10
-17.25
 20
12.75000000095083
 30
164.9666666666668
 70
   192
  0
VERTEX
  5
1A83
  8
0
 10
-17.25
 20
12.75000000095246
 30
85.23333333333343
 70
   192
  0
VERTEX
  5
1A84
  8
0
 10
-17.25
 20
12.75000000078274
 30
5.500000000000133
 70
   192
  0
VERTEX
  5
1A85
  8
0
 10
-17.25
 20
4.249999999942936
 30
5.500000000000092
 70
   192
  0
VERTEX
  5
1A86
  8
0
 10
-17.25
 20
-4.250000000896152
 30
5.500000000000055
 70
   192
  0
VERTEX
  5
1A87
  8
0
 10
-17.25
 20
-12.75000000156232
 30
5.500000000000012
 70
   192
  0
VERTEX
  5
1A88
  8
0
 10
-17.25
 20
-12.75000000186513
 30
85.23333333333342
 70
   192
  0
VERTEX
  5
1A89
  8
0
 10
-17.25
 20
-12.75000000159399
 30
164.9666666666668
 70
   192
  0
VERTEX
  5
1A8A
  8
0
 10
0.0
 20
0.0
 30
0.0
 70
   128
 71
     6
 72
     7
 73
    -8
  0
VERTEX
  5
1A8B
  8
0
 10
0.0
 20
0.0
 30
0.0
 70
   128
 71
    -9
 72
   -11
 73
    -6
  0
VERTEX
  5
1A8C
  8
0
 10
0.0
 20
0.0
 30
0.0
 70
   128
 71
     8
 72
    -9
 73
    -6
  0
VERTEX
  5
1A8D
  8
0
 10
0.0
 20
0.0
 30
0.0
 70
   128
 71
     9
 72
    10
 73
   -11
  0
VERTEX
  5
1A8E
  8
0
 10
0.0
 20
0.0
 30
0.0
 70
   128
 71
   -12
 72
     5
 73
    -6
  0
VERTEX
  5
1A8F
  8
0
 10
0.0
 20
0.0
 30
0.0
 70
   128
 71
    11
 72
   -12
 73
    -6
  0
VERTEX
  5
1A90
  8
0
 10
0.0
 20
0.0
 30
0.0
 70
   128
 71
    12
 72
     1
 73
    -2
  0
VERTEX
  5
1A91
  8
0
 10
0.0
 20
0.0
 30
0.0
 70
   128
 71
    -3
 72
    -5
 73
   -12
  0
VERTEX
  5
1A92
  8
0
 10
0.0
 20
0.0
 30
0.0
 70
   128
 71
     2
 72
    -3
 73
   -12
  0
VERTEX
  5
1A93
  8
0
 10
0.0
 20
0.0
 30
0.0
 70
   128
 71
     3
 72
     4
 73
    -5
  0
SEQEND
  5
1C9B
  8
0
  0
POLYLINE
  5
1A94
  8
0
 66
     1
 10
0.0
 20
0.0
 30
0.0
 70
    64
 71
    12
 72
    10
  0
VERTEX
  5
1A95
  8
0
 10
-16.21393788975273
 20
14.74989367771209
 30
5.00000000000014
 70
   192
  0
VERTEX
  5
1A96
  8
0
 10
-16.75
 20
12.75000000000954
 30
5.000000000000133
 70
   192
  0
VERTEX
  5
1A97
  8
0
 10
-16.99984241632309
 20
12.75000000001052
 30
5.067341164948094
 70
   192
  0
VERTEX
  5
1A98
  8
0
 10
-14.74989367765298
 20
16.21393788978684
 30
5.000000000000146
 70
   192
  0
VERTEX
  5
1A99
  8
0
 10
-12.74999999994
 20
16.74999999999998
 30
5.000000000000147
 70
   192
  0
VERTEX
  5
1A9A
  8
0
 10
-12.74999999993645
 20
16.99984241632307
 30
5.067341164948109
 70
   192
  0
VERTEX
  5
1A9B
  8
0
 10
-12.74999999972031
 20
17.18265883505202
 30
5.250157583677064
 70
   192
  0
VERTEX
  5
1A9C
  8
0
 10
-17.18265883505204
 20
12.7500000000395
 30
5.250157583677047
 70
   192
  0
VERTEX
  5
1A9D
  8
0
 10
-14.99988038262056
 20
16.64693012874531
 30
5.500000000000131
 70
   192
  0
VERTEX
  5
1A9E
  8
0
 10
-12.74999999416568
 20
17.24999999999998
 30
5.500000000000147
 70
   192
  0
VERTEX
  5
1A9F
  8
0
 10
-16.64693012434556
 20
14.99988039024121
 30
5.500000000000125
 70
   192
  0
VERTEX
  5
1AA0
  8
0
 10
-17.25
 20
12.75000000078274
 30
5.500000000000133
 70
   192
  0
VERTEX
  5
1AA1
  8
0
 10
0.0
 20
0.0
 30
0.0
 70
   128
 71
     1
 72
     2
 73
     3
  0
VERTEX
  5
1AA2
  8
0
 10
0.0
 20
0.0
 30
0.0
 70
   128
 71
     3
 72
     4
 73
     1
  0
VERTEX
  5
1AA3
  8
0
 10
0.0
 20
0.0
 30
0.0
 70
   128
 71
     5
 72
     4
 73
     3
  0
VERTEX
  5
1AA4
  8
0
 10
0.0
 20
0.0
 30
0.0
 70
   128
 71
     5
 72
     3
 73
     6
  0
VERTEX
  5
1AA5
  8
0
 10
0.0
 20
0.0
 30
0.0
 70
   128
 71
     7
 72
     6
 73
    -3
  0
VERTEX
  5
1AA6
  8
0
 10
0.0
 20
0.0
 30
0.0
 70
   128
 71
    -7
 72
     3
 73
     8
  0
VERTEX
  5
1AA7
  8
0
 10
0.0
 20
0.0
 30
0.0
 70
   128
 71
     9
 72
    10
 73
     7
  0
VERTEX
  5
1AA8
  8
0
 10
0.0
 20
0.0
 30
0.0
 70
   128
 71
     7
 72
     8
 73
   -11
  0
VERTEX
  5
1AA9
  8
0
 10
0.0
 20
0.0
 30
0.0
 70
   128
 71
    -7
 72
    11
 73
     9
  0
VERTEX
  5
1AAA
  8
0
 10
0.0
 20
0.0
 30
0.0
 70
   128
 71
     8
 72
    12
 73
    11
  0
SEQEND
  5
1C9C
  8
0
  0
POLYLINE
  5
1AAB
  8
0
 66
     1
 10
0.0
 20
0.0
 30
0.0
 70
    64
 71
    12
 72
    10
  0
VERTEX
  5
1AAC
  8
0
 10
-16.64693012464772
 20
-14.9998803897191
 30
5.500000000000163
 70
   192
  0
VERTEX
  5
1AAD
  8
0
 10
-17.25
 20
-12.75000000156232
 30
5.500000000000012
 70
   192
  0
VERTEX
  5
1AAE
  8
0
 10
-17.18265883505206
 20
-12.75000000006883
 30
5.250157583676889
 70
   192
  0
VERTEX
  5
1AAF
  8
0
 10
-14.99988038456648
 20
-16.64693012762258
 30
5.500000000000157
 70
   192
  0
VERTEX
  5
1AB0
  8
0
 10
-14.74989367768711
 20
-16.21393788976718
 30
4.999999999999931
 70
   192
  0
VERTEX
  5
1AB1
  8
0
 10
-12.7499999999975
 20
-16.75000000000002
 30
4.99999999999998
 70
   192
  0
VERTEX
  5
1AB2
  8
0
 10
-12.74999999999991
 20
-16.99984241632311
 30
5.067341164947988
 70
   192
  0
VERTEX
  5
1AB3
  8
0
 10
-16.9998424163231
 20
-12.75000000001079
 30
5.067341164947914
 70
   192
  0
VERTEX
  5
1AB4
  8
0
 10
-16.21393788976215
 20
-14.74989367769581
 30
4.999999999999935
 70
   192
  0
VERTEX
  5
1AB5
  8
0
 10
-16.75
 20
-12.75000000001002
 30
4.999999999999994
 70
   192
  0
VERTEX
  5
1AB6
  8
0
 10
-12.74999999991042
 20
-17.18265883505206
 30
5.250157583676942
 70
   192
  0
VERTEX
  5
1AB7
  8
0
 10
-12.74999999758124
 20
-17.25000000000002
 30
5.500000000000002
 70
   192
  0
VERTEX
  5
1AB8
  8
0
 10
0.0
 20
0.0
 30
0.0
 70
   128
 71
     1
 72
     2
 73
     3
  0
VERTEX
  5
1AB9
  8
0
 10
0.0
 20
0.0
 30
0.0
 70
   128
 71
    -3
 72
     4
 73
     1
  0
VERTEX
  5
1ABA
  8
0
 10
0.0
 20
0.0
 30
0.0
 70
   128
 71
     5
 72
     6
 73
     7
  0
VERTEX
  5
1ABB
  8
0
 10
0.0
 20
0.0
 30
0.0
 70
   128
 71
     7
 72
     8
 73
    -9
  0
VERTEX
  5
1ABC
  8
0
 10
0.0
 20
0.0
 30
0.0
 70
   128
 71
    -7
 72
     9
 73
     5
  0
VERTEX
  5
1ABD
  8
0
 10
0.0
 20
0.0
 30
0.0
 70
   128
 71
     8
 72
    10
 73
     9
  0
VERTEX
  5
1ABE
  8
0
 10
0.0
 20
0.0
 30
0.0
 70
   128
 71
     3
 72
     8
 73
    -7
  0
VERTEX
  5
1ABF
  8
0
 10
0.0
 20
0.0
 30
0.0
 70
   128
 71
    -3
 72
     7
 73
    11
  0
VERTEX
  5
1AC0
  8
0
 10
0.0
 20
0.0
 30
0.0
 70
   128
 71
    -4
 72
     3
 73
    11
  0
VERTEX
  5
1AC1
  8
0
 10
0.0
 20
0.0
 30
0.0
 70
   128
 71
     4
 72
    11
 73
    12
  0
SEQEND
  5
1C9D
  8
0
  0
POLYLINE
  5
1AC2
  8
0
 66
     1
 10
0.0
 20
0.0
 30
0.0
 70
    64
 71
    10
 72
     8
  0
VERTEX
  5
1AC3
  8
0
 10
-16.75
 20
12.75000000000954
 30
5.000000000000133
 70
   192
  0
VERTEX
  5
1AC4
  8
0
 10
-16.75
 20
-12.75000000001002
 30
4.999999999999994
 70
   192
  0
VERTEX
  5
1AC5
  8
0
 10
-16.9998424163231
 20
-12.75000000001079
 30
5.067341164947914
 70
   192
  0
VERTEX
  5
1AC6
  8
0
 10
-16.99984241632309
 20
12.75000000001052
 30
5.067341164948094
 70
   192
  0
VERTEX
  5
1AC7
  8
0
 10
-17.18265883505206
 20
-12.75000000006883
 30
5.250157583676889
 70
   192
  0
VERTEX
  5
1AC8
  8
0
 10
-17.18265883505204
 20
12.7500000000395
 30
5.250157583677047
 70
   192
  0
VERTEX
  5
1AC9
  8
0
 10
-17.25
 20
4.249999999942936
 30
5.500000000000092
 70
   192
  0
VERTEX
  5
1ACA
  8
0
 10
-17.25
 20
12.75000000078274
 30
5.500000000000133
 70
   192
  0
VERTEX
  5
1ACB
  8
0
 10
-17.25
 20
-4.250000000896152
 30
5.500000000000055
 70
   192
  0
VERTEX
  5
1ACC
  8
0
 10
-17.25
 20
-12.75000000156232
 30
5.500000000000012
 70
   192
  0
VERTEX
  5
1ACD
  8
0
 10
0.0
 20
0.0
 30
0.0
 70
   128
 71
     1
 72
     2
 73
    -3
  0
VERTEX
  5
1ACE
  8
0
 10
0.0
 20
0.0
 30
0.0
 70
   128
 71
    -1
 72
     3
 73
     4
  0
VERTEX
  5
1ACF
  8
0
 10
0.0
 20
0.0
 30
0.0
 70
   128
 71
     4
 72
     3
 73
    -5
  0
VERTEX
  5
1AD0
  8
0
 10
0.0
 20
0.0
 30
0.0
 70
   128
 71
    -4
 72
     5
 73
     6
  0
VERTEX
  5
1AD1
  8
0
 10
0.0
 20
0.0
 30
0.0
 70
   128
 71
     7
 72
     8
 73
    -6
  0
VERTEX
  5
1AD2
  8
0
 10
0.0
 20
0.0
 30
0.0
 70
   128
 71
    -6
 72
     9
 73
    -7
  0
VERTEX
  5
1AD3
  8
0
 10
0.0
 20
0.0
 30
0.0
 70
   128
 71
     6
 72
    -5
 73
    -9
  0
VERTEX
  5
1AD4
  8
0
 10
0.0
 20
0.0
 30
0.0
 70
   128
 71
     5
 72
    10
 73
    -9
  0
SEQEND
  5
1C9E
  8
0
  0
ENDBLK
  5
1C70
  8
0
  0
BLOCK
  8
0
  2
*X6
 70
     1
 10
0.0
 20
0.0
 30
0.0
  3
*X6
  1

  0
POLYLINE
  5
1AF4
  8
0
 66
     1
 10
0.0
 20
0.0
 30
0.0
 70
    64
 71
    16
 72
    14
  0
VERTEX
  5
1AF5
  8
0
 10
192.8687365795115
 20
0.0000000001920553
 30
225.0380709794783
 70
   192
  0
VERTEX
  5
1AF6
  8
0
 10
192.4137783587985
 20
0.00000000008573
 30
224.6826186609776
 70
   192
  0
VERTEX
  5
1AF7
  8
0
 10
191.6222918413054
 20
4.018176039844432
 30
224.571382485142
 70
   192
  0
VERTEX
  5
1AF8
  8
0
 10
193.2827460355238
 20
3.430444865766754
 30
225.6792804348619
 70
   192
  0
VERTEX
  5
1AF9
  8
0
 10
193.7786530209115
 20
0.0000000000826353
 30
225.7489756164926
 70
   192
  0
VERTEX
  5
1AFA
  8
0
 10
193.3236948002156
 20
0.0000000001885061
 30
225.3935232979814
 70
   192
  0
VERTEX
  5
1AFB
  8
0
 10
181.9757876461885
 20
11.00000220451635
 30
223.5071681292833
 70
   192
  0
VERTEX
  5
1AFC
  8
0
 10
181.9757736563643
 20
11.00000110295227
 30
223.5071680898573
 70
   192
  0
VERTEX
  5
1AFD
  8
0
 10
183.5361345259648
 20
10.99978928913914
 30
223.7925542459796
 70
   192
  0
VERTEX
  5
1AFE
  8
0
 10
182.0159636369877
 20
10.50000000000664
 30
223.2213011008854
 70
   192
  0
VERTEX
  5
1AFF
  8
0
 10
191.8364151746646
 20
6.574573055346528
 30
225.4760118884208
 70
   192
  0
VERTEX
  5
1B00
  8
0
 10
189.368328936289
 20
7.424621202475964
 30
224.2546086570796
 70
   192
  0
VERTEX
  5
1B01
  8
0
 10
189.5603761649794
 20
9.1699648628479
 30
225.1561354661844
 70
   192
  0
VERTEX
  5
1B02
  8
0
 10
185.9950350638122
 20
9.700735091386338
 30
223.7805231205421
 70
   192
  0
VERTEX
  5
1B03
  8
0
 10
185.088723184924
 20
10.99985271542692
 30
224.2072022731261
 70
   192
  0
VERTEX
  5
1B04
  8
0
 10
186.644595016602
 20
11.0000000000017
 30
224.7463491497231
 70
   192
  0
VERTEX
  5
1B05
  8
0
 10
0.0
 20
0.0
 30
0.0
 70
   128
 71
     1
 72
     2
 73
     3
  0
VERTEX
  5
1B06
  8
0
 10
0.0
 20
0.0
 30
0.0
 70
   128
 71
     4
 72
     5
 73
     6
  0
VERTEX
  5
1B07
  8
0
 10
0.0
 20
0.0
 30
0.0
 70
   128
 71
     7
 72
     8
 73
     9
  0
VERTEX
  5
1B08
  8
0
 10
0.0
 20
0.0
 30
0.0
 70
   128
 71
     9
 72
    10
 73
     7
  0
VERTEX
  5
1B09
  8
0
 10
0.0
 20
0.0
 30
0.0
 70
   128
 71
    11
 72
     4
 73
     6
  0
VERTEX
  5
1B0A
  8
0
 10
0.0
 20
0.0
 30
0.0
 70
   128
 71
    11
 72
     6
 73
     1
  0
VERTEX
  5
1B0B
  8
0
 10
0.0
 20
0.0
 30
0.0
 70
   128
 71
    11
 72
     1
 73
     3
  0
VERTEX
  5
1B0C
  8
0
 10
0.0
 20
0.0
 30
0.0
 70
   128
 71
     3
 72
    12
 73
    13
  0
VERTEX
  5
1B0D
  8
0
 10
0.0
 20
0.0
 30
0.0
 70
   128
 71
     3
 72
    13
 73
    11
  0
VERTEX
  5
1B0E
  8
0
 10
0.0
 20
0.0
 30
0.0
 70
   128
 71
    14
 72
    10
 73
     9
  0
VERTEX
  5
1B0F
  8
0
 10
0.0
 20
0.0
 30
0.0
 70
   128
 71
    14
 72
     9
 73
    15
  0
VERTEX
  5
1B10
  8
0
 10
0.0
 20
0.0
 30
0.0
 70
   128
 71
    16
 72
    13
 73
    12
  0
VERTEX
  5
1B11
  8
0
 10
0.0
 20
0.0
 30
0.0
 70
   128
 71
    16
 72
    12
 73
    14
  0
VERTEX
  5
1B12
  8
0
 10
0.0
 20
0.0
 30
0.0
 70
   128
 71
    16
 72
    14
 73
    15
  0
SEQEND
  5
1CA1
  8
0
  0
POLYLINE
  5
1B13
  8
0
 66
     1
 10
0.0
 20
0.0
 30
0.0
 70
    64
 71
    23
 72
    21
  0
VERTEX
  5
1B14
  8
0
 10
193.2827460355231
 20
-3.430444865771006
 30
225.6792804348617
 70
   192
  0
VERTEX
  5
1B15
  8
0
 10
193.7786530209115
 20
0.0000000000826353
 30
225.7489756164926
 70
   192
  0
VERTEX
  5
1B16
  8
0
 10
192.716209103692
 20
-0.0000000000008153
 30
233.3086568967096
 70
   192
  0
VERTEX
  5
1B17
  8
0
 10
191.8116530837096
 20
-4.59220118838185
 30
233.1815298386368
 70
   192
  0
VERTEX
  5
1B18
  8
0
 10
183.0086961024212
 20
-11.88889020191266
 30
227.8265052664447
 70
   192
  0
VERTEX
  5
1B19
  8
0
 10
185.3805024808827
 20
-11.08655439013623
 30
232.2776905648186
 70
   192
  0
VERTEX
  5
1B1A
  8
0
 10
180.8329922787919
 20
-12.0000000000008
 30
231.6385796851989
 70
   192
  0
VERTEX
  5
1B1B
  8
0
 10
186.2362646739
 20
-10.9999999999972
 30
227.6517705068941
 70
   192
  0
VERTEX
  5
1B1C
  8
0
 10
186.6445950165985
 20
-11.00000000000478
 30
224.7463491497226
 70
   192
  0
VERTEX
  5
1B1D
  8
0
 10
189.560376164973
 20
-9.169964862854933
 30
225.1561354661835
 70
   192
  0
VERTEX
  5
1B1E
  8
0
 10
176.737947032702
 20
-10.99999999999325
 30
226.3168690173111
 70
   192
  0
VERTEX
  5
1B1F
  8
0
 10
176.285482076701
 20
-11.08655439013626
 30
230.9994688055793
 70
   192
  0
VERTEX
  5
1B20
  8
0
 10
172.4302890795959
 20
-8.485281374239396
 30
230.4576567638272
 70
   192
  0
VERTEX
  5
1B21
  8
0
 10
174.2304962270582
 20
-9.169964862889474
 30
223.0016613438211
 70
   192
  0
VERTEX
  5
1B22
  8
0
 10
177.1462773753985
 20
-11.00000000000658
 30
223.4114476601961
 70
   192
  0
VERTEX
  5
1B23
  8
0
 10
169.8543314738741
 20
-4.592201188381904
 30
230.0956295317611
 70
   192
  0
VERTEX
  5
1B24
  8
0
 10
168.9497754538915
 20
-0.0000000000008014
 30
229.9685024736881
 70
   192
  0
VERTEX
  5
1B25
  8
0
 10
170.012219371101
 20
-0.0000000001676263
 30
222.4088211934386
 70
   192
  0
VERTEX
  5
1B26
  8
0
 10
170.5081263565147
 20
-3.430444865930236
 30
222.4785163751437
 70
   192
  0
VERTEX
  5
1B27
  8
0
 10
171.9544572173888
 20
-6.574573055444714
 30
222.6817849215868
 70
   192
  0
VERTEX
  5
1B28
  8
0
 10
189.2356954779879
 20
-8.485281374239348
 30
232.8195026065707
 70
   192
  0
VERTEX
  5
1B29
  8
0
 10
191.8364151746615
 20
-6.574573055352809
 30
225.4760118884203
 70
   192
  0
VERTEX
  5
1B2A
  8
0
 10
179.7923164472779
 20
-11.88888757587907
 30
227.3744670161496
 70
   192
  0
VERTEX
  5
1B2B
  8
0
 10
0.0
 20
0.0
 30
0.0
 70
   128
 71
     1
 72
     2
 73
     3
  0
VERTEX
  5
1B2C
  8
0
 10
0.0
 20
0.0
 30
0.0
 70
   128
 71
     1
 72
     3
 73
     4
  0
VERTEX
  5
1B2D
  8
0
 10
0.0
 20
0.0
 30
0.0
 70
   128
 71
     5
 72
     6
 73
     7
  0
VERTEX
  5
1B2E
  8
0
 10
0.0
 20
0.0
 30
0.0
 70
   128
 71
     8
 72
     9
 73
    10
  0
VERTEX
  5
1B2F
  8
0
 10
0.0
 20
0.0
 30
0.0
 70
   128
 71
    11
 72
    12
 73
    13
  0
VERTEX
  5
1B30
  8
0
 10
0.0
 20
0.0
 30
0.0
 70
   128
 71
    11
 72
    13
 73
    14
  0
VERTEX
  5
1B31
  8
0
 10
0.0
 20
0.0
 30
0.0
 70
   128
 71
    14
 72
    15
 73
    11
  0
VERTEX
  5
1B32
  8
0
 10
0.0
 20
0.0
 30
0.0
 70
   128
 71
    16
 72
    17
 73
    18
  0
VERTEX
  5
1B33
  8
0
 10
0.0
 20
0.0
 30
0.0
 70
   128
 71
    16
 72
    18
 73
    19
  0
VERTEX
  5
1B34
  8
0
 10
0.0
 20
0.0
 30
0.0
 70
   128
 71
    20
 72
    13
 73
    16
  0
VERTEX
  5
1B35
  8
0
 10
0.0
 20
0.0
 30
0.0
 70
   128
 71
    20
 72
    14
 73
    13
  0
VERTEX
  5
1B36
  8
0
 10
0.0
 20
0.0
 30
0.0
 70
   128
 71
    21
 72
     6
 73
     8
  0
VERTEX
  5
1B37
  8
0
 10
0.0
 20
0.0
 30
0.0
 70
   128
 71
    21
 72
     8
 73
    10
  0
VERTEX
  5
1B38
  8
0
 10
0.0
 20
0.0
 30
0.0
 70
   128
 71
    10
 72
    22
 73
     4
  0
VERTEX
  5
1B39
  8
0
 10
0.0
 20
0.0
 30
0.0
 70
   128
 71
    10
 72
     4
 73
    21
  0
VERTEX
  5
1B3A
  8
0
 10
0.0
 20
0.0
 30
0.0
 70
   128
 71
    22
 72
     1
 73
     4
  0
VERTEX
  5
1B3B
  8
0
 10
0.0
 20
0.0
 30
0.0
 70
   128
 71
    19
 72
    20
 73
    16
  0
VERTEX
  5
1B3C
  8
0
 10
0.0
 20
0.0
 30
0.0
 70
   128
 71
     5
 72
     8
 73
     6
  0
VERTEX
  5
1B3D
  8
0
 10
0.0
 20
0.0
 30
0.0
 70
   128
 71
    23
 72
     5
 73
     7
  0
VERTEX
  5
1B3E
  8
0
 10
0.0
 20
0.0
 30
0.0
 70
   128
 71
    11
 72
    23
 73
     7
  0
VERTEX
  5
1B3F
  8
0
 10
0.0
 20
0.0
 30
0.0
 70
   128
 71
    11
 72
     7
 73
    12
  0
SEQEND
  5
1CA2
  8
0
  0
POLYLINE
  5
1B40
  8
0
 66
     1
 10
0.0
 20
0.0
 30
0.0
 70
    64
 71
     6
 72
     4
  0
VERTEX
  5
1B41
  8
0
 10
186.6445950165985
 20
-11.00000000000478
 30
224.7463491497226
 70
   192
  0
VERTEX
  5
1B42
  8
0
 10
183.5364545919279
 20
-11.00000075344172
 30
223.7926218770565
 70
   192
  0
VERTEX
  5
1B43
  8
0
 10
180.397406762365
 20
-10.99977581473588
 30
223.3514194304111
 70
   192
  0
VERTEX
  5
1B44
  8
0
 10
177.1462773753985
 20
-11.00000000000658
 30
223.4114476601961
 70
   192
  0
VERTEX
  5
1B45
  8
0
 10
176.737947032702
 20
-10.99999999999325
 30
226.3168690173111
 70
   192
  0
VERTEX
  5
1B46
  8
0
 10
186.2362646739
 20
-10.9999999999972
 30
227.6517705068941
 70
   192
  0
VERTEX
  5
1B47
  8
0
 10
0.0
 20
0.0
 30
0.0
 70
   128
 71
     1
 72
     6
 73
    -5
  0
VERTEX
  5
1B48
  8
0
 10
0.0
 20
0.0
 30
0.0
 70
   128
 71
    -1
 72
     5
 73
    -4
  0
VERTEX
  5
1B49
  8
0
 10
0.0
 20
0.0
 30
0.0
 70
   128
 71
    -1
 72
     4
 73
    -3
  0
VERTEX
  5
1B4A
  8
0
 10
0.0
 20
0.0
 30
0.0
 70
   128
 71
    -1
 72
     3
 73
     2
  0
SEQEND
  5
1CA3
  8
0
  0
POLYLINE
  5
1B4B
  8
0
 66
     1
 10
0.0
 20
0.0
 30
0.0
 70
    64
 71
    23
 72
    21
  0
VERTEX
  5
1B4C
  8
0
 10
171.9544572173888
 20
-6.574573055444714
 30
222.6817849215868
 70
   192
  0
VERTEX
  5
1B4D
  8
0
 10
170.5081263565147
 20
-3.430444865930236
 30
222.4785163751437
 70
   192
  0
VERTEX
  5
1B4E
  8
0
 10
172.4096354326747
 20
-4.018176039833776
 30
221.8712197166035
 70
   192
  0
VERTEX
  5
1B4F
  8
0
 10
170.012219371101
 20
-0.0000000001676263
 30
222.4088211934386
 70
   192
  0
VERTEX
  5
1B50
  8
0
 10
171.618148915201
 20
-0.0000000000872878
 30
221.7599835407926
 70
   192
  0
VERTEX
  5
1B51
  8
0
 10
180.397406762365
 20
-10.99977581473588
 30
223.3514194304111
 70
   192
  0
VERTEX
  5
1B52
  8
0
 10
177.1462773753985
 20
-11.00000000000658
 30
223.4114476601961
 70
   192
  0
VERTEX
  5
1B53
  8
0
 10
178.0368922101428
 20
-9.700735091378075
 30
222.6620790812
 70
   192
  0
VERTEX
  5
1B54
  8
0
 10
182.0159636369755
 20
-10.50000000001561
 30
223.2213011008707
 70
   192
  0
VERTEX
  5
1B55
  8
0
 10
174.6635983376769
 20
-7.424621202462486
 30
222.1879935446639
 70
   192
  0
VERTEX
  5
1B56
  8
0
 10
174.2304962270582
 20
-9.169964862889474
 30
223.0016613438211
 70
   192
  0
VERTEX
  5
1B57
  8
0
 10
189.560376164973
 20
-9.169964862854933
 30
225.1561354661835
 70
   192
  0
VERTEX
  5
1B58
  8
0
 10
186.6445950165985
 20
-11.00000000000478
 30
224.7463491497226
 70
   192
  0
VERTEX
  5
1B59
  8
0
 10
185.9950350638122
 20
-9.70073509138791
 30
223.780523120542
 70
   192
  0
VERTEX
  5
1B5A
  8
0
 10
189.3683289362889
 20
-7.424621202477536
 30
224.2546086570795
 70
   192
  0
VERTEX
  5
1B5B
  8
0
 10
183.5364545919279
 20
-11.00000075344172
 30
223.7926218770565
 70
   192
  0
VERTEX
  5
1B5C
  8
0
 10
193.3236948002156
 20
0.0000000001885061
 30
225.3935232979814
 70
   192
  0
VERTEX
  5
1B5D
  8
0
 10
193.2827460355231
 20
-3.430444865771006
 30
225.6792804348617
 70
   192
  0
VERTEX
  5
1B5E
  8
0
 10
191.8364151746615
 20
-6.574573055352809
 30
225.4760118884203
 70
   192
  0
VERTEX
  5
1B5F
  8
0
 10
193.7786530209115
 20
0.0000000000826353
 30
225.7489756164926
 70
   192
  0
VERTEX
  5
1B60
  8
0
 10
191.6222918413054
 20
-4.018176039846002
 30
224.571382485142
 70
   192
  0
VERTEX
  5
1B61
  8
0
 10
192.4137783587985
 20
0.00000000008573
 30
224.6826186609776
 70
   192
  0
VERTEX
  5
1B62
  8
0
 10
192.8687365795115
 20
0.0000000001920553
 30
225.0380709794783
 70
   192
  0
VERTEX
  5
1B63
  8
0
 10
0.0
 20
0.0
 30
0.0
 70
   128
 71
     1
 72
     2
 73
     3
  0
VERTEX
  5
1B64
  8
0
 10
0.0
 20
0.0
 30
0.0
 70
   128
 71
     2
 72
     4
 73
     5
  0
VERTEX
  5
1B65
  8
0
 10
0.0
 20
0.0
 30
0.0
 70
   128
 71
     2
 72
     5
 73
     3
  0
VERTEX
  5
1B66
  8
0
 10
0.0
 20
0.0
 30
0.0
 70
   128
 71
     6
 72
     7
 73
     8
  0
VERTEX
  5
1B67
  8
0
 10
0.0
 20
0.0
 30
0.0
 70
   128
 71
     8
 72
     9
 73
     6
  0
VERTEX
  5
1B68
  8
0
 10
0.0
 20
0.0
 30
0.0
 70
   128
 71
    10
 72
     8
 73
     7
  0
VERTEX
  5
1B69
  8
0
 10
0.0
 20
0.0
 30
0.0
 70
   128
 71
    10
 72
     7
 73
    11
  0
VERTEX
  5
1B6A
  8
0
 10
0.0
 20
0.0
 30
0.0
 70
   128
 71
    12
 72
    13
 73
    14
  0
VERTEX
  5
1B6B
  8
0
 10
0.0
 20
0.0
 30
0.0
 70
   128
 71
    12
 72
    14
 73
    15
  0
VERTEX
  5
1B6C
  8
0
 10
0.0
 20
0.0
 30
0.0
 70
   128
 71
    16
 72
     9
 73
    14
  0
VERTEX
  5
1B6D
  8
0
 10
0.0
 20
0.0
 30
0.0
 70
   128
 71
    14
 72
    13
 73
    16
  0
VERTEX
  5
1B6E
  8
0
 10
0.0
 20
0.0
 30
0.0
 70
   128
 71
    17
 72
    18
 73
    19
  0
VERTEX
  5
1B6F
  8
0
 10
0.0
 20
0.0
 30
0.0
 70
   128
 71
    17
 72
    20
 73
    18
  0
VERTEX
  5
1B70
  8
0
 10
0.0
 20
0.0
 30
0.0
 70
   128
 71
    21
 72
    22
 73
    23
  0
VERTEX
  5
1B71
  8
0
 10
0.0
 20
0.0
 30
0.0
 70
   128
 71
    23
 72
    15
 73
    21
  0
VERTEX
  5
1B72
  8
0
 10
0.0
 20
0.0
 30
0.0
 70
   128
 71
     1
 72
     3
 73
    10
  0
VERTEX
  5
1B73
  8
0
 10
0.0
 20
0.0
 30
0.0
 70
   128
 71
     1
 72
    10
 73
    11
  0
VERTEX
  5
1B74
  8
0
 10
0.0
 20
0.0
 30
0.0
 70
   128
 71
    19
 72
    12
 73
    15
  0
VERTEX
  5
1B75
  8
0
 10
0.0
 20
0.0
 30
0.0
 70
   128
 71
    15
 72
    23
 73
    17
  0
VERTEX
  5
1B76
  8
0
 10
0.0
 20
0.0
 30
0.0
 70
   128
 71
    15
 72
    17
 73
    19
  0
VERTEX
  5
1B77
  8
0
 10
0.0
 20
0.0
 30
0.0
 70
   128
 71
     6
 72
     9
 73
    16
  0
SEQEND
  5
1CA4
  8
0
  0
POLYLINE
  5
1B78
  8
0
 66
     1
 10
0.0
 20
0.0
 30
0.0
 70
    64
 71
    23
 72
    21
  0
VERTEX
  5
1B79
  8
0
 10
170.5081263564674
 20
3.430444865768455
 30
222.4785163751371
 70
   192
  0
VERTEX
  5
1B7A
  8
0
 10
170.012219371101
 20
-0.0000000001676263
 30
222.4088211934386
 70
   192
  0
VERTEX
  5
1B7B
  8
0
 10
168.9497754538915
 20
-0.0000000000008014
 30
229.9685024736881
 70
   192
  0
VERTEX
  5
1B7C
  8
0
 10
169.854331473874
 20
4.592201188380253
 30
230.0956295317611
 70
   192
  0
VERTEX
  5
1B7D
  8
0
 10
179.7923216449033
 20
11.88889020198454
 30
227.374473315616
 70
   192
  0
VERTEX
  5
1B7E
  8
0
 10
176.285482076701
 20
11.08655439013463
 30
230.9994688055793
 70
   192
  0
VERTEX
  5
1B7F
  8
0
 10
180.8329922787918
 20
11.99999999999919
 30
231.638579685199
 70
   192
  0
VERTEX
  5
1B80
  8
0
 10
176.737947032703
 20
10.99999999999621
 30
226.3168690173046
 70
   192
  0
VERTEX
  5
1B81
  8
0
 10
177.146277375398
 20
11.00000000000482
 30
223.4114476601956
 70
   192
  0
VERTEX
  5
1B82
  8
0
 10
174.2304962270153
 20
9.169964862851351
 30
223.0016613438151
 70
   192
  0
VERTEX
  5
1B83
  8
0
 10
186.236264673901
 20
11.00000000000015
 30
227.6517705068877
 70
   192
  0
VERTEX
  5
1B84
  8
0
 10
185.3805024808827
 20
11.08655439013463
 30
232.2776905648186
 70
   192
  0
VERTEX
  5
1B85
  8
0
 10
189.2356954779878
 20
8.485281374237768
 30
232.8195026065707
 70
   192
  0
VERTEX
  5
1B86
  8
0
 10
189.5603761649794
 20
9.1699648628479
 30
225.1561354661844
 70
   192
  0
VERTEX
  5
1B87
  8
0
 10
186.644595016602
 20
11.0000000000017
 30
224.7463491497231
 70
   192
  0
VERTEX
  5
1B88
  8
0
 10
191.8116530837096
 20
4.592201188380269
 30
233.1815298386369
 70
   192
  0
VERTEX
  5
1B89
  8
0
 10
192.716209103692
 20
-0.0000000000008153
 30
233.3086568967096
 70
   192
  0
VERTEX
  5
1B8A
  8
0
 10
193.7786530209115
 20
0.0000000000826353
 30
225.7489756164926
 70
   192
  0
VERTEX
  5
1B8B
  8
0
 10
193.2827460355238
 20
3.430444865766754
 30
225.6792804348619
 70
   192
  0
VERTEX
  5
1B8C
  8
0
 10
191.8364151746646
 20
6.574573055346528
 30
225.4760118884208
 70
   192
  0
VERTEX
  5
1B8D
  8
0
 10
172.4302890795958
 20
8.485281374237749
 30
230.4576567638273
 70
   192
  0
VERTEX
  5
1B8E
  8
0
 10
171.9544572173281
 20
6.574573055349513
 30
222.6817849215784
 70
   192
  0
VERTEX
  5
1B8F
  8
0
 10
183.0087028343425
 20
11.88888757580435
 30
227.8265006435664
 70
   192
  0
VERTEX
  5
1B90
  8
0
 10
0.0
 20
0.0
 30
0.0
 70
   128
 71
     1
 72
     2
 73
     3
  0
VERTEX
  5
1B91
  8
0
 10
0.0
 20
0.0
 30
0.0
 70
   128
 71
     1
 72
     3
 73
     4
  0
VERTEX
  5
1B92
  8
0
 10
0.0
 20
0.0
 30
0.0
 70
   128
 71
     5
 72
     6
 73
     7
  0
VERTEX
  5
1B93
  8
0
 10
0.0
 20
0.0
 30
0.0
 70
   128
 71
     8
 72
     9
 73
    10
  0
VERTEX
  5
1B94
  8
0
 10
0.0
 20
0.0
 30
0.0
 70
   128
 71
    11
 72
    12
 73
    13
  0
VERTEX
  5
1B95
  8
0
 10
0.0
 20
0.0
 30
0.0
 70
   128
 71
    11
 72
    13
 73
    14
  0
VERTEX
  5
1B96
  8
0
 10
0.0
 20
0.0
 30
0.0
 70
   128
 71
    14
 72
    15
 73
    11
  0
VERTEX
  5
1B97
  8
0
 10
0.0
 20
0.0
 30
0.0
 70
   128
 71
    16
 72
    17
 73
    18
  0
VERTEX
  5
1B98
  8
0
 10
0.0
 20
0.0
 30
0.0
 70
   128
 71
    16
 72
    18
 73
    19
  0
VERTEX
  5
1B99
  8
0
 10
0.0
 20
0.0
 30
0.0
 70
   128
 71
    20
 72
    13
 73
    16
  0
VERTEX
  5
1B9A
  8
0
 10
0.0
 20
0.0
 30
0.0
 70
   128
 71
    20
 72
    14
 73
    13
  0
VERTEX
  5
1B9B
  8
0
 10
0.0
 20
0.0
 30
0.0
 70
   128
 71
    21
 72
     6
 73
     8
  0
VERTEX
  5
1B9C
  8
0
 10
0.0
 20
0.0
 30
0.0
 70
   128
 71
    21
 72
     8
 73
    10
  0
VERTEX
  5
1B9D
  8
0
 10
0.0
 20
0.0
 30
0.0
 70
   128
 71
    10
 72
    22
 73
     4
  0
VERTEX
  5
1B9E
  8
0
 10
0.0
 20
0.0
 30
0.0
 70
   128
 71
    10
 72
     4
 73
    21
  0
VERTEX
  5
1B9F
  8
0
 10
0.0
 20
0.0
 30
0.0
 70
   128
 71
    22
 72
     1
 73
     4
  0
VERTEX
  5
1BA0
  8
0
 10
0.0
 20
0.0
 30
0.0
 70
   128
 71
    19
 72
    20
 73
    16
  0
VERTEX
  5
1BA1
  8
0
 10
0.0
 20
0.0
 30
0.0
 70
   128
 71
     5
 72
     8
 73
     6
  0
VERTEX
  5
1BA2
  8
0
 10
0.0
 20
0.0
 30
0.0
 70
   128
 71
    23
 72
     5
 73
     7
  0
VERTEX
  5
1BA3
  8
0
 10
0.0
 20
0.0
 30
0.0
 70
   128
 71
    11
 72
    23
 73
     7
  0
VERTEX
  5
1BA4
  8
0
 10
0.0
 20
0.0
 30
0.0
 70
   128
 71
    11
 72
     7
 73
    12
  0
SEQEND
  5
1CA5
  8
0
  0
POLYLINE
  5
1BA5
  8
0
 66
     1
 10
0.0
 20
0.0
 30
0.0
 70
    64
 71
     4
 72
     2
  0
VERTEX
  5
1BA6
  8
0
 10
186.2362646739
 20
-10.9999999999972
 30
227.6517705068941
 70
   192
  0
VERTEX
  5
1BA7
  8
0
 10
176.737947032702
 20
-10.99999999999325
 30
226.3168690173111
 70
   192
  0
VERTEX
  5
1BA8
  8
0
 10
179.7923164472779
 20
-11.88888757587907
 30
227.3744670161496
 70
   192
  0
VERTEX
  5
1BA9
  8
0
 10
183.0086961024212
 20
-11.88889020191266
 30
227.8265052664447
 70
   192
  0
VERTEX
  5
1BAA
  8
0
 10
0.0
 20
0.0
 30
0.0
 70
   128
 71
     1
 72
     4
 73
    -3
  0
VERTEX
  5
1BAB
  8
0
 10
0.0
 20
0.0
 30
0.0
 70
   128
 71
    -1
 72
     3
 73
     2
  0
SEQEND
  5
1CA6
  8
0
  0
POLYLINE
  5
1BAC
  8
0
 66
     1
 10
0.0
 20
0.0
 30
0.0
 70
    64
 71
    16
 72
    14
  0
VERTEX
  5
1BAD
  8
0
 10
192.4137783587985
 20
0.00000000008573
 30
224.6826186609776
 70
   192
  0
VERTEX
  5
1BAE
  8
0
 10
191.6222918413054
 20
4.018176039844432
 30
224.571382485142
 70
   192
  0
VERTEX
  5
1BAF
  8
0
 10
189.368328936289
 20
7.424621202475964
 30
224.2546086570796
 70
   192
  0
VERTEX
  5
1BB0
  8
0
 10
185.9950350638122
 20
9.700735091386338
 30
223.7805231205421
 70
   192
  0
VERTEX
  5
1BB1
  8
0
 10
182.0159636369877
 20
10.50000000000664
 30
223.2213011008854
 70
   192
  0
VERTEX
  5
1BB2
  8
0
 10
178.0368922101428
 20
9.70073509137653
 30
222.6620790812001
 70
   192
  0
VERTEX
  5
1BB3
  8
0
 10
174.663598337677
 20
7.424621202460962
 30
222.187993544664
 70
   192
  0
VERTEX
  5
1BB4
  8
0
 10
172.4096354326748
 20
4.018176039832264
 30
221.8712197166036
 70
   192
  0
VERTEX
  5
1BB5
  8
0
 10
171.618148915201
 20
-0.0000000000872878
 30
221.7599835407926
 70
   192
  0
VERTEX
  5
1BB6
  8
0
 10
172.4096354326747
 20
-4.018176039833776
 30
221.8712197166035
 70
   192
  0
VERTEX
  5
1BB7
  8
0
 10
174.6635983376769
 20
-7.424621202462486
 30
222.1879935446639
 70
   192
  0
VERTEX
  5
1BB8
  8
0
 10
178.0368922101428
 20
-9.700735091378075
 30
222.6620790812
 70
   192
  0
VERTEX
  5
1BB9
  8
0
 10
182.0159636369755
 20
-10.50000000001561
 30
223.2213011008707
 70
   192
  0
VERTEX
  5
1BBA
  8
0
 10
185.9950350638122
 20
-9.70073509138791
 30
223.780523120542
 70
   192
  0
VERTEX
  5
1BBB
  8
0
 10
189.3683289362889
 20
-7.424621202477536
 30
224.2546086570795
 70
   192
  0
VERTEX
  5
1BBC
  8
0
 10
191.6222918413054
 20
-4.018176039846002
 30
224.571382485142
 70
   192
  0
VERTEX
  5
1BBD
  8
0
 10
0.0
 20
0.0
 30
0.0
 70
   128
 71
     1
 72
    16
 73
   -15
  0
VERTEX
  5
1BBE
  8
0
 10
0.0
 20
0.0
 30
0.0
 70
   128
 71
    -1
 72
    15
 73
   -14
  0
VERTEX
  5
1BBF
  8
0
 10
0.0
 20
0.0
 30
0.0
 70
   128
 71
    -1
 72
    14
 73
   -13
  0
VERTEX
  5
1BC0
  8
0
 10
0.0
 20
0.0
 30
0.0
 70
   128
 71
    -1
 72
    13
 73
   -12
  0
VERTEX
  5
1BC1
  8
0
 10
0.0
 20
0.0
 30
0.0
 70
   128
 71
    -1
 72
    12
 73
   -11
  0
VERTEX
  5
1BC2
  8
0
 10
0.0
 20
0.0
 30
0.0
 70
   128
 71
    -1
 72
    11
 73
   -10
  0
VERTEX
  5
1BC3
  8
0
 10
0.0
 20
0.0
 30
0.0
 70
   128
 71
    -1
 72
    10
 73
    -9
  0
VERTEX
  5
1BC4
  8
0
 10
0.0
 20
0.0
 30
0.0
 70
   128
 71
    -1
 72
     9
 73
    -8
  0
VERTEX
  5
1BC5
  8
0
 10
0.0
 20
0.0
 30
0.0
 70
   128
 71
    -1
 72
     8
 73
    -7
  0
VERTEX
  5
1BC6
  8
0
 10
0.0
 20
0.0
 30
0.0
 70
   128
 71
    -1
 72
     7
 73
    -6
  0
VERTEX
  5
1BC7
  8
0
 10
0.0
 20
0.0
 30
0.0
 70
   128
 71
    -1
 72
     6
 73
    -5
  0
VERTEX
  5
1BC8
  8
0
 10
0.0
 20
0.0
 30
0.0
 70
   128
 71
    -1
 72
     5
 73
    -4
  0
VERTEX
  5
1BC9
  8
0
 10
0.0
 20
0.0
 30
0.0
 70
   128
 71
    -1
 72
     4
 73
    -3
  0
VERTEX
  5
1BCA
  8
0
 10
0.0
 20
0.0
 30
0.0
 70
   128
 71
    -1
 72
     3
 73
     2
  0
SEQEND
  5
1CA7
  8
0
  0
POLYLINE
  5
1BCB
  8
0
 66
     1
 10
0.0
 20
0.0
 30
0.0
 70
    64
 71
     4
 72
     2
  0
VERTEX
  5
1BCC
  8
0
 10
176.737947032703
 20
10.99999999999621
 30
226.3168690173046
 70
   192
  0
VERTEX
  5
1BCD
  8
0
 10
186.236264673901
 20
11.00000000000015
 30
227.6517705068877
 70
   192
  0
VERTEX
  5
1BCE
  8
0
 10
183.0087028343425
 20
11.88888757580435
 30
227.8265006435664
 70
   192
  0
VERTEX
  5
1BCF
  8
0
 10
179.7923216449033
 20
11.88889020198454
 30
227.374473315616
 70
   192
  0
VERTEX
  5
1BD0
  8
0
 10
0.0
 20
0.0
 30
0.0
 70
   128
 71
     1
 72
     4
 73
    -3
  0
VERTEX
  5
1BD1
  8
0
 10
0.0
 20
0.0
 30
0.0
 70
   128
 71
    -1
 72
     3
 73
     2
  0
SEQEND
  5
1CA8
  8
0
  0
POLYLINE
  5
1BD2
  8
0
 66
     1
 10
0.0
 20
0.0
 30
0.0
 70
    64
 71
     9
 72
     7
  0
VERTEX
  5
1BD3
  8
0
 10
177.146277375398
 20
11.00000000000482
 30
223.4114476601956
 70
   192
  0
VERTEX
  5
1BD4
  8
0
 10
178.7903867914802
 20
10.99985526251445
 30
223.3220461415325
 70
   192
  0
VERTEX
  5
1BD5
  8
0
 10
180.3971191107848
 20
10.99978696461152
 30
223.3514016867542
 70
   192
  0
VERTEX
  5
1BD6
  8
0
 10
181.9757736563643
 20
11.00000110295227
 30
223.5071680898573
 70
   192
  0
VERTEX
  5
1BD7
  8
0
 10
183.5361345259648
 20
10.99978928913914
 30
223.7925542459796
 70
   192
  0
VERTEX
  5
1BD8
  8
0
 10
185.088723184924
 20
10.99985271542692
 30
224.2072022731261
 70
   192
  0
VERTEX
  5
1BD9
  8
0
 10
186.644595016602
 20
11.0000000000017
 30
224.7463491497231
 70
   192
  0
VERTEX
  5
1BDA
  8
0
 10
186.236264673901
 20
11.00000000000015
 30
227.6517705068877
 70
   192
  0
VERTEX
  5
1BDB
  8
0
 10
176.737947032703
 20
10.99999999999621
 30
226.3168690173046
 70
   192
  0
VERTEX
  5
1BDC
  8
0
 10
0.0
 20
0.0
 30
0.0
 70
   128
 71
     2
 72
     1
 73
    -9
  0
VERTEX
  5
1BDD
  8
0
 10
0.0
 20
0.0
 30
0.0
 70
   128
 71
    -9
 72
     3
 73
    -2
  0
VERTEX
  5
1BDE
  8
0
 10
0.0
 20
0.0
 30
0.0
 70
   128
 71
    -9
 72
     4
 73
    -3
  0
VERTEX
  5
1BDF
  8
0
 10
0.0
 20
0.0
 30
0.0
 70
   128
 71
     9
 72
    -8
 73
    -5
  0
VERTEX
  5
1BE0
  8
0
 10
0.0
 20
0.0
 30
0.0
 70
   128
 71
    -9
 72
     5
 73
    -4
  0
VERTEX
  5
1BE1
  8
0
 10
0.0
 20
0.0
 30
0.0
 70
   128
 71
    -8
 72
     6
 73
    -5
  0
VERTEX
  5
1BE2
  8
0
 10
0.0
 20
0.0
 30
0.0
 70
   128
 71
     8
 72
     7
 73
    -6
  0
SEQEND
  5
1CA9
  8
0
  0
POLYLINE
  5
1BE3
  8
0
 66
     1
 10
0.0
 20
0.0
 30
0.0
 70
    64
 71
    14
 72
    12
  0
VERTEX
  5
1BE4
  8
0
 10
181.9757736563643
 20
11.00000110295227
 30
223.5071680898573
 70
   192
  0
VERTEX
  5
1BE5
  8
0
 10
181.9757876461885
 20
11.00000220451635
 30
223.5071681292833
 70
   192
  0
VERTEX
  5
1BE6
  8
0
 10
182.0159636369755
 20
10.50000000001405
 30
223.2213011008707
 70
   192
  0
VERTEX
  5
1BE7
  8
0
 10
180.3971191107848
 20
10.99978696461152
 30
223.3514016867542
 70
   192
  0
VERTEX
  5
1BE8
  8
0
 10
178.7903867914802
 20
10.99985526251445
 30
223.3220461415325
 70
   192
  0
VERTEX
  5
1BE9
  8
0
 10
178.0368922101428
 20
9.70073509137653
 30
222.6620790812001
 70
   192
  0
VERTEX
  5
1BEA
  8
0
 10
174.2304962270153
 20
9.169964862851351
 30
223.0016613438151
 70
   192
  0
VERTEX
  5
1BEB
  8
0
 10
174.663598337677
 20
7.424621202460962
 30
222.187993544664
 70
   192
  0
VERTEX
  5
1BEC
  8
0
 10
171.9544572173281
 20
6.574573055349513
 30
222.6817849215784
 70
   192
  0
VERTEX
  5
1BED
  8
0
 10
172.4096354326748
 20
4.018176039832264
 30
221.8712197166036
 70
   192
  0
VERTEX
  5
1BEE
  8
0
 10
171.618148915201
 20
-0.0000000000872878
 30
221.7599835407926
 70
   192
  0
VERTEX
  5
1BEF
  8
0
 10
170.012219371101
 20
-0.0000000001676263
 30
222.4088211934386
 70
   192
  0
VERTEX
  5
1BF0
  8
0
 10
170.5081263564674
 20
3.430444865768455
 30
222.4785163751371
 70
   192
  0
VERTEX
  5
1BF1
  8
0
 10
177.146277375398
 20
11.00000000000482
 30
223.4114476601956
 70
   192
  0
VERTEX
  5
1BF2
  8
0
 10
0.0
 20
0.0
 30
0.0
 70
   128
 71
     1
 72
     2
 73
     3
  0
VERTEX
  5
1BF3
  8
0
 10
0.0
 20
0.0
 30
0.0
 70
   128
 71
     3
 72
     4
 73
     1
  0
VERTEX
  5
1BF4
  8
0
 10
0.0
 20
0.0
 30
0.0
 70
   128
 71
     5
 72
     4
 73
     3
  0
VERTEX
  5
1BF5
  8
0
 10
0.0
 20
0.0
 30
0.0
 70
   128
 71
     5
 72
     3
 73
     6
  0
VERTEX
  5
1BF6
  8
0
 10
0.0
 20
0.0
 30
0.0
 70
   128
 71
     7
 72
     6
 73
     8
  0
VERTEX
  5
1BF7
  8
0
 10
0.0
 20
0.0
 30
0.0
 70
   128
 71
     9
 72
     8
 73
    10
  0
VERTEX
  5
1BF8
  8
0
 10
0.0
 20
0.0
 30
0.0
 70
   128
 71
    10
 72
    11
 73
    12
  0
VERTEX
  5
1BF9
  8
0
 10
0.0
 20
0.0
 30
0.0
 70
   128
 71
    10
 72
    12
 73
    13
  0
VERTEX
  5
1BFA
  8
0
 10
0.0
 20
0.0
 30
0.0
 70
   128
 71
     7
 72
     8
 73
     9
  0
VERTEX
  5
1BFB
  8
0
 10
0.0
 20
0.0
 30
0.0
 70
   128
 71
     9
 72
    10
 73
    13
  0
VERTEX
  5
1BFC
  8
0
 10
0.0
 20
0.0
 30
0.0
 70
   128
 71
     5
 72
     6
 73
     7
  0
VERTEX
  5
1BFD
  8
0
 10
0.0
 20
0.0
 30
0.0
 70
   128
 71
     5
 72
     7
 73
    14
  0
SEQEND
  5
1CAA
  8
0
  0
ENDBLK
  5
1CA0
  8
0
  0
ENDSEC
  0
SECTION
  2
ENTITIES
  0
INSERT
  5
BE
  8
0
  2
*X1
 10
0.0
 20
0.0
 30
0.0
  0
INSERT
  5
BF
  8
0
  2
*X2
 10
0.0
 20
0.0
 30
0.0
  0
INSERT
  5
C0
  8
0
  2
*X3
 10
0.0
 20
0.0
 30
0.0
  0
INSERT
  5
C1
  8
0
  2
*X4
 10
0.0
 20
0.0
 30
0.0
  0
INSERT
  5
C2
  8
0
  2
*X5
 10
0.0
 20
0.0
 30
0.0
  0
POLYLINE
  5
C3
  8
0
 66
     1
 10
0.0
 20
0.0
 30
0.0
 70
    64
 71
    16
 72
    14
  0
VERTEX
  5
1AD5
  8
0
 10
-18.5
 20
0.0
 30
0.0000000000000867
 70
   192
  0
VERTEX
  5
1AD6
  8
0
 10
-17.0917713514588
 20
-7.079643498754173
 30
0.000000000000062
 70
   192
  0
VERTEX
  5
1AD7
  8
0
 10
-13.0814754519511
 20
-13.08147545195114
 30
0.0000000000000411
 70
   192
  0
VERTEX
  5
1AD8
  8
0
 10
-7.079643498754125
 20
-17.09177135145881
 30
0.0000000000000271
 70
   192
  0
VERTEX
  5
1AD9
  8
0
 10
0.0000000000000281
 20
-18.5
 30
0.0000000000000221
 70
   192
  0
VERTEX
  5
1ADA
  8
0
 10
7.079643498754182
 20
-17.0917713514588
 30
0.0000000000000271
 70
   192
  0
VERTEX
  5
1ADB
  8
0
 10
13.08147545195114
 20
-13.08147545195112
 30
0.0000000000000411
 70
   192
  0
VERTEX
  5
1ADC
  8
0
 10
17.0917713514588
 20
-7.079643498754148
 30
0.000000000000062
 70
   192
  0
VERTEX
  5
1ADD
  8
0
 10
18.5
 20
0.0000000000000069
 30
0.0000000000000867
 70
   192
  0
VERTEX
  5
1ADE
  8
0
 10
17.0917713514588
 20
7.079643498754158
 30
0.0000000000001115
 70
   192
  0
VERTEX
  5
1ADF
  8
0
 10
13.08147545195112
 20
13.08147545195112
 30
0.0000000000001324
 70
   192
  0
VERTEX
  5
1AE0
  8
0
 10
7.079643498754161
 20
17.0917713514588
 30
0.0000000000001464
 70
   192
  0
VERTEX
  5
1AE1
  8
0
 10
-0.0000000000000138
 20
18.5
 30
0.0000000000001513
 70
   192
  0
VERTEX
  5
1AE2
  8
0
 10
-7.07964349875417
 20
17.09177135145879
 30
0.0000000000001464
 70
   192
  0
VERTEX
  5
1AE3
  8
0
 10
-13.08147545195113
 20
13.08147545195111
 30
0.0000000000001324
 70
   192
  0
VERTEX
  5
1AE4
  8
0
 10
-17.0917713514588
 20
7.079643498754147
 30
0.0000000000001115
 70
   192
  0
VERTEX
  5
1AE5
  8
0
 10
0.0
 20
0.0
 30
0.0
 70
   128
 71
     1
 72
    16
 73
   -15
  0
VERTEX
  5
1AE6
  8
0
 10
0.0
 20
0.0
 30
0.0
 70
   128
 71
    -1
 72
    15
 73
   -14
  0
VERTEX
  5
1AE7
  8
0
 10
0.0
 20
0.0
 30
0.0
 70
   128
 71
    -1
 72
    14
 73
   -13
  0
VERTEX
  5
1AE8
  8
0
 10
0.0
 20
0.0
 30
0.0
 70
   128
 71
    -1
 72
    13
 73
   -12
  0
VERTEX
  5
1AE9
  8
0
 10
0.0
 20
0.0
 30
0.0
 70
   128
 71
    -1
 72
    12
 73
   -11
  0
VERTEX
  5
1AEA
  8
0
 10
0.0
 20
0.0
 30
0.0
 70
   128
 71
    -1
 72
    11
 73
   -10
  0
VERTEX
  5
1AEB
  8
0
 10
0.0
 20
0.0
 30
0.0
 70
   128
 71
    -1
 72
    10
 73
    -9
  0
VERTEX
  5
1AEC
  8
0
 10
0.0
 20
0.0
 30
0.0
 70
   128
 71
    -1
 72
     9
 73
    -8
  0
VERTEX
  5
1AED
  8
0
 10
0.0
 20
0.0
 30
0.0
 70
   128
 71
    -1
 72
     8
 73
    -7
  0
VERTEX
  5
1AEE
  8
0
 10
0.0
 20
0.0
 30
0.0
 70
   128
 71
    -1
 72
     7
 73
    -6
  0
VERTEX
  5
1AEF
  8
0
 10
0.0
 20
0.0
 30
0.0
 70
   128
 71
    -1
 72
     6
 73
    -5
  0
VERTEX
  5
1AF0
  8
0
 10
0.0
 20
0.0
 30
0.0
 70
   128
 71
    -1
 72
     5
 73
    -4
  0
VERTEX
  5
1AF1
  8
0
 10
0.0
 20
0.0
 30
0.0
 70
   128
 71
    -1
 72
     4
 73
    -3
  0
VERTEX
  5
1AF2
  8
0
 10
0.0
 20
0.0
 30
0.0
 70
   128
 71
    -1
 72
     3
 73
     2
  0
SEQEND
  5
1CAB
  8
0
  0
INSERT
  5
C4
  8
0
  2
*X6
 10
0.0
 20
0.0
 30
0.0
  0
ENDSEC
  0
EOF
