  0
SECTION
  2
HEADER
  9
$ACADVER
  1
AC1009
  9
$DWGCODEPAGE
  3
ansi_1250
  9
$INSBASE
 10
0.0
 20
0.0
 30
0.0
  9
$EXTMIN
 10
-175.0
 20
-70.0
 30
-47.50000000000001
  9
$EXTMAX
 10
175.0
 20
0.0
 30
47.5
  9
$LIMMIN
 10
0.0
 20
0.0
  9
$LIMMAX
 10
420.0
 20
297.0
  9
$ORTHOMODE
 70
     0
  9
$REGENMODE
 70
     1
  9
$FILLMODE
 70
     1
  9
$QTEXTMODE
 70
     0
  9
$MIRRTEXT
 70
     0
  9
$DRAGMODE
 70
     2
  9
$LTSCALE
 40
1.0
  9
$OSMODE
 70
   511
  9
$ATTMODE
 70
     1
  9
$TEXTSIZE
 40
2.5
  9
$TRACEWID
 40
1.0
  9
$TEXTSTYLE
  7
STANDARD
  9
$CLAYER
  8
0
  9
$CELTYPE
  6
BYLAYER
  9
$CECOLOR
 62
   256
  9
$DIMSCALE
 40
1.0
  9
$DIMASZ
 40
2.5
  9
$DIMEXO
 40
0.625
  9
$DIMDLI
 40
3.75
  9
$DIMRND
 40
0.0
  9
$DIMDLE
 40
0.0
  9
$DIMEXE
 40
1.25
  9
$DIMTP
 40
0.0
  9
$DIMTM
 40
0.0
  9
$DIMTXT
 40
2.5
  9
$DIMCEN
 40
-2.5
  9
$DIMTSZ
 40
0.0
  9
$DIMTOL
 70
     0
  9
$DIMLIM
 70
     0
  9
$DIMTIH
 70
     0
  9
$DIMTOH
 70
     0
  9
$DIMSE1
 70
     0
  9
$DIMSE2
 70
     0
  9
$DIMTAD
 70
     1
  9
$DIMZIN
 70
     8
  9
$DIMBLK
  1

  9
$DIMASO
 70
     1
  9
$DIMSHO
 70
     1
  9
$DIMPOST
  1

  9
$DIMAPOST
  1

  9
$DIMALT
 70
     0
  9
$DIMALTD
 70
     3
  9
$DIMALTF
 40
0.03937007874016
  9
$DIMLFAC
 40
1.0
  9
$DIMTOFL
 70
     1
  9
$DIMTVP
 40
0.0
  9
$DIMTIX
 70
     0
  9
$DIMSOXD
 70
     0
  9
$DIMSAH
 70
     0
  9
$DIMBLK1
  1

  9
$DIMBLK2
  1

  9
$DIMSTYLE
  2
ISO-25
  9
$DIMCLRD
 70
     0
  9
$DIMCLRE
 70
     0
  9
$DIMCLRT
 70
     0
  9
$DIMTFAC
 40
1.0
  9
$DIMGAP
 40
0.625
  9
$LUNITS
 70
     2
  9
$LUPREC
 70
     3
  9
$SKETCHINC
 40
1.0
  9
$FILLETRAD
 40
10.0
  9
$AUNITS
 70
     0
  9
$AUPREC
 70
     0
  9
$MENU
  1
.
  9
$ELEVATION
 40
0.0
  9
$PELEVATION
 40
0.0
  9
$THICKNESS
 40
0.0
  9
$LIMCHECK
 70
     0
  9
$CHAMFERA
 40
10.0
  9
$CHAMFERB
 40
10.0
  9
$SKPOLY
 70
     0
  9
$TDCREATE
 40
2455022.720692848
  9
$TDUPDATE
 40
2460543.640208634
  9
$TDINDWG
 40
0.2288397685
  9
$TDUSRTIMER
 40
0.229606956
  9
$USRTIMER
 70
     1
  9
$ANGBASE
 50
0.0
  9
$ANGDIR
 70
     0
  9
$PDMODE
 70
     0
  9
$PDSIZE
 40
0.0
  9
$PLINEWID
 40
0.0
  9
$COORDS
 70
     1
  9
$SPLFRAME
 70
     0
  9
$SPLINETYPE
 70
     6
  9
$SPLINESEGS
 70
     8
  9
$ATTDIA
 70
     0
  9
$ATTREQ
 70
     1
  9
$HANDLING
 70
     1
  9
$HANDSEED
  5
744
  9
$SURFTAB1
 70
     6
  9
$SURFTAB2
 70
     6
  9
$SURFTYPE
 70
     6
  9
$SURFU
 70
     6
  9
$SURFV
 70
     6
  9
$UCSNAME
  2

  9
$UCSORG
 10
0.0
 20
0.0
 30
0.0
  9
$UCSXDIR
 10
1.0
 20
0.0
 30
0.0
  9
$UCSYDIR
 10
0.0
 20
1.0
 30
0.0
  9
$PUCSNAME
  2

  9
$PUCSORG
 10
0.0
 20
0.0
 30
0.0
  9
$PUCSXDIR
 10
1.0
 20
0.0
 30
0.0
  9
$PUCSYDIR
 10
0.0
 20
1.0
 30
0.0
  9
$USERI1
 70
     0
  9
$USERI2
 70
     0
  9
$USERI3
 70
     0
  9
$USERI4
 70
     0
  9
$USERI5
 70
     0
  9
$USERR1
 40
0.0
  9
$USERR2
 40
0.0
  9
$USERR3
 40
0.0
  9
$USERR4
 40
0.0
  9
$USERR5
 40
0.0
  9
$WORLDVIEW
 70
     1
  9
$SHADEDGE
 70
     3
  9
$SHADEDIF
 70
    70
  9
$TILEMODE
 70
     1
  9
$MAXACTVP
 70
    64
  9
$PLIMCHECK
 70
     0
  9
$PEXTMIN
 10
1.000000000000000E+20
 20
1.000000000000000E+20
 30
1.000000000000000E+20
  9
$PEXTMAX
 10
-1.000000000000000E+20
 20
-1.000000000000000E+20
 30
-1.000000000000000E+20
  9
$PLIMMIN
 10
0.0
 20
0.0
  9
$PLIMMAX
 10
0.0
 20
0.0
  9
$UNITMODE
 70
     0
  9
$VISRETAIN
 70
     1
  9
$PLINEGEN
 70
     0
  9
$PSLTSCALE
 70
     1
  0
ENDSEC
  0
SECTION
  2
TABLES
  0
TABLE
  2
VPORT
 70
     1
  0
VPORT
  2
*ACTIVE
 70
     0
 10
0.0
 20
0.0
 11
1.0
 21
1.0
 12
-119.633215512337
 22
-40.49288884759795
 13
0.0
 23
0.0
 14
10.0
 24
10.0
 15
10.0
 25
10.0
 16
0.5773502691896226
 26
0.5773502691896226
 36
0.5773502691896226
 17
-134.1869158878504
 27
-0.0000000000000142
 37
0.0000000000000142
 40
254.0120863266156
 41
1.739930955120829
 42
50.0
 43
0.0
 44
0.0
 50
0.0
 51
0.0
 71
    16
 72
  1000
 73
     1
 74
     3
 75
     0
 76
     0
 77
     0
 78
     0
  0
ENDTAB
  0
TABLE
  2
LTYPE
 70
     1
  0
LTYPE
  2
CONTINUOUS
 70
     0
  3
Solid line
 72
    65
 73
     0
 40
0.0
  0
ENDTAB
  0
TABLE
  2
LAYER
 70
     1
  0
LAYER
  2
0
 70
     0
 62
     7
  6
CONTINUOUS
  0
ENDTAB
  0
TABLE
  2
STYLE
 70
     2
  0
STYLE
  2
STANDARD
 70
     0
 40
0.0
 41
1.0
 50
0.0
 71
     0
 42
2.5
  3
arial.ttf
  4

  0
STYLE
  2
ANNOTATIVE
 70
     0
 40
0.0
 41
1.0
 50
0.0
 71
     0
 42
2.5
  3
arial.ttf
  4

  0
ENDTAB
  0
TABLE
  2
VIEW
 70
     0
  0
ENDTAB
  0
TABLE
  2
UCS
 70
     0
  0
ENDTAB
  0
TABLE
  2
APPID
 70
     2
  0
APPID
  2
ACAD
 70
     0
  0
APPID
  2
ACADANNOTATIVE
 70
     0
  0
ENDTAB
  0
TABLE
  2
DIMSTYLE
 70
     2
  0
DIMSTYLE
  2
ISO-25
 70
     0
  3

  4

  5

  6

  7

 40
1.0
 41
2.5
 42
0.625
 43
3.75
 44
1.25
 45
0.0
 46
0.0
 47
0.0
 48
0.0
140
2.5
141
-2.5
142
0.0
143
0.03937007874016
144
1.0
145
0.0
146
1.0
147
0.625
 71
     0
 72
     0
 73
     0
 74
     0
 75
     0
 76
     0
 77
     1
 78
     8
170
     0
171
     3
172
     1
173
     0
174
     0
175
     0
176
     0
177
     0
178
     0
  0
DIMSTYLE
  2
ANNOTATIVE
 70
     0
  3

  4

  5

  6

  7

 40
0.0
 41
2.5
 42
0.625
 43
3.75
 44
1.25
 45
0.0
 46
0.0
 47
0.0
 48
0.0
140
2.5
141
-2.5
142
0.0
143
0.03937007874016
144
1.0
145
0.0
146
1.0
147
0.625
 71
     0
 72
     0
 73
     0
 74
     0
 75
     0
 76
     0
 77
     1
 78
     8
170
     0
171
     3
172
     1
173
     0
174
     0
175
     0
176
     0
177
     0
178
     0
  0
ENDTAB
  0
ENDSEC
  0
SECTION
  2
BLOCKS
  0
BLOCK
  8
0
  2
$MODEL_SPACE
 70
     0
 10
0.0
 20
0.0
 30
0.0
  3
$MODEL_SPACE
  1

  0
ENDBLK
  5
21
  8
0
  0
BLOCK
 67
     1
  8
0
  2
$PAPER_SPACE
 70
     0
 10
0.0
 20
0.0
 30
0.0
  3
$PAPER_SPACE
  1

  0
ENDBLK
  5
1D
 67
     1
  8
0
  0
BLOCK
  8
0
  2
*X1
 70
     1
 10
0.0
 20
0.0
 30
0.0
  3
*X1
  1

  0
POLYLINE
  5
40A
  8
0
 66
     1
 10
0.0
 20
0.0
 30
0.0
 70
    64
 71
     8
 72
     6
  0
VERTEX
  5
40B
  8
0
 10
-174.3301270189222
 20
0.0
 30
45.0
 70
   192
  0
VERTEX
  5
40C
  8
0
 10
-174.3301270189222
 20
-2.0
 30
45.0
 70
   192
  0
VERTEX
  5
40D
  8
0
 10
-172.5
 20
-2.0
 30
46.83012701892219
 70
   192
  0
VERTEX
  5
40E
  8
0
 10
-172.5
 20
0.0
 30
46.83012701892219
 70
   192
  0
VERTEX
  5
40F
  8
0
 10
-175.0
 20
0.0
 30
42.5
 70
   192
  0
VERTEX
  5
410
  8
0
 10
-175.0
 20
-2.0
 30
42.5
 70
   192
  0
VERTEX
  5
411
  8
0
 10
-170.0
 20
-2.0
 30
47.5
 70
   192
  0
VERTEX
  5
412
  8
0
 10
-170.0
 20
0.0
 30
47.5
 70
   192
  0
VERTEX
  5
413
  8
0
 10
0.0
 20
0.0
 30
0.0
 70
   128
 71
     1
 72
     2
 73
    -3
  0
VERTEX
  5
414
  8
0
 10
0.0
 20
0.0
 30
0.0
 70
   128
 71
    -1
 72
     3
 73
     4
  0
VERTEX
  5
415
  8
0
 10
0.0
 20
0.0
 30
0.0
 70
   128
 71
     5
 72
     6
 73
    -2
  0
VERTEX
  5
416
  8
0
 10
0.0
 20
0.0
 30
0.0
 70
   128
 71
    -5
 72
     2
 73
     1
  0
VERTEX
  5
417
  8
0
 10
0.0
 20
0.0
 30
0.0
 70
   128
 71
     4
 72
     3
 73
    -7
  0
VERTEX
  5
418
  8
0
 10
0.0
 20
0.0
 30
0.0
 70
   128
 71
    -4
 72
     7
 73
     8
  0
SEQEND
  5
712
  8
0
  0
POLYLINE
  5
419
  8
0
 66
     1
 10
0.0
 20
0.0
 30
0.0
 70
    64
 71
     8
 72
     6
  0
VERTEX
  5
41A
  8
0
 10
49.33012701892219
 20
-2.0
 30
45.0
 70
   192
  0
VERTEX
  5
41B
  8
0
 10
49.33012701892219
 20
0.0
 30
45.0
 70
   192
  0
VERTEX
  5
41C
  8
0
 10
47.5
 20
0.0
 30
46.83012701892219
 70
   192
  0
VERTEX
  5
41D
  8
0
 10
47.5
 20
-2.0
 30
46.83012701892219
 70
   192
  0
VERTEX
  5
41E
  8
0
 10
50.0
 20
-2.0
 30
42.5
 70
   192
  0
VERTEX
  5
41F
  8
0
 10
50.0
 20
0.0
 30
42.5
 70
   192
  0
VERTEX
  5
420
  8
0
 10
45.0
 20
0.0
 30
47.5
 70
   192
  0
VERTEX
  5
421
  8
0
 10
45.0
 20
-2.0
 30
47.5
 70
   192
  0
VERTEX
  5
422
  8
0
 10
0.0
 20
0.0
 30
0.0
 70
   128
 71
     1
 72
     2
 73
    -3
  0
VERTEX
  5
423
  8
0
 10
0.0
 20
0.0
 30
0.0
 70
   128
 71
    -1
 72
     3
 73
     4
  0
VERTEX
  5
424
  8
0
 10
0.0
 20
0.0
 30
0.0
 70
   128
 71
     5
 72
     6
 73
    -2
  0
VERTEX
  5
425
  8
0
 10
0.0
 20
0.0
 30
0.0
 70
   128
 71
    -5
 72
     2
 73
     1
  0
VERTEX
  5
426
  8
0
 10
0.0
 20
0.0
 30
0.0
 70
   128
 71
     4
 72
     3
 73
    -7
  0
VERTEX
  5
427
  8
0
 10
0.0
 20
0.0
 30
0.0
 70
   128
 71
    -4
 72
     7
 73
     8
  0
SEQEND
  5
713
  8
0
  0
POLYLINE
  5
428
  8
0
 66
     1
 10
0.0
 20
0.0
 30
0.0
 70
    64
 71
     8
 72
     6
  0
VERTEX
  5
429
  8
0
 10
172.5
 20
-68.00000000000003
 30
28.33012701892195
 70
   192
  0
VERTEX
  5
42A
  8
0
 10
172.5
 20
-70.00000000000003
 30
28.33012701892194
 70
   192
  0
VERTEX
  5
42B
  8
0
 10
174.3301270189222
 20
-70.00000000000001
 30
26.49999999999975
 70
   192
  0
VERTEX
  5
42C
  8
0
 10
174.3301270189222
 20
-68.00000000000001
 30
26.49999999999975
 70
   192
  0
VERTEX
  5
42D
  8
0
 10
170.0
 20
-68.00000000000003
 30
28.99999999999975
 70
   192
  0
VERTEX
  5
42E
  8
0
 10
170.0
 20
-70.0
 30
29.0
 70
   192
  0
VERTEX
  5
42F
  8
0
 10
175.0
 20
-70.0
 30
23.99999999999975
 70
   192
  0
VERTEX
  5
430
  8
0
 10
175.0
 20
-68.0
 30
23.99999999999977
 70
   192
  0
VERTEX
  5
431
  8
0
 10
0.0
 20
0.0
 30
0.0
 70
   128
 71
     1
 72
     2
 73
    -3
  0
VERTEX
  5
432
  8
0
 10
0.0
 20
0.0
 30
0.0
 70
   128
 71
    -1
 72
     3
 73
     4
  0
VERTEX
  5
433
  8
0
 10
0.0
 20
0.0
 30
0.0
 70
   128
 71
     5
 72
     6
 73
    -2
  0
VERTEX
  5
434
  8
0
 10
0.0
 20
0.0
 30
0.0
 70
   128
 71
    -5
 72
     2
 73
     1
  0
VERTEX
  5
435
  8
0
 10
0.0
 20
0.0
 30
0.0
 70
   128
 71
     4
 72
     3
 73
    -7
  0
VERTEX
  5
436
  8
0
 10
0.0
 20
0.0
 30
0.0
 70
   128
 71
    -4
 72
     7
 73
     8
  0
SEQEND
  5
714
  8
0
  0
POLYLINE
  5
437
  8
0
 66
     1
 10
0.0
 20
0.0
 30
0.0
 70
    64
 71
     8
 72
     6
  0
VERTEX
  5
438
  8
0
 10
-143.0
 20
-59.66987298107781
 30
26.5
 70
   192
  0
VERTEX
  5
439
  8
0
 10
-145.0
 20
-59.66987298107781
 30
26.5
 70
   192
  0
VERTEX
  5
43A
  8
0
 10
-145.0
 20
-61.5
 30
28.33012701892219
 70
   192
  0
VERTEX
  5
43B
  8
0
 10
-143.0
 20
-61.5
 30
28.33012701892219
 70
   192
  0
VERTEX
  5
43C
  8
0
 10
-143.0
 20
-59.0
 30
24.0
 70
   192
  0
VERTEX
  5
43D
  8
0
 10
-145.0
 20
-59.0
 30
24.0
 70
   192
  0
VERTEX
  5
43E
  8
0
 10
-145.0
 20
-64.0
 30
29.0
 70
   192
  0
VERTEX
  5
43F
  8
0
 10
-143.0
 20
-63.99999999999999
 30
29.0
 70
   192
  0
VERTEX
  5
440
  8
0
 10
0.0
 20
0.0
 30
0.0
 70
   128
 71
     1
 72
     2
 73
    -3
  0
VERTEX
  5
441
  8
0
 10
0.0
 20
0.0
 30
0.0
 70
   128
 71
    -1
 72
     3
 73
     4
  0
VERTEX
  5
442
  8
0
 10
0.0
 20
0.0
 30
0.0
 70
   128
 71
     5
 72
     6
 73
    -2
  0
VERTEX
  5
443
  8
0
 10
0.0
 20
0.0
 30
0.0
 70
   128
 71
    -5
 72
     2
 73
     1
  0
VERTEX
  5
444
  8
0
 10
0.0
 20
0.0
 30
0.0
 70
   128
 71
     4
 72
     3
 73
    -7
  0
VERTEX
  5
445
  8
0
 10
0.0
 20
0.0
 30
0.0
 70
   128
 71
    -4
 72
     7
 73
     8
  0
SEQEND
  5
715
  8
0
  0
POLYLINE
  5
446
  8
0
 66
     1
 10
0.0
 20
0.0
 30
0.0
 70
    64
 71
     8
 72
     6
  0
VERTEX
  5
447
  8
0
 10
-143.0
 20
-61.49999999999999
 30
-0.3301270189223495
 70
   192
  0
VERTEX
  5
448
  8
0
 10
-145.0
 20
-61.49999999999999
 30
-0.3301270189223495
 70
   192
  0
VERTEX
  5
449
  8
0
 10
-145.0
 20
-59.6698729810778
 30
1.499999999999855
 70
   192
  0
VERTEX
  5
44A
  8
0
 10
-143.0
 20
-59.6698729810778
 30
1.499999999999855
 70
   192
  0
VERTEX
  5
44B
  8
0
 10
-143.0
 20
-64.0
 30
-1.000000000000161
 70
   192
  0
VERTEX
  5
44C
  8
0
 10
-145.0
 20
-64.0
 30
-1.000000000000166
 70
   192
  0
VERTEX
  5
44D
  8
0
 10
-145.0
 20
-59.0
 30
3.999999999999866
 70
   192
  0
VERTEX
  5
44E
  8
0
 10
-143.0
 20
-58.99999999999999
 30
3.999999999999865
 70
   192
  0
VERTEX
  5
44F
  8
0
 10
0.0
 20
0.0
 30
0.0
 70
   128
 71
     1
 72
     2
 73
    -3
  0
VERTEX
  5
450
  8
0
 10
0.0
 20
0.0
 30
0.0
 70
   128
 71
    -1
 72
     3
 73
     4
  0
VERTEX
  5
451
  8
0
 10
0.0
 20
0.0
 30
0.0
 70
   128
 71
     5
 72
     6
 73
    -2
  0
VERTEX
  5
452
  8
0
 10
0.0
 20
0.0
 30
0.0
 70
   128
 71
    -5
 72
     2
 73
     1
  0
VERTEX
  5
453
  8
0
 10
0.0
 20
0.0
 30
0.0
 70
   128
 71
     4
 72
     3
 73
    -7
  0
VERTEX
  5
454
  8
0
 10
0.0
 20
0.0
 30
0.0
 70
   128
 71
    -4
 72
     7
 73
     8
  0
SEQEND
  5
716
  8
0
  0
POLYLINE
  5
455
  8
0
 66
     1
 10
0.0
 20
0.0
 30
0.0
 70
    64
 71
     8
 72
     6
  0
VERTEX
  5
456
  8
0
 10
-172.5
 20
-57.83012701892219
 30
-47.50000000000001
 70
   192
  0
VERTEX
  5
457
  8
0
 10
-172.5
 20
-57.83012701892219
 30
-45.50000000000001
 70
   192
  0
VERTEX
  5
458
  8
0
 10
-174.3301270189222
 20
-56.0
 30
-45.50000000000001
 70
   192
  0
VERTEX
  5
459
  8
0
 10
-174.3301270189222
 20
-56.0
 30
-47.50000000000001
 70
   192
  0
VERTEX
  5
45A
  8
0
 10
-170.0
 20
-58.5
 30
-47.50000000000001
 70
   192
  0
VERTEX
  5
45B
  8
0
 10
-170.0
 20
-58.49999999999969
 30
-45.5
 70
   192
  0
VERTEX
  5
45C
  8
0
 10
-175.0
 20
-53.5
 30
-45.5
 70
   192
  0
VERTEX
  5
45D
  8
0
 10
-175.0
 20
-53.5
 30
-47.5
 70
   192
  0
VERTEX
  5
45E
  8
0
 10
0.0
 20
0.0
 30
0.0
 70
   128
 71
     1
 72
     2
 73
    -3
  0
VERTEX
  5
45F
  8
0
 10
0.0
 20
0.0
 30
0.0
 70
   128
 71
    -1
 72
     3
 73
     4
  0
VERTEX
  5
460
  8
0
 10
0.0
 20
0.0
 30
0.0
 70
   128
 71
     5
 72
     6
 73
    -2
  0
VERTEX
  5
461
  8
0
 10
0.0
 20
0.0
 30
0.0
 70
   128
 71
    -5
 72
     2
 73
     1
  0
VERTEX
  5
462
  8
0
 10
0.0
 20
0.0
 30
0.0
 70
   128
 71
     4
 72
     3
 73
    -7
  0
VERTEX
  5
463
  8
0
 10
0.0
 20
0.0
 30
0.0
 70
   128
 71
    -4
 72
     7
 73
     8
  0
SEQEND
  5
717
  8
0
  0
POLYLINE
  5
464
  8
0
 66
     1
 10
0.0
 20
0.0
 30
0.0
 70
    64
 71
    10
 72
     8
  0
VERTEX
  5
465
  8
0
 10
-122.75
 20
-25.0
 30
-46.0
 70
   192
  0
VERTEX
  5
466
  8
0
 10
-127.25
 20
-25.0
 30
-46.0
 70
   192
  0
VERTEX
  5
467
  8
0
 10
-127.75
 20
-25.0
 30
-45.50000000000001
 70
   192
  0
VERTEX
  5
468
  8
0
 10
-122.25
 20
-25.0
 30
-45.50000000000001
 70
   192
  0
VERTEX
  5
469
  8
0
 10
-125.0
 20
-22.25000000000018
 30
-45.49999999999999
 70
   192
  0
VERTEX
  5
46A
  8
0
 10
-125.0
 20
-22.75
 30
-46.0
 70
   192
  0
VERTEX
  5
46B
  8
0
 10
-123.0554563517371
 20
-23.05545635173712
 30
-45.49999999999999
 70
   192
  0
VERTEX
  5
46C
  8
0
 10
-123.4090097423303
 20
-23.40900974233027
 30
-46.0
 70
   192
  0
VERTEX
  5
46D
  8
0
 10
-126.9445436482629
 20
-23.05545635173712
 30
-45.49999999999999
 70
   192
  0
VERTEX
  5
46E
  8
0
 10
-126.5909902576697
 20
-23.40900974233027
 30
-46.0
 70
   192
  0
VERTEX
  5
46F
  8
0
 10
0.0
 20
0.0
 30
0.0
 70
   128
 71
     8
 72
     1
 73
    -4
  0
VERTEX
  5
470
  8
0
 10
0.0
 20
0.0
 30
0.0
 70
   128
 71
     7
 72
    -8
 73
     4
  0
VERTEX
  5
471
  8
0
 10
0.0
 20
0.0
 30
0.0
 70
   128
 71
     6
 72
     8
 73
    -7
  0
VERTEX
  5
472
  8
0
 10
0.0
 20
0.0
 30
0.0
 70
   128
 71
     5
 72
    -6
 73
     7
  0
VERTEX
  5
473
  8
0
 10
0.0
 20
0.0
 30
0.0
 70
   128
 71
    10
 72
     6
 73
    -5
  0
VERTEX
  5
474
  8
0
 10
0.0
 20
0.0
 30
0.0
 70
   128
 71
     9
 72
   -10
 73
     5
  0
VERTEX
  5
475
  8
0
 10
0.0
 20
0.0
 30
0.0
 70
   128
 71
     3
 72
     2
 73
   -10
  0
VERTEX
  5
476
  8
0
 10
0.0
 20
0.0
 30
0.0
 70
   128
 71
     9
 72
    -3
 73
    10
  0
SEQEND
  5
718
  8
0
  0
POLYLINE
  5
477
  8
0
 66
     1
 10
0.0
 20
0.0
 30
0.0
 70
    64
 71
    10
 72
     8
  0
VERTEX
  5
478
  8
0
 10
17.25
 20
-25.0
 30
-46.0
 70
   192
  0
VERTEX
  5
479
  8
0
 10
12.75
 20
-25.0
 30
-46.0
 70
   192
  0
VERTEX
  5
47A
  8
0
 10
12.2500000000001
 20
-25.0
 30
-45.5000000000001
 70
   192
  0
VERTEX
  5
47B
  8
0
 10
17.75
 20
-25.0
 30
-45.5
 70
   192
  0
VERTEX
  5
47C
  8
0
 10
15.0
 20
-22.25000000000019
 30
-45.49999999999999
 70
   192
  0
VERTEX
  5
47D
  8
0
 10
15.0
 20
-22.75
 30
-46.0
 70
   192
  0
VERTEX
  5
47E
  8
0
 10
16.94454364826287
 20
-23.05545635173713
 30
-45.49999999999999
 70
   192
  0
VERTEX
  5
47F
  8
0
 10
16.59099025766973
 20
-23.40900974233027
 30
-46.0
 70
   192
  0
VERTEX
  5
480
  8
0
 10
13.05545635173713
 20
-23.05545635173713
 30
-45.49999999999999
 70
   192
  0
VERTEX
  5
481
  8
0
 10
13.40900974233027
 20
-23.40900974233027
 30
-46.0
 70
   192
  0
VERTEX
  5
482
  8
0
 10
0.0
 20
0.0
 30
0.0
 70
   128
 71
     8
 72
     1
 73
    -4
  0
VERTEX
  5
483
  8
0
 10
0.0
 20
0.0
 30
0.0
 70
   128
 71
     7
 72
    -8
 73
     4
  0
VERTEX
  5
484
  8
0
 10
0.0
 20
0.0
 30
0.0
 70
   128
 71
     6
 72
     8
 73
    -7
  0
VERTEX
  5
485
  8
0
 10
0.0
 20
0.0
 30
0.0
 70
   128
 71
     5
 72
    -6
 73
     7
  0
VERTEX
  5
486
  8
0
 10
0.0
 20
0.0
 30
0.0
 70
   128
 71
    10
 72
     6
 73
    -5
  0
VERTEX
  5
487
  8
0
 10
0.0
 20
0.0
 30
0.0
 70
   128
 71
     9
 72
   -10
 73
     5
  0
VERTEX
  5
488
  8
0
 10
0.0
 20
0.0
 30
0.0
 70
   128
 71
     3
 72
     2
 73
   -10
  0
VERTEX
  5
489
  8
0
 10
0.0
 20
0.0
 30
0.0
 70
   128
 71
     9
 72
    -3
 73
    10
  0
SEQEND
  5
719
  8
0
  0
POLYLINE
  5
48A
  8
0
 66
     1
 10
0.0
 20
0.0
 30
0.0
 70
    64
 71
    10
 72
     8
  0
VERTEX
  5
48B
  8
0
 10
-122.75
 20
-25.0
 30
-47.5
 70
   192
  0
VERTEX
  5
48C
  8
0
 10
-127.25
 20
-25.0
 30
-47.5
 70
   192
  0
VERTEX
  5
48D
  8
0
 10
-127.25
 20
-25.0
 30
-46.0
 70
   192
  0
VERTEX
  5
48E
  8
0
 10
-122.75
 20
-25.0
 30
-46.0
 70
   192
  0
VERTEX
  5
48F
  8
0
 10
-125.0
 20
-22.75
 30
-46.0
 70
   192
  0
VERTEX
  5
490
  8
0
 10
-125.0
 20
-22.75
 30
-47.49999999999999
 70
   192
  0
VERTEX
  5
491
  8
0
 10
-123.4090097423303
 20
-23.40900974233027
 30
-46.0
 70
   192
  0
VERTEX
  5
492
  8
0
 10
-123.4090097423303
 20
-23.40900974233027
 30
-47.49999999999999
 70
   192
  0
VERTEX
  5
493
  8
0
 10
-126.5909902576697
 20
-23.40900974233027
 30
-46.0
 70
   192
  0
VERTEX
  5
494
  8
0
 10
-126.5909902576697
 20
-23.40900974233027
 30
-47.49999999999999
 70
   192
  0
VERTEX
  5
495
  8
0
 10
0.0
 20
0.0
 30
0.0
 70
   128
 71
     8
 72
     1
 73
    -4
  0
VERTEX
  5
496
  8
0
 10
0.0
 20
0.0
 30
0.0
 70
   128
 71
     7
 72
    -8
 73
     4
  0
VERTEX
  5
497
  8
0
 10
0.0
 20
0.0
 30
0.0
 70
   128
 71
     6
 72
     8
 73
    -7
  0
VERTEX
  5
498
  8
0
 10
0.0
 20
0.0
 30
0.0
 70
   128
 71
     5
 72
    -6
 73
     7
  0
VERTEX
  5
499
  8
0
 10
0.0
 20
0.0
 30
0.0
 70
   128
 71
    10
 72
     6
 73
    -5
  0
VERTEX
  5
49A
  8
0
 10
0.0
 20
0.0
 30
0.0
 70
   128
 71
     9
 72
   -10
 73
     5
  0
VERTEX
  5
49B
  8
0
 10
0.0
 20
0.0
 30
0.0
 70
   128
 71
     3
 72
     2
 73
   -10
  0
VERTEX
  5
49C
  8
0
 10
0.0
 20
0.0
 30
0.0
 70
   128
 71
     9
 72
    -3
 73
    10
  0
SEQEND
  5
71A
  8
0
  0
POLYLINE
  5
49D
  8
0
 66
     1
 10
0.0
 20
0.0
 30
0.0
 70
    64
 71
    10
 72
     8
  0
VERTEX
  5
49E
  8
0
 10
17.25
 20
-25.0
 30
-47.5
 70
   192
  0
VERTEX
  5
49F
  8
0
 10
12.75
 20
-25.0
 30
-47.5
 70
   192
  0
VERTEX
  5
4A0
  8
0
 10
12.75
 20
-25.0
 30
-46.0
 70
   192
  0
VERTEX
  5
4A1
  8
0
 10
17.25
 20
-25.0
 30
-46.0
 70
   192
  0
VERTEX
  5
4A2
  8
0
 10
15.0
 20
-22.75
 30
-46.0
 70
   192
  0
VERTEX
  5
4A3
  8
0
 10
15.0
 20
-22.75
 30
-47.49999999999999
 70
   192
  0
VERTEX
  5
4A4
  8
0
 10
16.59099025766973
 20
-23.40900974233027
 30
-46.0
 70
   192
  0
VERTEX
  5
4A5
  8
0
 10
16.59099025766973
 20
-23.40900974233027
 30
-47.49999999999999
 70
   192
  0
VERTEX
  5
4A6
  8
0
 10
13.40900974233027
 20
-23.40900974233027
 30
-46.0
 70
   192
  0
VERTEX
  5
4A7
  8
0
 10
13.40900974233027
 20
-23.40900974233027
 30
-47.49999999999999
 70
   192
  0
VERTEX
  5
4A8
  8
0
 10
0.0
 20
0.0
 30
0.0
 70
   128
 71
     8
 72
     1
 73
    -4
  0
VERTEX
  5
4A9
  8
0
 10
0.0
 20
0.0
 30
0.0
 70
   128
 71
     7
 72
    -8
 73
     4
  0
VERTEX
  5
4AA
  8
0
 10
0.0
 20
0.0
 30
0.0
 70
   128
 71
     6
 72
     8
 73
    -7
  0
VERTEX
  5
4AB
  8
0
 10
0.0
 20
0.0
 30
0.0
 70
   128
 71
     5
 72
    -6
 73
     7
  0
VERTEX
  5
4AC
  8
0
 10
0.0
 20
0.0
 30
0.0
 70
   128
 71
    10
 72
     6
 73
    -5
  0
VERTEX
  5
4AD
  8
0
 10
0.0
 20
0.0
 30
0.0
 70
   128
 71
     9
 72
   -10
 73
     5
  0
VERTEX
  5
4AE
  8
0
 10
0.0
 20
0.0
 30
0.0
 70
   128
 71
     3
 72
     2
 73
   -10
  0
VERTEX
  5
4AF
  8
0
 10
0.0
 20
0.0
 30
0.0
 70
   128
 71
     9
 72
    -3
 73
    10
  0
SEQEND
  5
71B
  8
0
  0
POLYLINE
  5
4B0
  8
0
 66
     1
 10
0.0
 20
0.0
 30
0.0
 70
    64
 71
     4
 72
     2
  0
VERTEX
  5
4B1
  8
0
 10
-143.0
 20
-58.99999999999999
 30
24.0
 70
   192
  0
VERTEX
  5
4B2
  8
0
 10
-145.0
 20
-59.00000000000016
 30
24.0
 70
   192
  0
VERTEX
  5
4B3
  8
0
 10
-145.0
 20
-59.0
 30
3.999999999999865
 70
   192
  0
VERTEX
  5
4B4
  8
0
 10
-143.0
 20
-59.00000000000004
 30
3.999999999999865
 70
   192
  0
VERTEX
  5
4B5
  8
0
 10
0.0
 20
0.0
 30
0.0
 70
   128
 71
     1
 72
     4
 73
    -3
  0
VERTEX
  5
4B6
  8
0
 10
0.0
 20
0.0
 30
0.0
 70
   128
 71
    -1
 72
     3
 73
     2
  0
SEQEND
  5
71C
  8
0
  0
POLYLINE
  5
4B7
  8
0
 66
     1
 10
0.0
 20
0.0
 30
0.0
 70
    64
 71
    10
 72
     8
  0
VERTEX
  5
4B8
  8
0
 10
-143.0
 20
-67.0
 30
-1.000000000000196
 70
   192
  0
VERTEX
  5
4B9
  8
0
 10
-143.0
 20
-64.0
 30
-1.000000000000166
 70
   192
  0
VERTEX
  5
4BA
  8
0
 10
-143.0
 20
-61.49999999999999
 30
-0.3301270189223495
 70
   192
  0
VERTEX
  5
4BB
  8
0
 10
-143.0
 20
-59.6698729810778
 30
1.499999999999855
 70
   192
  0
VERTEX
  5
4BC
  8
0
 10
-143.0
 20
-59.0
 30
3.999999999999866
 70
   192
  0
VERTEX
  5
4BD
  8
0
 10
-143.0
 20
-59.00000000000016
 30
24.0
 70
   192
  0
VERTEX
  5
4BE
  8
0
 10
-143.0
 20
-59.66987298107781
 30
26.5
 70
   192
  0
VERTEX
  5
4BF
  8
0
 10
-143.0
 20
-61.5
 30
28.33012701892219
 70
   192
  0
VERTEX
  5
4C0
  8
0
 10
-143.0
 20
-64.0
 30
29.0
 70
   192
  0
VERTEX
  5
4C1
  8
0
 10
-143.0
 20
-67.0
 30
28.99999999999992
 70
   192
  0
VERTEX
  5
4C2
  8
0
 10
0.0
 20
0.0
 30
0.0
 70
   128
 71
     9
 72
    10
 73
    -1
  0
VERTEX
  5
4C3
  8
0
 10
0.0
 20
0.0
 30
0.0
 70
   128
 71
     8
 72
    -9
 73
    -1
  0
VERTEX
  5
4C4
  8
0
 10
0.0
 20
0.0
 30
0.0
 70
   128
 71
     7
 72
    -8
 73
    -1
  0
VERTEX
  5
4C5
  8
0
 10
0.0
 20
0.0
 30
0.0
 70
   128
 71
     6
 72
    -7
 73
    -1
  0
VERTEX
  5
4C6
  8
0
 10
0.0
 20
0.0
 30
0.0
 70
   128
 71
     5
 72
    -6
 73
    -1
  0
VERTEX
  5
4C7
  8
0
 10
0.0
 20
0.0
 30
0.0
 70
   128
 71
     4
 72
    -5
 73
    -1
  0
VERTEX
  5
4C8
  8
0
 10
0.0
 20
0.0
 30
0.0
 70
   128
 71
     3
 72
    -4
 73
    -1
  0
VERTEX
  5
4C9
  8
0
 10
0.0
 20
0.0
 30
0.0
 70
   128
 71
     2
 72
    -3
 73
     1
  0
SEQEND
  5
71D
  8
0
  0
POLYLINE
  5
4CA
  8
0
 66
     1
 10
0.0
 20
0.0
 30
0.0
 70
    64
 71
    10
 72
     8
  0
VERTEX
  5
4CB
  8
0
 10
-145.0
 20
-59.0
 30
24.0
 70
   192
  0
VERTEX
  5
4CC
  8
0
 10
-145.0
 20
-59.66987298107781
 30
26.5
 70
   192
  0
VERTEX
  5
4CD
  8
0
 10
-145.0
 20
-61.5
 30
28.33012701892219
 70
   192
  0
VERTEX
  5
4CE
  8
0
 10
-144.9999999999998
 20
-64.0
 30
28.99999999999986
 70
   192
  0
VERTEX
  5
4CF
  8
0
 10
-145.0
 20
-67.0000000000002
 30
29.0
 70
   192
  0
VERTEX
  5
4D0
  8
0
 10
-144.9999999999998
 20
-67.0
 30
-1.000000000000196
 70
   192
  0
VERTEX
  5
4D1
  8
0
 10
-145.0
 20
-64.0
 30
-1.000000000000161
 70
   192
  0
VERTEX
  5
4D2
  8
0
 10
-145.0
 20
-61.49999999999999
 30
-0.3301270189223495
 70
   192
  0
VERTEX
  5
4D3
  8
0
 10
-145.0
 20
-59.6698729810778
 30
1.499999999999855
 70
   192
  0
VERTEX
  5
4D4
  8
0
 10
-145.0
 20
-59.00000000000003
 30
3.999999999999865
 70
   192
  0
VERTEX
  5
4D5
  8
0
 10
0.0
 20
0.0
 30
0.0
 70
   128
 71
     1
 72
    10
 73
    -9
  0
VERTEX
  5
4D6
  8
0
 10
0.0
 20
0.0
 30
0.0
 70
   128
 71
    -1
 72
     9
 73
    -8
  0
VERTEX
  5
4D7
  8
0
 10
0.0
 20
0.0
 30
0.0
 70
   128
 71
    -1
 72
     8
 73
    -7
  0
VERTEX
  5
4D8
  8
0
 10
0.0
 20
0.0
 30
0.0
 70
   128
 71
    -1
 72
     7
 73
    -6
  0
VERTEX
  5
4D9
  8
0
 10
0.0
 20
0.0
 30
0.0
 70
   128
 71
    -1
 72
     6
 73
    -5
  0
VERTEX
  5
4DA
  8
0
 10
0.0
 20
0.0
 30
0.0
 70
   128
 71
    -1
 72
     5
 73
    -4
  0
VERTEX
  5
4DB
  8
0
 10
0.0
 20
0.0
 30
0.0
 70
   128
 71
    -1
 72
     4
 73
    -3
  0
VERTEX
  5
4DC
  8
0
 10
0.0
 20
0.0
 30
0.0
 70
   128
 71
    -1
 72
     3
 73
     2
  0
SEQEND
  5
71E
  8
0
  0
POLYLINE
  5
4DD
  8
0
 66
     1
 10
0.0
 20
0.0
 30
0.0
 70
    64
 71
     4
 72
     2
  0
VERTEX
  5
4DE
  8
0
 10
-145.0
 20
-67.0
 30
-1.000000000000196
 70
   192
  0
VERTEX
  5
4DF
  8
0
 10
-143.0
 20
-67.0
 30
-1.000000000000196
 70
   192
  0
VERTEX
  5
4E0
  8
0
 10
-143.0
 20
-63.99999999999999
 30
-1.000000000000166
 70
   192
  0
VERTEX
  5
4E1
  8
0
 10
-144.9999999999998
 20
-63.99999999999999
 30
-1.000000000000166
 70
   192
  0
VERTEX
  5
4E2
  8
0
 10
0.0
 20
0.0
 30
0.0
 70
   128
 71
     1
 72
     4
 73
    -3
  0
VERTEX
  5
4E3
  8
0
 10
0.0
 20
0.0
 30
0.0
 70
   128
 71
    -1
 72
     3
 73
     2
  0
SEQEND
  5
71F
  8
0
  0
POLYLINE
  5
4E4
  8
0
 66
     1
 10
0.0
 20
0.0
 30
0.0
 70
    64
 71
     4
 72
     2
  0
VERTEX
  5
4E5
  8
0
 10
-143.0
 20
-67.0
 30
29.0
 70
   192
  0
VERTEX
  5
4E6
  8
0
 10
-144.9999999999998
 20
-67.0
 30
28.99999999999983
 70
   192
  0
VERTEX
  5
4E7
  8
0
 10
-145.0
 20
-64.0
 30
29.0
 70
   192
  0
VERTEX
  5
4E8
  8
0
 10
-143.0
 20
-64.0
 30
28.99999999999995
 70
   192
  0
VERTEX
  5
4E9
  8
0
 10
0.0
 20
0.0
 30
0.0
 70
   128
 71
     1
 72
     4
 73
    -3
  0
VERTEX
  5
4EA
  8
0
 10
0.0
 20
0.0
 30
0.0
 70
   128
 71
    -1
 72
     3
 73
     2
  0
SEQEND
  5
720
  8
0
  0
POLYLINE
  5
4EB
  8
0
 66
     1
 10
0.0
 20
0.0
 30
0.0
 70
    64
 71
     8
 72
     6
  0
VERTEX
  5
4EC
  8
0
 10
-142.5
 20
-67.86602540378443
 30
-1.000000000000206
 70
   192
  0
VERTEX
  5
4ED
  8
0
 10
-142.8660254037844
 20
-67.5
 30
-1.000000000000203
 70
   192
  0
VERTEX
  5
4EE
  8
0
 10
-142.8660254037844
 20
-67.5
 30
29.0
 70
   192
  0
VERTEX
  5
4EF
  8
0
 10
-142.5
 20
-67.86602540378443
 30
28.99999999999999
 70
   192
  0
VERTEX
  5
4F0
  8
0
 10
-143.0
 20
-67.0
 30
-1.0000000000002
 70
   192
  0
VERTEX
  5
4F1
  8
0
 10
-143.0
 20
-67.0000000000002
 30
29.0
 70
   192
  0
VERTEX
  5
4F2
  8
0
 10
-142.0
 20
-67.99999999999979
 30
-1.000000000000206
 70
   192
  0
VERTEX
  5
4F3
  8
0
 10
-142.0
 20
-68.0
 30
29.0
 70
   192
  0
VERTEX
  5
4F4
  8
0
 10
0.0
 20
0.0
 30
0.0
 70
   128
 71
     1
 72
     2
 73
    -3
  0
VERTEX
  5
4F5
  8
0
 10
0.0
 20
0.0
 30
0.0
 70
   128
 71
     4
 72
    -1
 73
     3
  0
VERTEX
  5
4F6
  8
0
 10
0.0
 20
0.0
 30
0.0
 70
   128
 71
     2
 72
     5
 73
    -6
  0
VERTEX
  5
4F7
  8
0
 10
0.0
 20
0.0
 30
0.0
 70
   128
 71
     3
 72
    -2
 73
     6
  0
VERTEX
  5
4F8
  8
0
 10
0.0
 20
0.0
 30
0.0
 70
   128
 71
     7
 72
     1
 73
    -4
  0
VERTEX
  5
4F9
  8
0
 10
0.0
 20
0.0
 30
0.0
 70
   128
 71
     8
 72
    -7
 73
     4
  0
SEQEND
  5
721
  8
0
  0
POLYLINE
  5
4FA
  8
0
 66
     1
 10
0.0
 20
0.0
 30
0.0
 70
    64
 71
     8
 72
     6
  0
VERTEX
  5
4FB
  8
0
 10
-144.5980762113533
 20
-68.5
 30
28.99999999999999
 70
   192
  0
VERTEX
  5
4FC
  8
0
 10
-144.5980762113533
 20
-68.5
 30
-1.00000000000021
 70
   192
  0
VERTEX
  5
4FD
  8
0
 10
-143.5
 20
-69.59807621135332
 30
-1.000000000000218
 70
   192
  0
VERTEX
  5
4FE
  8
0
 10
-143.5
 20
-69.59807621135332
 30
28.99999999999998
 70
   192
  0
VERTEX
  5
4FF
  8
0
 10
-145.0
 20
-67.0
 30
29.0
 70
   192
  0
VERTEX
  5
500
  8
0
 10
-145.0
 20
-67.0
 30
-1.0000000000002
 70
   192
  0
VERTEX
  5
501
  8
0
 10
-142.0
 20
-70.0
 30
-1.000000000000221
 70
   192
  0
VERTEX
  5
502
  8
0
 10
-142.0
 20
-70.0
 30
29.0
 70
   192
  0
VERTEX
  5
503
  8
0
 10
0.0
 20
0.0
 30
0.0
 70
   128
 71
     1
 72
     2
 73
    -3
  0
VERTEX
  5
504
  8
0
 10
0.0
 20
0.0
 30
0.0
 70
   128
 71
    -1
 72
     3
 73
     4
  0
VERTEX
  5
505
  8
0
 10
0.0
 20
0.0
 30
0.0
 70
   128
 71
     5
 72
     6
 73
    -2
  0
VERTEX
  5
506
  8
0
 10
0.0
 20
0.0
 30
0.0
 70
   128
 71
    -5
 72
     2
 73
     1
  0
VERTEX
  5
507
  8
0
 10
0.0
 20
0.0
 30
0.0
 70
   128
 71
     4
 72
     3
 73
    -7
  0
VERTEX
  5
508
  8
0
 10
0.0
 20
0.0
 30
0.0
 70
   128
 71
    -4
 72
     7
 73
     8
  0
SEQEND
  5
722
  8
0
  0
POLYLINE
  5
509
  8
0
 66
     1
 10
0.0
 20
0.0
 30
0.0
 70
    64
 71
     8
 72
     6
  0
VERTEX
  5
50A
  8
0
 10
-142.0
 20
-68.0
 30
29.0
 70
   192
  0
VERTEX
  5
50B
  8
0
 10
-142.0
 20
-70.0
 30
28.99999999999998
 70
   192
  0
VERTEX
  5
50C
  8
0
 10
-143.5
 20
-69.59807621135332
 30
28.99999999999998
 70
   192
  0
VERTEX
  5
50D
  8
0
 10
-144.5980762113533
 20
-68.5
 30
28.99999999999999
 70
   192
  0
VERTEX
  5
50E
  8
0
 10
-145.0
 20
-67.0
 30
29.0
 70
   192
  0
VERTEX
  5
50F
  8
0
 10
-143.0
 20
-67.0
 30
29.0
 70
   192
  0
VERTEX
  5
510
  8
0
 10
-142.8660254037844
 20
-67.5
 30
29.0
 70
   192
  0
VERTEX
  5
511
  8
0
 10
-142.5
 20
-67.86602540378443
 30
28.99999999999999
 70
   192
  0
VERTEX
  5
512
  8
0
 10
0.0
 20
0.0
 30
0.0
 70
   128
 71
     7
 72
     6
 73
    -5
  0
VERTEX
  5
513
  8
0
 10
0.0
 20
0.0
 30
0.0
 70
   128
 71
    -7
 72
     5
 73
    -4
  0
VERTEX
  5
514
  8
0
 10
0.0
 20
0.0
 30
0.0
 70
   128
 71
     4
 72
    -3
 73
    -8
  0
VERTEX
  5
515
  8
0
 10
0.0
 20
0.0
 30
0.0
 70
   128
 71
    -4
 72
     8
 73
    -7
  0
VERTEX
  5
516
  8
0
 10
0.0
 20
0.0
 30
0.0
 70
   128
 71
     3
 72
     2
 73
    -1
  0
VERTEX
  5
517
  8
0
 10
0.0
 20
0.0
 30
0.0
 70
   128
 71
    -3
 72
     1
 73
    -8
  0
SEQEND
  5
723
  8
0
  0
POLYLINE
  5
518
  8
0
 66
     1
 10
0.0
 20
0.0
 30
0.0
 70
    64
 71
     8
 72
     6
  0
VERTEX
  5
519
  8
0
 10
-145.0
 20
-67.0
 30
-1.000000000000196
 70
   192
  0
VERTEX
  5
51A
  8
0
 10
-143.0
 20
-67.0
 30
-1.000000000000196
 70
   192
  0
VERTEX
  5
51B
  8
0
 10
-142.8660254037844
 20
-67.5
 30
-1.000000000000203
 70
   192
  0
VERTEX
  5
51C
  8
0
 10
-142.5
 20
-67.86602540378443
 30
-1.000000000000206
 70
   192
  0
VERTEX
  5
51D
  8
0
 10
-142.0
 20
-68.0
 30
-1.000000000000207
 70
   192
  0
VERTEX
  5
51E
  8
0
 10
-142.0
 20
-70.0
 30
-1.00000000000022
 70
   192
  0
VERTEX
  5
51F
  8
0
 10
-143.5
 20
-69.59807621135332
 30
-1.000000000000218
 70
   192
  0
VERTEX
  5
520
  8
0
 10
-144.5980762113533
 20
-68.5
 30
-1.00000000000021
 70
   192
  0
VERTEX
  5
521
  8
0
 10
0.0
 20
0.0
 30
0.0
 70
   128
 71
     1
 72
     2
 73
    -3
  0
VERTEX
  5
522
  8
0
 10
0.0
 20
0.0
 30
0.0
 70
   128
 71
     8
 72
    -1
 73
    -3
  0
VERTEX
  5
523
  8
0
 10
0.0
 20
0.0
 30
0.0
 70
   128
 71
    -4
 72
     7
 73
    -8
  0
VERTEX
  5
524
  8
0
 10
0.0
 20
0.0
 30
0.0
 70
   128
 71
     3
 72
    -4
 73
    -8
  0
VERTEX
  5
525
  8
0
 10
0.0
 20
0.0
 30
0.0
 70
   128
 71
     5
 72
     6
 73
    -7
  0
VERTEX
  5
526
  8
0
 10
0.0
 20
0.0
 30
0.0
 70
   128
 71
     4
 72
    -5
 73
    -7
  0
SEQEND
  5
724
  8
0
  0
POLYLINE
  5
527
  8
0
 66
     1
 10
0.0
 20
0.0
 30
0.0
 70
    64
 71
     4
 72
     2
  0
VERTEX
  5
528
  8
0
 10
50.0
 20
0.0
 30
-44.5
 70
   192
  0
VERTEX
  5
529
  8
0
 10
50.0
 20
-2.0
 30
-44.5
 70
   192
  0
VERTEX
  5
52A
  8
0
 10
50.0
 20
-2.0
 30
42.5
 70
   192
  0
VERTEX
  5
52B
  8
0
 10
50.0
 20
0.0
 30
42.5
 70
   192
  0
VERTEX
  5
52C
  8
0
 10
0.0
 20
0.0
 30
0.0
 70
   128
 71
     1
 72
     4
 73
    -3
  0
VERTEX
  5
52D
  8
0
 10
0.0
 20
0.0
 30
0.0
 70
   128
 71
    -1
 72
     3
 73
     2
  0
SEQEND
  5
725
  8
0
  0
POLYLINE
  5
52E
  8
0
 66
     1
 10
0.0
 20
0.0
 30
0.0
 70
    64
 71
     8
 72
     6
  0
VERTEX
  5
52F
  8
0
 10
50.0
 20
-0.401923788646708
 30
-46.00000000000004
 70
   192
  0
VERTEX
  5
530
  8
0
 10
50.0
 20
-0.180922137642284
 30
-45.52606042997704
 70
   192
  0
VERTEX
  5
531
  8
0
 10
50.0
 20
-0.0455767409633761
 30
-45.02094453300081
 70
   192
  0
VERTEX
  5
532
  8
0
 10
50.0
 20
0.0000000000000027
 30
-44.5
 70
   192
  0
VERTEX
  5
533
  8
0
 10
50.0
 20
-2.0
 30
-44.5
 70
   192
  0
VERTEX
  5
534
  8
0
 10
50.0
 20
-2.015192246987812
 30
-44.67364817766693
 70
   192
  0
VERTEX
  5
535
  8
0
 10
50.0
 20
-2.060307379214112
 30
-44.84202014332567
 70
   192
  0
VERTEX
  5
536
  8
0
 10
50.0
 20
-2.133974596215583
 30
-45.0
 70
   192
  0
VERTEX
  5
537
  8
0
 10
0.0
 20
0.0
 30
0.0
 70
   128
 71
     4
 72
     5
 73
    -6
  0
VERTEX
  5
538
  8
0
 10
0.0
 20
0.0
 30
0.0
 70
   128
 71
     3
 72
    -4
 73
    -6
  0
VERTEX
  5
539
  8
0
 10
0.0
 20
0.0
 30
0.0
 70
   128
 71
    -7
 72
     2
 73
    -3
  0
VERTEX
  5
53A
  8
0
 10
0.0
 20
0.0
 30
0.0
 70
   128
 71
     6
 72
    -7
 73
    -3
  0
VERTEX
  5
53B
  8
0
 10
0.0
 20
0.0
 30
0.0
 70
   128
 71
     8
 72
     1
 73
    -2
  0
VERTEX
  5
53C
  8
0
 10
0.0
 20
0.0
 30
0.0
 70
   128
 71
     7
 72
    -8
 73
    -2
  0
SEQEND
  5
726
  8
0
  0
POLYLINE
  5
53D
  8
0
 66
     1
 10
0.0
 20
0.0
 30
0.0
 70
    64
 71
     4
 72
     2
  0
VERTEX
  5
53E
  8
0
 10
175.0
 20
-2.133974596215577
 30
-44.99999999999999
 70
   192
  0
VERTEX
  5
53F
  8
0
 10
175.0
 20
-0.4019237886467855
 30
-46.0
 70
   192
  0
VERTEX
  5
540
  8
0
 10
50.0
 20
-0.4019237886467165
 30
-46.0
 70
   192
  0
VERTEX
  5
541
  8
0
 10
50.0
 20
-2.133974596215579
 30
-45.0
 70
   192
  0
VERTEX
  5
542
  8
0
 10
0.0
 20
0.0
 30
0.0
 70
   128
 71
     3
 72
     4
 73
    -1
  0
VERTEX
  5
543
  8
0
 10
0.0
 20
0.0
 30
0.0
 70
   128
 71
     2
 72
    -3
 73
     1
  0
SEQEND
  5
727
  8
0
  0
POLYLINE
  5
544
  8
0
 66
     1
 10
0.0
 20
0.0
 30
0.0
 70
    64
 71
     4
 72
     2
  0
VERTEX
  5
545
  8
0
 10
-35.0
 20
-58.50000000000001
 30
-45.5
 70
   192
  0
VERTEX
  5
546
  8
0
 10
-35.0
 20
-58.5
 30
-47.5
 70
   192
  0
VERTEX
  5
547
  8
0
 10
-170.0
 20
-58.49999999999967
 30
-47.49999999999999
 70
   192
  0
VERTEX
  5
548
  8
0
 10
-170.0
 20
-58.5
 30
-45.49999999999998
 70
   192
  0
VERTEX
  5
549
  8
0
 10
0.0
 20
0.0
 30
0.0
 70
   128
 71
     1
 72
     4
 73
    -3
  0
VERTEX
  5
54A
  8
0
 10
0.0
 20
0.0
 30
0.0
 70
   128
 71
    -1
 72
     3
 73
     2
  0
SEQEND
  5
728
  8
0
  0
POLYLINE
  5
54B
  8
0
 66
     1
 10
0.0
 20
0.0
 30
0.0
 70
    64
 71
     8
 72
     6
  0
VERTEX
  5
54C
  8
0
 10
-35.0
 20
-70.0
 30
-44.5
 70
   192
  0
VERTEX
  5
54D
  8
0
 10
-35.0
 20
-69.59807621135332
 30
-46.0
 70
   192
  0
VERTEX
  5
54E
  8
0
 10
-35.0
 20
-68.5
 30
-47.09807621135332
 70
   192
  0
VERTEX
  5
54F
  8
0
 10
-35.0
 20
-67.0
 30
-47.5
 70
   192
  0
VERTEX
  5
550
  8
0
 10
-35.0
 20
-67.0
 30
-45.5
 70
   192
  0
VERTEX
  5
551
  8
0
 10
-35.0
 20
-67.5
 30
-45.36602540378444
 70
   192
  0
VERTEX
  5
552
  8
0
 10
-35.0
 20
-67.86602540378443
 30
-45.0
 70
   192
  0
VERTEX
  5
553
  8
0
 10
-35.0
 20
-68.0
 30
-44.5
 70
   192
  0
VERTEX
  5
554
  8
0
 10
0.0
 20
0.0
 30
0.0
 70
   128
 71
     6
 72
     5
 73
    -4
  0
VERTEX
  5
555
  8
0
 10
0.0
 20
0.0
 30
0.0
 70
   128
 71
    -6
 72
     4
 73
    -3
  0
VERTEX
  5
556
  8
0
 10
0.0
 20
0.0
 30
0.0
 70
   128
 71
     3
 72
    -2
 73
    -7
  0
VERTEX
  5
557
  8
0
 10
0.0
 20
0.0
 30
0.0
 70
   128
 71
    -3
 72
     7
 73
    -6
  0
VERTEX
  5
558
  8
0
 10
0.0
 20
0.0
 30
0.0
 70
   128
 71
     2
 72
     1
 73
    -8
  0
VERTEX
  5
559
  8
0
 10
0.0
 20
0.0
 30
0.0
 70
   128
 71
    -2
 72
     8
 73
    -7
  0
SEQEND
  5
729
  8
0
  0
POLYLINE
  5
55A
  8
0
 66
     1
 10
0.0
 20
0.0
 30
0.0
 70
    64
 71
     4
 72
     2
  0
VERTEX
  5
55B
  8
0
 10
175.0
 20
-68.0
 30
-44.5
 70
   192
  0
VERTEX
  5
55C
  8
0
 10
175.0
 20
-69.99999999999969
 30
-44.5
 70
   192
  0
VERTEX
  5
55D
  8
0
 10
175.0
 20
-70.0
 30
23.99999999999975
 70
   192
  0
VERTEX
  5
55E
  8
0
 10
175.0
 20
-67.99999999999997
 30
23.99999999999975
 70
   192
  0
VERTEX
  5
55F
  8
0
 10
0.0
 20
0.0
 30
0.0
 70
   128
 71
     1
 72
     4
 73
    -3
  0
VERTEX
  5
560
  8
0
 10
0.0
 20
0.0
 30
0.0
 70
   128
 71
    -1
 72
     3
 73
     2
  0
SEQEND
  5
72A
  8
0
  0
POLYLINE
  5
561
  8
0
 66
     1
 10
0.0
 20
0.0
 30
0.0
 70
    64
 71
     8
 72
     6
  0
VERTEX
  5
562
  8
0
 10
-35.0
 20
-67.5
 30
-45.36602540378444
 70
   192
  0
VERTEX
  5
563
  8
0
 10
-35.0
 20
-67.86602540378443
 30
-45.0
 70
   192
  0
VERTEX
  5
564
  8
0
 10
175.0
 20
-67.86602540378443
 30
-45.0
 70
   192
  0
VERTEX
  5
565
  8
0
 10
175.0
 20
-67.5
 30
-45.36602540378444
 70
   192
  0
VERTEX
  5
566
  8
0
 10
-35.0
 20
-68.0
 30
-44.5
 70
   192
  0
VERTEX
  5
567
  8
0
 10
175.0
 20
-68.0
 30
-44.50000000000007
 70
   192
  0
VERTEX
  5
568
  8
0
 10
-35.0
 20
-67.0
 30
-45.5
 70
   192
  0
VERTEX
  5
569
  8
0
 10
175.0
 20
-67.0
 30
-45.5
 70
   192
  0
VERTEX
  5
56A
  8
0
 10
0.0
 20
0.0
 30
0.0
 70
   128
 71
     1
 72
     2
 73
    -3
  0
VERTEX
  5
56B
  8
0
 10
0.0
 20
0.0
 30
0.0
 70
   128
 71
     4
 72
    -1
 73
     3
  0
VERTEX
  5
56C
  8
0
 10
0.0
 20
0.0
 30
0.0
 70
   128
 71
     2
 72
     5
 73
    -6
  0
VERTEX
  5
56D
  8
0
 10
0.0
 20
0.0
 30
0.0
 70
   128
 71
     3
 72
    -2
 73
     6
  0
VERTEX
  5
56E
  8
0
 10
0.0
 20
0.0
 30
0.0
 70
   128
 71
     7
 72
     1
 73
    -4
  0
VERTEX
  5
56F
  8
0
 10
0.0
 20
0.0
 30
0.0
 70
   128
 71
     8
 72
    -7
 73
     4
  0
SEQEND
  5
72B
  8
0
  0
POLYLINE
  5
570
  8
0
 66
     1
 10
0.0
 20
0.0
 30
0.0
 70
    64
 71
     8
 72
     6
  0
VERTEX
  5
571
  8
0
 10
175.0
 20
-69.59807621135332
 30
-46.0
 70
   192
  0
VERTEX
  5
572
  8
0
 10
-35.0
 20
-69.59807621135332
 30
-46.0
 70
   192
  0
VERTEX
  5
573
  8
0
 10
-35.0
 20
-68.5
 30
-47.09807621135332
 70
   192
  0
VERTEX
  5
574
  8
0
 10
175.0
 20
-68.5
 30
-47.09807621135332
 70
   192
  0
VERTEX
  5
575
  8
0
 10
175.0
 20
-70.0
 30
-44.5
 70
   192
  0
VERTEX
  5
576
  8
0
 10
-35.0
 20
-70.0
 30
-44.50000000000003
 70
   192
  0
VERTEX
  5
577
  8
0
 10
-35.0
 20
-67.0
 30
-47.5
 70
   192
  0
VERTEX
  5
578
  8
0
 10
175.0
 20
-67.0
 30
-47.5
 70
   192
  0
VERTEX
  5
579
  8
0
 10
0.0
 20
0.0
 30
0.0
 70
   128
 71
     1
 72
     2
 73
    -3
  0
VERTEX
  5
57A
  8
0
 10
0.0
 20
0.0
 30
0.0
 70
   128
 71
    -1
 72
     3
 73
     4
  0
VERTEX
  5
57B
  8
0
 10
0.0
 20
0.0
 30
0.0
 70
   128
 71
     5
 72
     6
 73
    -2
  0
VERTEX
  5
57C
  8
0
 10
0.0
 20
0.0
 30
0.0
 70
   128
 71
    -5
 72
     2
 73
     1
  0
VERTEX
  5
57D
  8
0
 10
0.0
 20
0.0
 30
0.0
 70
   128
 71
     4
 72
     3
 73
    -7
  0
VERTEX
  5
57E
  8
0
 10
0.0
 20
0.0
 30
0.0
 70
   128
 71
    -4
 72
     7
 73
     8
  0
SEQEND
  5
72C
  8
0
  0
POLYLINE
  5
57F
  8
0
 66
     1
 10
0.0
 20
0.0
 30
0.0
 70
    64
 71
     8
 72
     6
  0
VERTEX
  5
580
  8
0
 10
175.0
 20
-67.0
 30
-45.5
 70
   192
  0
VERTEX
  5
581
  8
0
 10
175.0
 20
-67.0
 30
-47.5
 70
   192
  0
VERTEX
  5
582
  8
0
 10
175.0
 20
-68.5
 30
-47.09807621135332
 70
   192
  0
VERTEX
  5
583
  8
0
 10
175.0
 20
-69.59807621135332
 30
-46.0
 70
   192
  0
VERTEX
  5
584
  8
0
 10
175.0
 20
-70.0
 30
-44.50000000000001
 70
   192
  0
VERTEX
  5
585
  8
0
 10
175.0
 20
-68.0
 30
-44.5
 70
   192
  0
VERTEX
  5
586
  8
0
 10
175.0
 20
-67.86602540378443
 30
-45.0
 70
   192
  0
VERTEX
  5
587
  8
0
 10
175.0
 20
-67.5
 30
-45.36602540378444
 70
   192
  0
VERTEX
  5
588
  8
0
 10
0.0
 20
0.0
 30
0.0
 70
   128
 71
     7
 72
     6
 73
    -5
  0
VERTEX
  5
589
  8
0
 10
0.0
 20
0.0
 30
0.0
 70
   128
 71
    -7
 72
     5
 73
    -4
  0
VERTEX
  5
58A
  8
0
 10
0.0
 20
0.0
 30
0.0
 70
   128
 71
     4
 72
    -3
 73
    -8
  0
VERTEX
  5
58B
  8
0
 10
0.0
 20
0.0
 30
0.0
 70
   128
 71
    -4
 72
     8
 73
    -7
  0
VERTEX
  5
58C
  8
0
 10
0.0
 20
0.0
 30
0.0
 70
   128
 71
     3
 72
     2
 73
    -1
  0
VERTEX
  5
58D
  8
0
 10
0.0
 20
0.0
 30
0.0
 70
   128
 71
    -3
 72
     1
 73
    -8
  0
SEQEND
  5
72D
  8
0
  0
POLYLINE
  5
58E
  8
0
 66
     1
 10
0.0
 20
0.0
 30
0.0
 70
    64
 71
     8
 72
     6
  0
VERTEX
  5
58F
  8
0
 10
-175.0
 20
-3.0
 30
-47.5
 70
   192
  0
VERTEX
  5
590
  8
0
 10
-175.0
 20
-3.000000000000014
 30
-45.5
 70
   192
  0
VERTEX
  5
591
  8
0
 10
-175.0
 20
-2.50000000000001
 30
-45.36602540378442
 70
   192
  0
VERTEX
  5
592
  8
0
 10
-175.0
 20
-2.133974596215579
 30
-44.99999999999999
 70
   192
  0
VERTEX
  5
593
  8
0
 10
-175.0
 20
-2.00000000000002
 30
-44.5
 70
   192
  0
VERTEX
  5
594
  8
0
 10
-175.0
 20
0.0
 30
-44.50000000000004
 70
   192
  0
VERTEX
  5
595
  8
0
 10
-175.0
 20
-0.4019237886466818
 30
-46.0
 70
   192
  0
VERTEX
  5
596
  8
0
 10
-175.0
 20
-1.499999999999998
 30
-47.09807621135332
 70
   192
  0
VERTEX
  5
597
  8
0
 10
0.0
 20
0.0
 30
0.0
 70
   128
 71
     1
 72
     2
 73
    -3
  0
VERTEX
  5
598
  8
0
 10
0.0
 20
0.0
 30
0.0
 70
   128
 71
     8
 72
    -1
 73
    -3
  0
VERTEX
  5
599
  8
0
 10
0.0
 20
0.0
 30
0.0
 70
   128
 71
    -4
 72
     7
 73
    -8
  0
VERTEX
  5
59A
  8
0
 10
0.0
 20
0.0
 30
0.0
 70
   128
 71
     3
 72
    -4
 73
    -8
  0
VERTEX
  5
59B
  8
0
 10
0.0
 20
0.0
 30
0.0
 70
   128
 71
     5
 72
     6
 73
    -7
  0
VERTEX
  5
59C
  8
0
 10
0.0
 20
0.0
 30
0.0
 70
   128
 71
     4
 72
    -5
 73
    -7
  0
SEQEND
  5
72E
  8
0
  0
POLYLINE
  5
59D
  8
0
 66
     1
 10
0.0
 20
0.0
 30
0.0
 70
    64
 71
     4
 72
     2
  0
VERTEX
  5
59E
  8
0
 10
-175.0
 20
-2.0
 30
-44.5
 70
   192
  0
VERTEX
  5
59F
  8
0
 10
-175.0
 20
-2.0
 30
42.5
 70
   192
  0
VERTEX
  5
5A0
  8
0
 10
-175.0
 20
0.0
 30
42.5
 70
   192
  0
VERTEX
  5
5A1
  8
0
 10
-175.0
 20
0.0
 30
-44.5
 70
   192
  0
VERTEX
  5
5A2
  8
0
 10
0.0
 20
0.0
 30
0.0
 70
   128
 71
     3
 72
     4
 73
    -1
  0
VERTEX
  5
5A3
  8
0
 10
0.0
 20
0.0
 30
0.0
 70
   128
 71
     2
 72
    -3
 73
     1
  0
SEQEND
  5
72F
  8
0
  0
POLYLINE
  5
5A4
  8
0
 66
     1
 10
0.0
 20
0.0
 30
0.0
 70
    64
 71
    25
 72
    27
  0
VERTEX
  5
5A5
  8
0
 10
-175.0
 20
-3.0
 30
-45.5
 70
   192
  0
VERTEX
  5
5A6
  8
0
 10
-175.0
 20
-53.5
 30
-45.50000000000018
 70
   192
  0
VERTEX
  5
5A7
  8
0
 10
-174.3301270189222
 20
-56.0
 30
-45.50000000000001
 70
   192
  0
VERTEX
  5
5A8
  8
0
 10
-172.5
 20
-57.83012701892219
 30
-45.50000000000001
 70
   192
  0
VERTEX
  5
5A9
  8
0
 10
-170.0
 20
-58.5
 30
-45.50000000000001
 70
   192
  0
VERTEX
  5
5AA
  8
0
 10
-35.0
 20
-58.5
 30
-45.49999999999999
 70
   192
  0
VERTEX
  5
5AB
  8
0
 10
-35.0
 20
-67.0
 30
-45.50000000000023
 70
   192
  0
VERTEX
  5
5AC
  8
0
 10
175.0
 20
-67.0
 30
-45.5
 70
   192
  0
VERTEX
  5
5AD
  8
0
 10
175.0
 20
-3.0
 30
-45.49999999999977
 70
   192
  0
VERTEX
  5
5AE
  8
0
 10
17.74999999999981
 20
-25.0
 30
-45.5
 70
   192
  0
VERTEX
  5
5AF
  8
0
 10
16.94454364826287
 20
-26.94454364826287
 30
-45.50000000000001
 70
   192
  0
VERTEX
  5
5B0
  8
0
 10
15.0
 20
-27.74999999999981
 30
-45.50000000000001
 70
   192
  0
VERTEX
  5
5B1
  8
0
 10
13.05545635173713
 20
-26.94454364826287
 30
-45.50000000000001
 70
   192
  0
VERTEX
  5
5B2
  8
0
 10
12.25000000000019
 20
-25.0
 30
-45.5
 70
   192
  0
VERTEX
  5
5B3
  8
0
 10
13.05545635173713
 20
-23.05545635173713
 30
-45.49999999999999
 70
   192
  0
VERTEX
  5
5B4
  8
0
 10
15.0
 20
-22.25000000000019
 30
-45.49999999999999
 70
   192
  0
VERTEX
  5
5B5
  8
0
 10
16.94454364826287
 20
-23.05545635173713
 30
-45.49999999999999
 70
   192
  0
VERTEX
  5
5B6
  8
0
 10
-122.2500000000002
 20
-25.0
 30
-45.5
 70
   192
  0
VERTEX
  5
5B7
  8
0
 10
-123.0554563517371
 20
-26.94454364826288
 30
-45.50000000000001
 70
   192
  0
VERTEX
  5
5B8
  8
0
 10
-125.0
 20
-27.74999999999982
 30
-45.50000000000001
 70
   192
  0
VERTEX
  5
5B9
  8
0
 10
-126.9445436482629
 20
-26.94454364826288
 30
-45.50000000000001
 70
   192
  0
VERTEX
  5
5BA
  8
0
 10
-127.7499999999998
 20
-25.0
 30
-45.5
 70
   192
  0
VERTEX
  5
5BB
  8
0
 10
-126.9445436482629
 20
-23.05545635173712
 30
-45.49999999999999
 70
   192
  0
VERTEX
  5
5BC
  8
0
 10
-125.0
 20
-22.25000000000018
 30
-45.49999999999999
 70
   192
  0
VERTEX
  5
5BD
  8
0
 10
-123.0554563517371
 20
-23.05545635173712
 30
-45.49999999999999
 70
   192
  0
VERTEX
  5
5BE
  8
0
 10
0.0
 20
0.0
 30
0.0
 70
   128
 71
    -9
 72
    10
 73
   -11
  0
VERTEX
  5
5BF
  8
0
 10
0.0
 20
0.0
 30
0.0
 70
   128
 71
     7
 72
     8
 73
    -9
  0
VERTEX
  5
5C0
  8
0
 10
0.0
 20
0.0
 30
0.0
 70
   128
 71
   -11
 72
    -7
 73
    -9
  0
VERTEX
  5
5C1
  8
0
 10
0.0
 20
0.0
 30
0.0
 70
   128
 71
    11
 72
   -12
 73
    -7
  0
VERTEX
  5
5C2
  8
0
 10
0.0
 20
0.0
 30
0.0
 70
   128
 71
    12
 72
   -13
 73
    -7
  0
VERTEX
  5
5C3
  8
0
 10
0.0
 20
0.0
 30
0.0
 70
   128
 71
   -18
 72
    14
 73
   -15
  0
VERTEX
  5
5C4
  8
0
 10
0.0
 20
0.0
 30
0.0
 70
   128
 71
    15
 72
   -16
 73
   -18
  0
VERTEX
  5
5C5
  8
0
 10
0.0
 20
0.0
 30
0.0
 70
   128
 71
   -14
 72
    18
 73
   -19
  0
VERTEX
  5
5C6
  8
0
 10
0.0
 20
0.0
 30
0.0
 70
   128
 71
    -6
 72
    13
 73
   -14
  0
VERTEX
  5
5C7
  8
0
 10
0.0
 20
0.0
 30
0.0
 70
   128
 71
     5
 72
    -6
 73
   -14
  0
VERTEX
  5
5C8
  8
0
 10
0.0
 20
0.0
 30
0.0
 70
   128
 71
   -19
 72
    -5
 73
   -14
  0
VERTEX
  5
5C9
  8
0
 10
0.0
 20
0.0
 30
0.0
 70
   128
 71
    19
 72
   -20
 73
    -5
  0
VERTEX
  5
5CA
  8
0
 10
0.0
 20
0.0
 30
0.0
 70
   128
 71
    20
 72
   -21
 73
    -5
  0
VERTEX
  5
5CB
  8
0
 10
0.0
 20
0.0
 30
0.0
 70
   128
 71
     3
 72
     4
 73
    -5
  0
VERTEX
  5
5CC
  8
0
 10
0.0
 20
0.0
 30
0.0
 70
   128
 71
     2
 72
    -3
 73
    -5
  0
VERTEX
  5
5CD
  8
0
 10
0.0
 20
0.0
 30
0.0
 70
   128
 71
     1
 72
    -2
 73
    -5
  0
VERTEX
  5
5CE
  8
0
 10
0.0
 20
0.0
 30
0.0
 70
   128
 71
   -22
 72
    -1
 73
    -5
  0
VERTEX
  5
5CF
  8
0
 10
0.0
 20
0.0
 30
0.0
 70
   128
 71
    21
 72
   -22
 73
    -5
  0
VERTEX
  5
5D0
  8
0
 10
0.0
 20
0.0
 30
0.0
 70
   128
 71
    22
 72
   -23
 73
    -1
  0
VERTEX
  5
5D1
  8
0
 10
0.0
 20
0.0
 30
0.0
 70
   128
 71
    23
 72
   -24
 73
    -1
  0
VERTEX
  5
5D2
  8
0
 10
0.0
 20
0.0
 30
0.0
 70
   128
 71
     9
 72
    -1
 73
   -24
  0
VERTEX
  5
5D3
  8
0
 10
0.0
 20
0.0
 30
0.0
 70
   128
 71
    24
 72
   -25
 73
    -9
  0
VERTEX
  5
5D4
  8
0
 10
0.0
 20
0.0
 30
0.0
 70
   128
 71
    25
 72
   -18
 73
   -16
  0
VERTEX
  5
5D5
  8
0
 10
0.0
 20
0.0
 30
0.0
 70
   128
 71
   -16
 72
    -9
 73
   -25
  0
VERTEX
  5
5D6
  8
0
 10
0.0
 20
0.0
 30
0.0
 70
   128
 71
    16
 72
   -17
 73
    -9
  0
VERTEX
  5
5D7
  8
0
 10
0.0
 20
0.0
 30
0.0
 70
   128
 71
    17
 72
   -10
 73
    -9
  0
VERTEX
  5
5D8
  8
0
 10
0.0
 20
0.0
 30
0.0
 70
   128
 71
     6
 72
    -7
 73
   -13
  0
SEQEND
  5
730
  8
0
  0
POLYLINE
  5
5D9
  8
0
 66
     1
 10
0.0
 20
0.0
 30
0.0
 70
    64
 71
    25
 72
    27
  0
VERTEX
  5
5DA
  8
0
 10
-35.0
 20
-58.5
 30
-47.5
 70
   192
  0
VERTEX
  5
5DB
  8
0
 10
-35.0
 20
-67.0
 30
-47.5
 70
   192
  0
VERTEX
  5
5DC
  8
0
 10
175.0
 20
-67.0
 30
-47.50000000000023
 70
   192
  0
VERTEX
  5
5DD
  8
0
 10
175.0
 20
-2.999999999999986
 30
-47.50000000000004
 70
   192
  0
VERTEX
  5
5DE
  8
0
 10
-175.0
 20
-3.0
 30
-47.50000000000001
 70
   192
  0
VERTEX
  5
5DF
  8
0
 10
-175.0
 20
-53.5
 30
-47.5
 70
   192
  0
VERTEX
  5
5E0
  8
0
 10
-174.3301270189222
 20
-56.0
 30
-47.50000000000001
 70
   192
  0
VERTEX
  5
5E1
  8
0
 10
-172.5
 20
-57.83012701892219
 30
-47.50000000000001
 70
   192
  0
VERTEX
  5
5E2
  8
0
 10
-170.0
 20
-58.5
 30
-47.5
 70
   192
  0
VERTEX
  5
5E3
  8
0
 10
-127.25
 20
-25.0
 30
-47.5
 70
   192
  0
VERTEX
  5
5E4
  8
0
 10
-126.5909902576697
 20
-23.40900974233027
 30
-47.49999999999999
 70
   192
  0
VERTEX
  5
5E5
  8
0
 10
-125.0
 20
-22.75
 30
-47.49999999999999
 70
   192
  0
VERTEX
  5
5E6
  8
0
 10
-123.4090097423303
 20
-23.40900974233027
 30
-47.49999999999999
 70
   192
  0
VERTEX
  5
5E7
  8
0
 10
-122.75
 20
-25.0
 30
-47.5
 70
   192
  0
VERTEX
  5
5E8
  8
0
 10
-123.4090097423303
 20
-26.59099025766973
 30
-47.50000000000001
 70
   192
  0
VERTEX
  5
5E9
  8
0
 10
-125.0
 20
-27.25
 30
-47.50000000000001
 70
   192
  0
VERTEX
  5
5EA
  8
0
 10
-126.5909902576697
 20
-26.59099025766973
 30
-47.50000000000001
 70
   192
  0
VERTEX
  5
5EB
  8
0
 10
12.75
 20
-25.0
 30
-47.5
 70
   192
  0
VERTEX
  5
5EC
  8
0
 10
13.40900974233027
 20
-23.40900974233027
 30
-47.49999999999999
 70
   192
  0
VERTEX
  5
5ED
  8
0
 10
15.0
 20
-22.75
 30
-47.49999999999999
 70
   192
  0
VERTEX
  5
5EE
  8
0
 10
16.59099025766973
 20
-23.40900974233027
 30
-47.49999999999999
 70
   192
  0
VERTEX
  5
5EF
  8
0
 10
17.25
 20
-25.0
 30
-47.5
 70
   192
  0
VERTEX
  5
5F0
  8
0
 10
16.59099025766973
 20
-26.59099025766973
 30
-47.50000000000001
 70
   192
  0
VERTEX
  5
5F1
  8
0
 10
15.0
 20
-27.25
 30
-47.50000000000001
 70
   192
  0
VERTEX
  5
5F2
  8
0
 10
13.40900974233027
 20
-26.59099025766973
 30
-47.50000000000001
 70
   192
  0
VERTEX
  5
5F3
  8
0
 10
0.0
 20
0.0
 30
0.0
 70
   128
 71
    11
 72
   -10
 73
    -5
  0
VERTEX
  5
5F4
  8
0
 10
0.0
 20
0.0
 30
0.0
 70
   128
 71
    -5
 72
    12
 73
   -11
  0
VERTEX
  5
5F5
  8
0
 10
0.0
 20
0.0
 30
0.0
 70
   128
 71
   -12
 72
     5
 73
    -4
  0
VERTEX
  5
5F6
  8
0
 10
0.0
 20
0.0
 30
0.0
 70
   128
 71
    -4
 72
    13
 73
   -12
  0
VERTEX
  5
5F7
  8
0
 10
0.0
 20
0.0
 30
0.0
 70
   128
 71
    15
 72
   -14
 73
   -18
  0
VERTEX
  5
5F8
  8
0
 10
0.0
 20
0.0
 30
0.0
 70
   128
 71
   -18
 72
     1
 73
    -9
  0
VERTEX
  5
5F9
  8
0
 10
0.0
 20
0.0
 30
0.0
 70
   128
 71
   -18
 72
    -9
 73
   -15
  0
VERTEX
  5
5FA
  8
0
 10
0.0
 20
0.0
 30
0.0
 70
   128
 71
    -9
 72
    16
 73
   -15
  0
VERTEX
  5
5FB
  8
0
 10
0.0
 20
0.0
 30
0.0
 70
   128
 71
    -9
 72
    17
 73
   -16
  0
VERTEX
  5
5FC
  8
0
 10
0.0
 20
0.0
 30
0.0
 70
   128
 71
     9
 72
     8
 73
    -7
  0
VERTEX
  5
5FD
  8
0
 10
0.0
 20
0.0
 30
0.0
 70
   128
 71
    -9
 72
     7
 73
    -6
  0
VERTEX
  5
5FE
  8
0
 10
0.0
 20
0.0
 30
0.0
 70
   128
 71
    -9
 72
     6
 73
    -5
  0
VERTEX
  5
5FF
  8
0
 10
0.0
 20
0.0
 30
0.0
 70
   128
 71
    -9
 72
    -5
 73
   -10
  0
VERTEX
  5
600
  8
0
 10
0.0
 20
0.0
 30
0.0
 70
   128
 71
    -9
 72
    10
 73
   -17
  0
VERTEX
  5
601
  8
0
 10
0.0
 20
0.0
 30
0.0
 70
   128
 71
    19
 72
   -18
 73
   -14
  0
VERTEX
  5
602
  8
0
 10
0.0
 20
0.0
 30
0.0
 70
   128
 71
   -19
 72
    14
 73
   -13
  0
VERTEX
  5
603
  8
0
 10
0.0
 20
0.0
 30
0.0
 70
   128
 71
   -13
 72
    20
 73
   -19
  0
VERTEX
  5
604
  8
0
 10
0.0
 20
0.0
 30
0.0
 70
   128
 71
   -20
 72
   -13
 73
    -4
  0
VERTEX
  5
605
  8
0
 10
0.0
 20
0.0
 30
0.0
 70
   128
 71
    -4
 72
    21
 73
   -20
  0
VERTEX
  5
606
  8
0
 10
0.0
 20
0.0
 30
0.0
 70
   128
 71
    -4
 72
    22
 73
   -21
  0
VERTEX
  5
607
  8
0
 10
0.0
 20
0.0
 30
0.0
 70
   128
 71
    -4
 72
    23
 73
   -22
  0
VERTEX
  5
608
  8
0
 10
0.0
 20
0.0
 30
0.0
 70
   128
 71
     4
 72
    -3
 73
    -1
  0
VERTEX
  5
609
  8
0
 10
0.0
 20
0.0
 30
0.0
 70
   128
 71
    -4
 72
    -1
 73
   -23
  0
VERTEX
  5
60A
  8
0
 10
0.0
 20
0.0
 30
0.0
 70
   128
 71
    -1
 72
    24
 73
   -23
  0
VERTEX
  5
60B
  8
0
 10
0.0
 20
0.0
 30
0.0
 70
   128
 71
    -1
 72
    25
 73
   -24
  0
VERTEX
  5
60C
  8
0
 10
0.0
 20
0.0
 30
0.0
 70
   128
 71
    -1
 72
    18
 73
   -25
  0
VERTEX
  5
60D
  8
0
 10
0.0
 20
0.0
 30
0.0
 70
   128
 71
     3
 72
     2
 73
    -1
  0
SEQEND
  5
731
  8
0
  0
POLYLINE
  5
60E
  8
0
 66
     1
 10
0.0
 20
0.0
 30
0.0
 70
    64
 71
     4
 72
     2
  0
VERTEX
  5
60F
  8
0
 10
-175.0
 20
-3.0
 30
-47.5
 70
   192
  0
VERTEX
  5
610
  8
0
 10
-175.0
 20
-3.0
 30
-45.5
 70
   192
  0
VERTEX
  5
611
  8
0
 10
-175.0
 20
-53.50000000000001
 30
-45.5
 70
   192
  0
VERTEX
  5
612
  8
0
 10
-175.0
 20
-53.49999999999999
 30
-47.50000000000018
 70
   192
  0
VERTEX
  5
613
  8
0
 10
0.0
 20
0.0
 30
0.0
 70
   128
 71
     1
 72
     4
 73
    -3
  0
VERTEX
  5
614
  8
0
 10
0.0
 20
0.0
 30
0.0
 70
   128
 71
    -1
 72
     3
 73
     2
  0
SEQEND
  5
732
  8
0
  0
POLYLINE
  5
615
  8
0
 66
     1
 10
0.0
 20
0.0
 30
0.0
 70
    64
 71
     4
 72
     2
  0
VERTEX
  5
616
  8
0
 10
175.0
 20
-67.0
 30
-45.49999999999999
 70
   192
  0
VERTEX
  5
617
  8
0
 10
175.0
 20
-3.0
 30
-45.5
 70
   192
  0
VERTEX
  5
618
  8
0
 10
175.0
 20
-3.0
 30
-47.50000000000001
 70
   192
  0
VERTEX
  5
619
  8
0
 10
175.0
 20
-67.0
 30
-47.5
 70
   192
  0
VERTEX
  5
61A
  8
0
 10
0.0
 20
0.0
 30
0.0
 70
   128
 71
     1
 72
     4
 73
    -3
  0
VERTEX
  5
61B
  8
0
 10
0.0
 20
0.0
 30
0.0
 70
   128
 71
    -1
 72
     3
 73
     2
  0
SEQEND
  5
733
  8
0
  0
POLYLINE
  5
61C
  8
0
 66
     1
 10
0.0
 20
0.0
 30
0.0
 70
    64
 71
     4
 72
     2
  0
VERTEX
  5
61D
  8
0
 10
-35.0
 20
-58.5
 30
-47.5
 70
   192
  0
VERTEX
  5
61E
  8
0
 10
-35.0
 20
-58.5
 30
-45.50000000000021
 70
   192
  0
VERTEX
  5
61F
  8
0
 10
-35.0
 20
-67.00000000000001
 30
-45.5
 70
   192
  0
VERTEX
  5
620
  8
0
 10
-35.0
 20
-67.0
 30
-47.50000000000006
 70
   192
  0
VERTEX
  5
621
  8
0
 10
0.0
 20
0.0
 30
0.0
 70
   128
 71
     1
 72
     4
 73
    -3
  0
VERTEX
  5
622
  8
0
 10
0.0
 20
0.0
 30
0.0
 70
   128
 71
    -1
 72
     3
 73
     2
  0
SEQEND
  5
734
  8
0
  0
POLYLINE
  5
623
  8
0
 66
     1
 10
0.0
 20
0.0
 30
0.0
 70
    64
 71
     4
 72
     2
  0
VERTEX
  5
624
  8
0
 10
-35.0
 20
-68.0
 30
-1.000000000000206
 70
   192
  0
VERTEX
  5
625
  8
0
 10
-35.0
 20
-70.00000000000033
 30
-1.000000000000213
 70
   192
  0
VERTEX
  5
626
  8
0
 10
-35.0
 20
-70.0
 30
-44.50000000000002
 70
   192
  0
VERTEX
  5
627
  8
0
 10
-35.0
 20
-67.99999999999969
 30
-44.5
 70
   192
  0
VERTEX
  5
628
  8
0
 10
0.0
 20
0.0
 30
0.0
 70
   128
 71
     1
 72
     4
 73
    -3
  0
VERTEX
  5
629
  8
0
 10
0.0
 20
0.0
 30
0.0
 70
   128
 71
    -1
 72
     3
 73
     2
  0
SEQEND
  5
735
  8
0
  0
POLYLINE
  5
62A
  8
0
 66
     1
 10
0.0
 20
0.0
 30
0.0
 70
    64
 71
    12
 72
    10
  0
VERTEX
  5
62B
  8
0
 10
-175.0
 20
-3.0
 30
-45.49999999999998
 70
   192
  0
VERTEX
  5
62C
  8
0
 10
175.0
 20
-2.999999999999986
 30
-45.50000000000004
 70
   192
  0
VERTEX
  5
62D
  8
0
 10
175.0
 20
-2.657979856674341
 30
-45.43969262078589
 70
   192
  0
VERTEX
  5
62E
  8
0
 10
50.0
 20
-2.015192246987812
 30
-44.67364817766693
 70
   192
  0
VERTEX
  5
62F
  8
0
 10
50.0
 20
-2.00000000000002
 30
-44.5
 70
   192
  0
VERTEX
  5
630
  8
0
 10
-175.0
 20
-2.0
 30
-44.5
 70
   192
  0
VERTEX
  5
631
  8
0
 10
175.0
 20
-2.357212390313478
 30
-45.26604444311896
 70
   192
  0
VERTEX
  5
632
  8
0
 10
175.0
 20
-2.13397459621558
 30
-45.0
 70
   192
  0
VERTEX
  5
633
  8
0
 10
50.0
 20
-2.13397459621558
 30
-45.0
 70
   192
  0
VERTEX
  5
634
  8
0
 10
-175.0
 20
-2.50000000000001
 30
-45.36602540378442
 70
   192
  0
VERTEX
  5
635
  8
0
 10
-175.0
 20
-2.133974596215579
 30
-44.99999999999999
 70
   192
  0
VERTEX
  5
636
  8
0
 10
50.0
 20
-2.060307379214112
 30
-44.84202014332567
 70
   192
  0
VERTEX
  5
637
  8
0
 10
0.0
 20
0.0
 30
0.0
 70
   128
 71
     1
 72
     2
 73
     3
  0
VERTEX
  5
638
  8
0
 10
0.0
 20
0.0
 30
0.0
 70
   128
 71
     4
 72
     5
 73
     6
  0
VERTEX
  5
639
  8
0
 10
0.0
 20
0.0
 30
0.0
 70
   128
 71
     7
 72
     8
 73
     9
  0
VERTEX
  5
63A
  8
0
 10
0.0
 20
0.0
 30
0.0
 70
   128
 71
    10
 72
     7
 73
     9
  0
VERTEX
  5
63B
  8
0
 10
0.0
 20
0.0
 30
0.0
 70
   128
 71
     9
 72
    11
 73
    10
  0
VERTEX
  5
63C
  8
0
 10
0.0
 20
0.0
 30
0.0
 70
   128
 71
     7
 72
    10
 73
     3
  0
VERTEX
  5
63D
  8
0
 10
0.0
 20
0.0
 30
0.0
 70
   128
 71
    10
 72
     1
 73
     3
  0
VERTEX
  5
63E
  8
0
 10
0.0
 20
0.0
 30
0.0
 70
   128
 71
     4
 72
     6
 73
   -11
  0
VERTEX
  5
63F
  8
0
 10
0.0
 20
0.0
 30
0.0
 70
   128
 71
    12
 72
    -4
 73
    11
  0
VERTEX
  5
640
  8
0
 10
0.0
 20
0.0
 30
0.0
 70
   128
 71
    12
 72
    11
 73
     9
  0
SEQEND
  5
736
  8
0
  0
POLYLINE
  5
641
  8
0
 66
     1
 10
0.0
 20
0.0
 30
0.0
 70
    64
 71
    12
 72
    10
  0
VERTEX
  5
642
  8
0
 10
175.0
 20
-1.973939570023009
 30
-47.31907786235773
 70
   192
  0
VERTEX
  5
643
  8
0
 10
175.0
 20
-3.0
 30
-47.5
 70
   192
  0
VERTEX
  5
644
  8
0
 10
-175.0
 20
-3.0
 30
-47.5
 70
   192
  0
VERTEX
  5
645
  8
0
 10
-175.0
 20
0.0000000000000027
 30
-44.5
 70
   192
  0
VERTEX
  5
646
  8
0
 10
50.0
 20
-0.0000000000000156
 30
-44.5
 70
   192
  0
VERTEX
  5
647
  8
0
 10
50.0
 20
-0.0455767409633761
 30
-45.02094453300081
 70
   192
  0
VERTEX
  5
648
  8
0
 10
50.0
 20
-0.401923788646708
 30
-46.00000000000004
 70
   192
  0
VERTEX
  5
649
  8
0
 10
175.0
 20
-0.4019237886467165
 30
-46.0
 70
   192
  0
VERTEX
  5
64A
  8
0
 10
175.0
 20
-1.071637170940406
 30
-46.79813332935696
 70
   192
  0
VERTEX
  5
64B
  8
0
 10
-175.0
 20
-1.499999999999998
 30
-47.09807621135332
 70
   192
  0
VERTEX
  5
64C
  8
0
 10
-175.0
 20
-0.4019237886466818
 30
-46.0
 70
   192
  0
VERTEX
  5
64D
  8
0
 10
50.0
 20
-0.180922137642284
 30
-45.52606042997704
 70
   192
  0
VERTEX
  5
64E
  8
0
 10
0.0
 20
0.0
 30
0.0
 70
   128
 71
     1
 72
     2
 73
     3
  0
VERTEX
  5
64F
  8
0
 10
0.0
 20
0.0
 30
0.0
 70
   128
 71
     4
 72
     5
 73
     6
  0
VERTEX
  5
650
  8
0
 10
0.0
 20
0.0
 30
0.0
 70
   128
 71
     7
 72
     8
 73
     9
  0
VERTEX
  5
651
  8
0
 10
0.0
 20
0.0
 30
0.0
 70
   128
 71
     7
 72
     9
 73
    10
  0
VERTEX
  5
652
  8
0
 10
0.0
 20
0.0
 30
0.0
 70
   128
 71
    10
 72
    11
 73
     7
  0
VERTEX
  5
653
  8
0
 10
0.0
 20
0.0
 30
0.0
 70
   128
 71
     1
 72
    10
 73
     9
  0
VERTEX
  5
654
  8
0
 10
0.0
 20
0.0
 30
0.0
 70
   128
 71
     1
 72
     3
 73
    10
  0
VERTEX
  5
655
  8
0
 10
0.0
 20
0.0
 30
0.0
 70
   128
 71
    11
 72
     4
 73
    -6
  0
VERTEX
  5
656
  8
0
 10
0.0
 20
0.0
 30
0.0
 70
   128
 71
   -11
 72
     6
 73
    12
  0
VERTEX
  5
657
  8
0
 10
0.0
 20
0.0
 30
0.0
 70
   128
 71
     7
 72
    11
 73
    12
  0
SEQEND
  5
737
  8
0
  0
POLYLINE
  5
658
  8
0
 66
     1
 10
0.0
 20
0.0
 30
0.0
 70
    64
 71
     8
 72
     6
  0
VERTEX
  5
659
  8
0
 10
175.0
 20
-2.999999999999986
 30
-47.5
 70
   192
  0
VERTEX
  5
65A
  8
0
 10
175.0
 20
-3.0
 30
-45.49999999999998
 70
   192
  0
VERTEX
  5
65B
  8
0
 10
175.0
 20
-2.657979856674341
 30
-45.43969262078589
 70
   192
  0
VERTEX
  5
65C
  8
0
 10
175.0
 20
-2.357212390313478
 30
-45.26604444311896
 70
   192
  0
VERTEX
  5
65D
  8
0
 10
175.0
 20
-2.133974596215577
 30
-44.99999999999999
 70
   192
  0
VERTEX
  5
65E
  8
0
 10
175.0
 20
-0.4019237886467071
 30
-46.00000000000004
 70
   192
  0
VERTEX
  5
65F
  8
0
 10
175.0
 20
-1.071637170940406
 30
-46.79813332935696
 70
   192
  0
VERTEX
  5
660
  8
0
 10
175.0
 20
-1.973939570023009
 30
-47.31907786235773
 70
   192
  0
VERTEX
  5
661
  8
0
 10
0.0
 20
0.0
 30
0.0
 70
   128
 71
     3
 72
     2
 73
    -1
  0
VERTEX
  5
662
  8
0
 10
0.0
 20
0.0
 30
0.0
 70
   128
 71
    -3
 72
     1
 73
    -8
  0
VERTEX
  5
663
  8
0
 10
0.0
 20
0.0
 30
0.0
 70
   128
 71
     8
 72
    -7
 73
    -4
  0
VERTEX
  5
664
  8
0
 10
0.0
 20
0.0
 30
0.0
 70
   128
 71
    -8
 72
     4
 73
    -3
  0
VERTEX
  5
665
  8
0
 10
0.0
 20
0.0
 30
0.0
 70
   128
 71
     7
 72
     6
 73
    -5
  0
VERTEX
  5
666
  8
0
 10
0.0
 20
0.0
 30
0.0
 70
   128
 71
    -7
 72
     5
 73
    -4
  0
SEQEND
  5
738
  8
0
  0
POLYLINE
  5
667
  8
0
 66
     1
 10
0.0
 20
0.0
 30
0.0
 70
    64
 71
     4
 72
     2
  0
VERTEX
  5
668
  8
0
 10
-170.0
 20
-2.0
 30
47.50000000000004
 70
   192
  0
VERTEX
  5
669
  8
0
 10
45.0
 20
-2.0
 30
47.50000000000001
 70
   192
  0
VERTEX
  5
66A
  8
0
 10
45.0
 20
0.0
 30
47.5
 70
   192
  0
VERTEX
  5
66B
  8
0
 10
-170.0
 20
0.0
 30
47.50000000000004
 70
   192
  0
VERTEX
  5
66C
  8
0
 10
0.0
 20
0.0
 30
0.0
 70
   128
 71
     3
 72
     4
 73
    -1
  0
VERTEX
  5
66D
  8
0
 10
0.0
 20
0.0
 30
0.0
 70
   128
 71
     2
 72
    -3
 73
     1
  0
SEQEND
  5
739
  8
0
  0
POLYLINE
  5
66E
  8
0
 66
     1
 10
0.0
 20
0.0
 30
0.0
 70
    64
 71
    10
 72
     8
  0
VERTEX
  5
66F
  8
0
 10
-170.0
 20
0.0
 30
47.50000000000004
 70
   192
  0
VERTEX
  5
670
  8
0
 10
45.0
 20
0.0
 30
47.50000000000001
 70
   192
  0
VERTEX
  5
671
  8
0
 10
47.5
 20
0.0
 30
46.83012701892219
 70
   192
  0
VERTEX
  5
672
  8
0
 10
49.33012701892219
 20
0.0
 30
45.0
 70
   192
  0
VERTEX
  5
673
  8
0
 10
50.0
 20
0.0
 30
42.5
 70
   192
  0
VERTEX
  5
674
  8
0
 10
50.0
 20
0.0
 30
-44.5
 70
   192
  0
VERTEX
  5
675
  8
0
 10
-175.0
 20
-0.0000000000000156
 30
-44.5
 70
   192
  0
VERTEX
  5
676
  8
0
 10
-175.0
 20
0.0
 30
42.5
 70
   192
  0
VERTEX
  5
677
  8
0
 10
-174.3301270189222
 20
0.0
 30
45.0
 70
   192
  0
VERTEX
  5
678
  8
0
 10
-172.5
 20
0.0
 30
46.83012701892219
 70
   192
  0
VERTEX
  5
679
  8
0
 10
0.0
 20
0.0
 30
0.0
 70
   128
 71
     9
 72
    10
 73
    -1
  0
VERTEX
  5
67A
  8
0
 10
0.0
 20
0.0
 30
0.0
 70
   128
 71
     8
 72
    -9
 73
    -1
  0
VERTEX
  5
67B
  8
0
 10
0.0
 20
0.0
 30
0.0
 70
   128
 71
     7
 72
    -8
 73
    -1
  0
VERTEX
  5
67C
  8
0
 10
0.0
 20
0.0
 30
0.0
 70
   128
 71
     6
 72
    -7
 73
    -1
  0
VERTEX
  5
67D
  8
0
 10
0.0
 20
0.0
 30
0.0
 70
   128
 71
     5
 72
    -6
 73
    -1
  0
VERTEX
  5
67E
  8
0
 10
0.0
 20
0.0
 30
0.0
 70
   128
 71
     4
 72
    -5
 73
    -1
  0
VERTEX
  5
67F
  8
0
 10
0.0
 20
0.0
 30
0.0
 70
   128
 71
     3
 72
    -4
 73
    -1
  0
VERTEX
  5
680
  8
0
 10
0.0
 20
0.0
 30
0.0
 70
   128
 71
     2
 72
    -3
 73
     1
  0
SEQEND
  5
73A
  8
0
  0
POLYLINE
  5
681
  8
0
 66
     1
 10
0.0
 20
0.0
 30
0.0
 70
    64
 71
    10
 72
     8
  0
VERTEX
  5
682
  8
0
 10
50.0
 20
-2.0
 30
-44.5
 70
   192
  0
VERTEX
  5
683
  8
0
 10
-175.0
 20
-2.0
 30
-44.5
 70
   192
  0
VERTEX
  5
684
  8
0
 10
-175.0
 20
-2.0
 30
42.5
 70
   192
  0
VERTEX
  5
685
  8
0
 10
-174.3301270189222
 20
-2.0
 30
45.0
 70
   192
  0
VERTEX
  5
686
  8
0
 10
-172.5
 20
-2.0
 30
46.83012701892219
 70
   192
  0
VERTEX
  5
687
  8
0
 10
-170.0
 20
-2.0
 30
47.50000000000004
 70
   192
  0
VERTEX
  5
688
  8
0
 10
45.0
 20
-2.0
 30
47.5
 70
   192
  0
VERTEX
  5
689
  8
0
 10
47.5
 20
-2.0
 30
46.83012701892219
 70
   192
  0
VERTEX
  5
68A
  8
0
 10
49.33012701892219
 20
-2.0
 30
45.0
 70
   192
  0
VERTEX
  5
68B
  8
0
 10
50.0
 20
-2.0
 30
42.5
 70
   192
  0
VERTEX
  5
68C
  8
0
 10
0.0
 20
0.0
 30
0.0
 70
   128
 71
     1
 72
    10
 73
    -9
  0
VERTEX
  5
68D
  8
0
 10
0.0
 20
0.0
 30
0.0
 70
   128
 71
    -1
 72
     9
 73
    -8
  0
VERTEX
  5
68E
  8
0
 10
0.0
 20
0.0
 30
0.0
 70
   128
 71
    -1
 72
     8
 73
    -7
  0
VERTEX
  5
68F
  8
0
 10
0.0
 20
0.0
 30
0.0
 70
   128
 71
    -1
 72
     7
 73
    -6
  0
VERTEX
  5
690
  8
0
 10
0.0
 20
0.0
 30
0.0
 70
   128
 71
    -1
 72
     6
 73
    -5
  0
VERTEX
  5
691
  8
0
 10
0.0
 20
0.0
 30
0.0
 70
   128
 71
    -1
 72
     5
 73
    -4
  0
VERTEX
  5
692
  8
0
 10
0.0
 20
0.0
 30
0.0
 70
   128
 71
    -1
 72
     4
 73
    -3
  0
VERTEX
  5
693
  8
0
 10
0.0
 20
0.0
 30
0.0
 70
   128
 71
    -1
 72
     3
 73
     2
  0
SEQEND
  5
73B
  8
0
  0
POLYLINE
  5
694
  8
0
 66
     1
 10
0.0
 20
0.0
 30
0.0
 70
    64
 71
     4
 72
     2
  0
VERTEX
  5
695
  8
0
 10
-142.0
 20
-70.0
 30
-1.00000000000022
 70
   192
  0
VERTEX
  5
696
  8
0
 10
-35.0
 20
-70.0
 30
-1.000000000000219
 70
   192
  0
VERTEX
  5
697
  8
0
 10
-35.0
 20
-68.0
 30
-1.000000000000206
 70
   192
  0
VERTEX
  5
698
  8
0
 10
-142.0
 20
-68.0
 30
-1.000000000000206
 70
   192
  0
VERTEX
  5
699
  8
0
 10
0.0
 20
0.0
 30
0.0
 70
   128
 71
     1
 72
     4
 73
    -3
  0
VERTEX
  5
69A
  8
0
 10
0.0
 20
0.0
 30
0.0
 70
   128
 71
    -1
 72
     3
 73
     2
  0
SEQEND
  5
73C
  8
0
  0
POLYLINE
  5
69B
  8
0
 66
     1
 10
0.0
 20
0.0
 30
0.0
 70
    64
 71
     4
 72
     2
  0
VERTEX
  5
69C
  8
0
 10
-142.0
 20
-70.0
 30
28.99999999999999
 70
   192
  0
VERTEX
  5
69D
  8
0
 10
-142.0
 20
-68.0
 30
29.0
 70
   192
  0
VERTEX
  5
69E
  8
0
 10
170.0
 20
-68.0
 30
29.00000000000001
 70
   192
  0
VERTEX
  5
69F
  8
0
 10
170.0
 20
-70.0
 30
28.99999999999999
 70
   192
  0
VERTEX
  5
6A0
  8
0
 10
0.0
 20
0.0
 30
0.0
 70
   128
 71
     1
 72
     4
 73
    -3
  0
VERTEX
  5
6A1
  8
0
 10
0.0
 20
0.0
 30
0.0
 70
   128
 71
    -1
 72
     3
 73
     2
  0
SEQEND
  5
73D
  8
0
  0
POLYLINE
  5
6A2
  8
0
 66
     1
 10
0.0
 20
0.0
 30
0.0
 70
    64
 71
     9
 72
     7
  0
VERTEX
  5
6A3
  8
0
 10
175.0
 20
-70.0
 30
-44.50000000000007
 70
   192
  0
VERTEX
  5
6A4
  8
0
 10
-35.0
 20
-70.00000000000003
 30
-44.5
 70
   192
  0
VERTEX
  5
6A5
  8
0
 10
-35.0
 20
-70.0
 30
-1.00000000000022
 70
   192
  0
VERTEX
  5
6A6
  8
0
 10
-142.0
 20
-69.99999999999979
 30
-1.00000000000022
 70
   192
  0
VERTEX
  5
6A7
  8
0
 10
-142.0
 20
-70.0
 30
29.00000000000001
 70
   192
  0
VERTEX
  5
6A8
  8
0
 10
170.0
 20
-70.00000000000003
 30
28.99999999999975
 70
   192
  0
VERTEX
  5
6A9
  8
0
 10
172.5
 20
-70.00000000000003
 30
28.33012701892194
 70
   192
  0
VERTEX
  5
6AA
  8
0
 10
174.3301270189222
 20
-70.00000000000001
 30
26.49999999999975
 70
   192
  0
VERTEX
  5
6AB
  8
0
 10
175.0
 20
-70.00000000000017
 30
23.99999999999975
 70
   192
  0
VERTEX
  5
6AC
  8
0
 10
0.0
 20
0.0
 30
0.0
 70
   128
 71
     3
 72
     2
 73
    -1
  0
VERTEX
  5
6AD
  8
0
 10
0.0
 20
0.0
 30
0.0
 70
   128
 71
    -3
 72
     1
 73
    -9
  0
VERTEX
  5
6AE
  8
0
 10
0.0
 20
0.0
 30
0.0
 70
   128
 71
    -3
 72
     9
 73
    -8
  0
VERTEX
  5
6AF
  8
0
 10
0.0
 20
0.0
 30
0.0
 70
   128
 71
     8
 72
     7
 73
    -6
  0
VERTEX
  5
6B0
  8
0
 10
0.0
 20
0.0
 30
0.0
 70
   128
 71
    -8
 72
     6
 73
    -5
  0
VERTEX
  5
6B1
  8
0
 10
0.0
 20
0.0
 30
0.0
 70
   128
 71
    -8
 72
    -5
 73
    -3
  0
VERTEX
  5
6B2
  8
0
 10
0.0
 20
0.0
 30
0.0
 70
   128
 71
     5
 72
     4
 73
    -3
  0
SEQEND
  5
73E
  8
0
  0
POLYLINE
  5
6B3
  8
0
 66
     1
 10
0.0
 20
0.0
 30
0.0
 70
    64
 71
     9
 72
     7
  0
VERTEX
  5
6B4
  8
0
 10
-142.0
 20
-67.99999999999979
 30
-1.000000000000206
 70
   192
  0
VERTEX
  5
6B5
  8
0
 10
-142.0
 20
-68.0
 30
29.0
 70
   192
  0
VERTEX
  5
6B6
  8
0
 10
170.0
 20
-68.0
 30
28.99999999999997
 70
   192
  0
VERTEX
  5
6B7
  8
0
 10
172.5
 20
-68.00000000000003
 30
28.33012701892195
 70
   192
  0
VERTEX
  5
6B8
  8
0
 10
174.3301270189222
 20
-68.00000000000001
 30
26.49999999999975
 70
   192
  0
VERTEX
  5
6B9
  8
0
 10
175.0
 20
-68.0
 30
23.99999999999975
 70
   192
  0
VERTEX
  5
6BA
  8
0
 10
175.0
 20
-67.99999999999949
 30
-44.5
 70
   192
  0
VERTEX
  5
6BB
  8
0
 10
-35.0
 20
-68.0
 30
-44.50000000000003
 70
   192
  0
VERTEX
  5
6BC
  8
0
 10
-35.0
 20
-68.0
 30
-1.000000000000206
 70
   192
  0
VERTEX
  5
6BD
  8
0
 10
0.0
 20
0.0
 30
0.0
 70
   128
 71
     7
 72
     8
 73
    -9
  0
VERTEX
  5
6BE
  8
0
 10
0.0
 20
0.0
 30
0.0
 70
   128
 71
     6
 72
    -7
 73
    -9
  0
VERTEX
  5
6BF
  8
0
 10
0.0
 20
0.0
 30
0.0
 70
   128
 71
     5
 72
    -6
 73
    -9
  0
VERTEX
  5
6C0
  8
0
 10
0.0
 20
0.0
 30
0.0
 70
   128
 71
     3
 72
     4
 73
    -5
  0
VERTEX
  5
6C1
  8
0
 10
0.0
 20
0.0
 30
0.0
 70
   128
 71
     2
 72
    -3
 73
    -5
  0
VERTEX
  5
6C2
  8
0
 10
0.0
 20
0.0
 30
0.0
 70
   128
 71
    -9
 72
    -2
 73
    -5
  0
VERTEX
  5
6C3
  8
0
 10
0.0
 20
0.0
 30
0.0
 70
   128
 71
     9
 72
     1
 73
    -2
  0
SEQEND
  5
73F
  8
0
  0
POLYLINE
  5
6C4
  8
0
 66
     1
 10
0.0
 20
0.0
 30
0.0
 70
    64
 71
    10
 72
     8
  0
VERTEX
  5
6C5
  8
0
 10
12.75
 20
-25.0
 30
-47.5
 70
   192
  0
VERTEX
  5
6C6
  8
0
 10
17.25
 20
-25.0
 30
-47.5
 70
   192
  0
VERTEX
  5
6C7
  8
0
 10
17.25
 20
-25.0
 30
-46.0
 70
   192
  0
VERTEX
  5
6C8
  8
0
 10
12.75
 20
-25.0
 30
-46.0
 70
   192
  0
VERTEX
  5
6C9
  8
0
 10
15.0
 20
-27.25
 30
-46.0
 70
   192
  0
VERTEX
  5
6CA
  8
0
 10
15.0
 20
-27.25
 30
-47.50000000000001
 70
   192
  0
VERTEX
  5
6CB
  8
0
 10
13.40900974233027
 20
-26.59099025766973
 30
-46.0
 70
   192
  0
VERTEX
  5
6CC
  8
0
 10
13.40900974233027
 20
-26.59099025766973
 30
-47.50000000000001
 70
   192
  0
VERTEX
  5
6CD
  8
0
 10
16.59099025766973
 20
-26.59099025766973
 30
-46.0
 70
   192
  0
VERTEX
  5
6CE
  8
0
 10
16.59099025766973
 20
-26.59099025766973
 30
-47.50000000000001
 70
   192
  0
VERTEX
  5
6CF
  8
0
 10
0.0
 20
0.0
 30
0.0
 70
   128
 71
     8
 72
     1
 73
    -4
  0
VERTEX
  5
6D0
  8
0
 10
0.0
 20
0.0
 30
0.0
 70
   128
 71
     7
 72
    -8
 73
     4
  0
VERTEX
  5
6D1
  8
0
 10
0.0
 20
0.0
 30
0.0
 70
   128
 71
     6
 72
     8
 73
    -7
  0
VERTEX
  5
6D2
  8
0
 10
0.0
 20
0.0
 30
0.0
 70
   128
 71
     5
 72
    -6
 73
     7
  0
VERTEX
  5
6D3
  8
0
 10
0.0
 20
0.0
 30
0.0
 70
   128
 71
    10
 72
     6
 73
    -5
  0
VERTEX
  5
6D4
  8
0
 10
0.0
 20
0.0
 30
0.0
 70
   128
 71
     9
 72
   -10
 73
     5
  0
VERTEX
  5
6D5
  8
0
 10
0.0
 20
0.0
 30
0.0
 70
   128
 71
     2
 72
    10
 73
    -9
  0
VERTEX
  5
6D6
  8
0
 10
0.0
 20
0.0
 30
0.0
 70
   128
 71
     3
 72
    -2
 73
     9
  0
SEQEND
  5
740
  8
0
  0
POLYLINE
  5
6D7
  8
0
 66
     1
 10
0.0
 20
0.0
 30
0.0
 70
    64
 71
    10
 72
     8
  0
VERTEX
  5
6D8
  8
0
 10
-127.25
 20
-25.0
 30
-47.5
 70
   192
  0
VERTEX
  5
6D9
  8
0
 10
-122.75
 20
-25.0
 30
-47.5
 70
   192
  0
VERTEX
  5
6DA
  8
0
 10
-122.75
 20
-25.0
 30
-46.0
 70
   192
  0
VERTEX
  5
6DB
  8
0
 10
-127.25
 20
-25.0
 30
-46.0
 70
   192
  0
VERTEX
  5
6DC
  8
0
 10
-125.0
 20
-27.25
 30
-46.0
 70
   192
  0
VERTEX
  5
6DD
  8
0
 10
-125.0
 20
-27.25
 30
-47.50000000000001
 70
   192
  0
VERTEX
  5
6DE
  8
0
 10
-126.5909902576697
 20
-26.59099025766973
 30
-46.0
 70
   192
  0
VERTEX
  5
6DF
  8
0
 10
-126.5909902576697
 20
-26.59099025766973
 30
-47.50000000000001
 70
   192
  0
VERTEX
  5
6E0
  8
0
 10
-123.4090097423303
 20
-26.59099025766973
 30
-46.0
 70
   192
  0
VERTEX
  5
6E1
  8
0
 10
-123.4090097423303
 20
-26.59099025766973
 30
-47.50000000000001
 70
   192
  0
VERTEX
  5
6E2
  8
0
 10
0.0
 20
0.0
 30
0.0
 70
   128
 71
     8
 72
     1
 73
    -4
  0
VERTEX
  5
6E3
  8
0
 10
0.0
 20
0.0
 30
0.0
 70
   128
 71
     7
 72
    -8
 73
     4
  0
VERTEX
  5
6E4
  8
0
 10
0.0
 20
0.0
 30
0.0
 70
   128
 71
     6
 72
     8
 73
    -7
  0
VERTEX
  5
6E5
  8
0
 10
0.0
 20
0.0
 30
0.0
 70
   128
 71
     5
 72
    -6
 73
     7
  0
VERTEX
  5
6E6
  8
0
 10
0.0
 20
0.0
 30
0.0
 70
   128
 71
    10
 72
     6
 73
    -5
  0
VERTEX
  5
6E7
  8
0
 10
0.0
 20
0.0
 30
0.0
 70
   128
 71
     9
 72
   -10
 73
     5
  0
VERTEX
  5
6E8
  8
0
 10
0.0
 20
0.0
 30
0.0
 70
   128
 71
     2
 72
    10
 73
    -9
  0
VERTEX
  5
6E9
  8
0
 10
0.0
 20
0.0
 30
0.0
 70
   128
 71
     3
 72
    -2
 73
     9
  0
SEQEND
  5
741
  8
0
  0
POLYLINE
  5
6EA
  8
0
 66
     1
 10
0.0
 20
0.0
 30
0.0
 70
    64
 71
    10
 72
     8
  0
VERTEX
  5
6EB
  8
0
 10
12.75
 20
-25.0
 30
-46.0
 70
   192
  0
VERTEX
  5
6EC
  8
0
 10
17.25
 20
-25.0
 30
-46.0
 70
   192
  0
VERTEX
  5
6ED
  8
0
 10
17.74999999999981
 20
-25.0
 30
-45.5
 70
   192
  0
VERTEX
  5
6EE
  8
0
 10
12.2500000000001
 20
-25.0
 30
-45.5000000000001
 70
   192
  0
VERTEX
  5
6EF
  8
0
 10
15.0
 20
-27.74999999999981
 30
-45.50000000000001
 70
   192
  0
VERTEX
  5
6F0
  8
0
 10
15.0
 20
-27.25
 30
-46.0
 70
   192
  0
VERTEX
  5
6F1
  8
0
 10
13.05545635173713
 20
-26.94454364826287
 30
-45.50000000000001
 70
   192
  0
VERTEX
  5
6F2
  8
0
 10
13.40900974233027
 20
-26.59099025766973
 30
-46.0
 70
   192
  0
VERTEX
  5
6F3
  8
0
 10
16.94454364826287
 20
-26.94454364826287
 30
-45.50000000000001
 70
   192
  0
VERTEX
  5
6F4
  8
0
 10
16.59099025766973
 20
-26.59099025766973
 30
-46.0
 70
   192
  0
VERTEX
  5
6F5
  8
0
 10
0.0
 20
0.0
 30
0.0
 70
   128
 71
     8
 72
     1
 73
    -4
  0
VERTEX
  5
6F6
  8
0
 10
0.0
 20
0.0
 30
0.0
 70
   128
 71
     7
 72
    -8
 73
     4
  0
VERTEX
  5
6F7
  8
0
 10
0.0
 20
0.0
 30
0.0
 70
   128
 71
     6
 72
     8
 73
    -7
  0
VERTEX
  5
6F8
  8
0
 10
0.0
 20
0.0
 30
0.0
 70
   128
 71
     5
 72
    -6
 73
     7
  0
VERTEX
  5
6F9
  8
0
 10
0.0
 20
0.0
 30
0.0
 70
   128
 71
    10
 72
     6
 73
    -5
  0
VERTEX
  5
6FA
  8
0
 10
0.0
 20
0.0
 30
0.0
 70
   128
 71
     9
 72
   -10
 73
     5
  0
VERTEX
  5
6FB
  8
0
 10
0.0
 20
0.0
 30
0.0
 70
   128
 71
     2
 72
    10
 73
    -9
  0
VERTEX
  5
6FC
  8
0
 10
0.0
 20
0.0
 30
0.0
 70
   128
 71
     3
 72
    -2
 73
     9
  0
SEQEND
  5
742
  8
0
  0
POLYLINE
  5
6FD
  8
0
 66
     1
 10
0.0
 20
0.0
 30
0.0
 70
    64
 71
    10
 72
     8
  0
VERTEX
  5
6FE
  8
0
 10
-127.25
 20
-25.0
 30
-46.0
 70
   192
  0
VERTEX
  5
6FF
  8
0
 10
-122.75
 20
-25.0
 30
-46.0
 70
   192
  0
VERTEX
  5
700
  8
0
 10
-122.2500000000002
 20
-25.0
 30
-45.5
 70
   192
  0
VERTEX
  5
701
  8
0
 10
-127.75
 20
-25.0
 30
-45.50000000000001
 70
   192
  0
VERTEX
  5
702
  8
0
 10
-125.0
 20
-27.74999999999982
 30
-45.50000000000001
 70
   192
  0
VERTEX
  5
703
  8
0
 10
-125.0
 20
-27.25
 30
-46.0
 70
   192
  0
VERTEX
  5
704
  8
0
 10
-126.9445436482629
 20
-26.94454364826288
 30
-45.50000000000001
 70
   192
  0
VERTEX
  5
705
  8
0
 10
-126.5909902576697
 20
-26.59099025766973
 30
-46.0
 70
   192
  0
VERTEX
  5
706
  8
0
 10
-123.0554563517371
 20
-26.94454364826288
 30
-45.50000000000001
 70
   192
  0
VERTEX
  5
707
  8
0
 10
-123.4090097423303
 20
-26.59099025766973
 30
-46.0
 70
   192
  0
VERTEX
  5
708
  8
0
 10
0.0
 20
0.0
 30
0.0
 70
   128
 71
     8
 72
     1
 73
    -4
  0
VERTEX
  5
709
  8
0
 10
0.0
 20
0.0
 30
0.0
 70
   128
 71
     7
 72
    -8
 73
     4
  0
VERTEX
  5
70A
  8
0
 10
0.0
 20
0.0
 30
0.0
 70
   128
 71
     6
 72
     8
 73
    -7
  0
VERTEX
  5
70B
  8
0
 10
0.0
 20
0.0
 30
0.0
 70
   128
 71
     5
 72
    -6
 73
     7
  0
VERTEX
  5
70C
  8
0
 10
0.0
 20
0.0
 30
0.0
 70
   128
 71
    10
 72
     6
 73
    -5
  0
VERTEX
  5
70D
  8
0
 10
0.0
 20
0.0
 30
0.0
 70
   128
 71
     9
 72
   -10
 73
     5
  0
VERTEX
  5
70E
  8
0
 10
0.0
 20
0.0
 30
0.0
 70
   128
 71
     2
 72
    10
 73
    -9
  0
VERTEX
  5
70F
  8
0
 10
0.0
 20
0.0
 30
0.0
 70
   128
 71
     3
 72
    -2
 73
     9
  0
SEQEND
  5
743
  8
0
  0
ENDBLK
  5
711
  8
0
  0
ENDSEC
  0
SECTION
  2
ENTITIES
  0
INSERT
  5
C0
  8
0
  2
*X1
 10
0.0
 20
0.0
 30
0.0
  0
ENDSEC
  0
EOF
