  0
SECTION
  2
HEADER
  9
$ACADVER
  1
AC1009
  9
$INSBASE
 10
0.0
 20
0.0
 30
0.0
  9
$EXTMIN
 10
-0.0000572204589844
 20
-0.0000152587890625
 30
-0.0000029325724427
  9
$EXTMAX
 10
1200.0
 20
475.0
 30
350.00006103515631
  9
$LIMMIN
 10
0.0
 20
0.0
  9
$LIMMAX
 10
420.0
 20
297.0
  9
$ORTHOMODE
 70
     0
  9
$REGENMODE
 70
     1
  9
$FILLMODE
 70
     1
  9
$QTEXTMODE
 70
     0
  9
$MIRRTEXT
 70
     0
  9
$DRAGMODE
 70
     2
  9
$LTSCALE
 40
1.0
  9
$OSMODE
 70
    35
  9
$ATTMODE
 70
     1
  9
$TEXTSIZE
 40
2.5
  9
$TRACEWID
 40
1.0
  9
$TEXTSTYLE
  7
STANDARD
  9
$CLAYER
  8
ASHADE
  9
$CELTYPE
  6
BYLAYER
  9
$CECOLOR
 62
   256
  9
$DIMSCALE
 40
1.0
  9
$DIMASZ
 40
2.5
  9
$DIMEXO
 40
0.625
  9
$DIMDLI
 40
3.75
  9
$DIMRND
 40
0.0
  9
$DIMDLE
 40
0.0
  9
$DIMEXE
 40
1.25
  9
$DIMTP
 40
0.0
  9
$DIMTM
 40
0.0
  9
$DIMTXT
 40
2.5
  9
$DIMCEN
 40
2.5
  9
$DIMTSZ
 40
0.0
  9
$DIMTOL
 70
     0
  9
$DIMLIM
 70
     0
  9
$DIMTIH
 70
     0
  9
$DIMTOH
 70
     0
  9
$DIMSE1
 70
     0
  9
$DIMSE2
 70
     0
  9
$DIMTAD
 70
     1
  9
$DIMZIN
 70
     8
  9
$DIMBLK
  1

  9
$DIMASO
 70
     1
  9
$DIMSHO
 70
     1
  9
$DIMPOST
  1

  9
$DIMAPOST
  1

  9
$DIMALT
 70
     0
  9
$DIMALTD
 70
     3
  9
$DIMALTF
 40
0.03937007874016
  9
$DIMLFAC
 40
1.0
  9
$DIMTOFL
 70
     1
  9
$DIMTVP
 40
0.0
  9
$DIMTIX
 70
     0
  9
$DIMSOXD
 70
     0
  9
$DIMSAH
 70
     0
  9
$DIMBLK1
  1

  9
$DIMBLK2
  1

  9
$DIMSTYLE
  2
ISO-25
  9
$DIMCLRD
 70
     0
  9
$DIMCLRE
 70
     0
  9
$DIMCLRT
 70
     0
  9
$DIMTFAC
 40
1.0
  9
$DIMGAP
 40
0.625
  9
$LUNITS
 70
     2
  9
$LUPREC
 70
     4
  9
$SKETCHINC
 40
1.0
  9
$FILLETRAD
 40
0.0
  9
$AUNITS
 70
     0
  9
$AUPREC
 70
     0
  9
$MENU
  1
.
  9
$ELEVATION
 40
0.0
  9
$PELEVATION
 40
0.0
  9
$THICKNESS
 40
0.0
  9
$LIMCHECK
 70
     0
  9
$BLIPMODE
 70
     0
  9
$CHAMFERA
 40
0.0
  9
$CHAMFERB
 40
0.0
  9
$SKPOLY
 70
     0
  9
$TDCREATE
 40
2460701.3985241782
  9
$TDUPDATE
 40
2460701.4173848848
  9
$TDINDWG
 40
0.0188641898
  9
$TDUSRTIMER
 40
0.0188640625
  9
$USRTIMER
 70
     1
  9
$ANGBASE
 50
0.0
  9
$ANGDIR
 70
     0
  9
$PDMODE
 70
     0
  9
$PDSIZE
 40
0.0
  9
$PLINEWID
 40
0.0
  9
$COORDS
 70
     1
  9
$SPLFRAME
 70
     0
  9
$SPLINETYPE
 70
     6
  9
$SPLINESEGS
 70
     8
  9
$ATTDIA
 70
     1
  9
$ATTREQ
 70
     1
  9
$HANDLING
 70
     1
  9
$HANDSEED
  5
240B
  9
$SURFTAB1
 70
     6
  9
$SURFTAB2
 70
     6
  9
$SURFTYPE
 70
     6
  9
$SURFU
 70
     6
  9
$SURFV
 70
     6
  9
$UCSNAME
  2

  9
$UCSORG
 10
0.0
 20
0.0
 30
0.0
  9
$UCSXDIR
 10
1.0
 20
0.0
 30
0.0
  9
$UCSYDIR
 10
0.0
 20
1.0
 30
0.0
  9
$PUCSNAME
  2

  9
$PUCSORG
 10
0.0
 20
0.0
 30
0.0
  9
$PUCSXDIR
 10
1.0
 20
0.0
 30
0.0
  9
$PUCSYDIR
 10
0.0
 20
1.0
 30
0.0
  9
$USERI1
 70
     0
  9
$USERI2
 70
     0
  9
$USERI3
 70
     0
  9
$USERI4
 70
     0
  9
$USERI5
 70
     0
  9
$USERR1
 40
0.0
  9
$USERR2
 40
0.0
  9
$USERR3
 40
0.0
  9
$USERR4
 40
0.0
  9
$USERR5
 40
0.0
  9
$WORLDVIEW
 70
     1
  9
$SHADEDGE
 70
     3
  9
$SHADEDIF
 70
    70
  9
$TILEMODE
 70
     1
  9
$MAXACTVP
 70
    64
  9
$PLIMCHECK
 70
     0
  9
$PEXTMIN
 10
0.0
 20
0.0
 30
0.0
  9
$PEXTMAX
 10
0.0
 20
0.0
 30
0.0
  9
$PLIMMIN
 10
0.0
 20
0.0
  9
$PLIMMAX
 10
12.0
 20
9.0
  9
$UNITMODE
 70
     0
  9
$VISRETAIN
 70
     1
  9
$PLINEGEN
 70
     0
  9
$PSLTSCALE
 70
     1
  0
ENDSEC
  0
SECTION
  2
TABLES
  0
TABLE
  2
VPORT
 70
     1
  0
VPORT
  2
*ACTIVE
 70
     0
 10
0.0
 20
0.0
 11
1.0
 21
1.0
 12
-664.57885367210599
 22
-334.99449046436172
 13
0.0
 23
0.0
 14
10.0
 24
10.0
 15
10.0
 25
10.0
 16
11604.206350989591
 26
-5054.219656816641
 36
9163.4962691630317
 17
465.54331256549079
 27
1062.786575061622
 37
327.87427680788909
 40
1341.82716286546
 41
0.8660844250363901
 42
50.0
 43
0.0
 44
0.0
 50
0.0
 51
0.0000000000000016
 71
     0
 72
  1000
 73
     1
 74
     3
 75
     0
 76
     1
 77
     0
 78
     0
  0
ENDTAB
  0
TABLE
  2
LTYPE
 70
     1
  0
LTYPE
  2
CONTINUOUS
 70
     0
  3
Solid line
 72
    65
 73
     0
 40
0.0
  0
ENDTAB
  0
TABLE
  2
LAYER
 70
    39
  0
LAYER
  2
0
 70
     4
 62
     7
  6
CONTINUOUS
  0
LAYER
  2
KORPUS
 70
     0
 62
     7
  6
CONTINUOUS
  0
LAYER
  2
PROFIL
 70
     0
 62
     7
  6
CONTINUOUS
  0
LAYER
  2
SUPLIK
 70
     0
 62
     7
  6
CONTINUOUS
  0
LAYER
  2
CELO
 70
     0
 62
     7
  6
CONTINUOUS
  0
LAYER
  2
ASHADE
 70
     0
 62
     7
  6
CONTINUOUS
  0
ENDTAB
  0
TABLE
  2
STYLE
 70
     3
  0
STYLE
  2
STANDARD
 70
     0
 40
0.0
 41
1.0
 50
0.0
 71
     0
 42
2.5
  3
txt
  4

  0
STYLE
  2
ANNOTATIVE
 70
     0
 40
0.0
 41
1.0
 50
0.0
 71
     0
 42
2.5
  3
txt
  4

  0
STYLE
  2
ASHADE
 70
     0
 40
0.2
 41
1.0
 50
0.0
 71
     0
 42
2.5
  3
simplex
  4

  0
ENDTAB
  0
TABLE
  2
VIEW
 70
     3
  0
ENDTAB
  0
TABLE
  2
UCS
 70
     3
  0
ENDTAB
  0
TABLE
  2
APPID
 70
    13
  0
APPID
  2
ACAD
 70
     0
  0
APPID
  2
ACAD_PSEXT
 70
     0
  0
APPID
  2
ACADANNOPO
 70
     0
  0
APPID
  2
ACADANNOTATIVE
 70
     0
  0
APPID
  2
ACAD_DSTYLE_DIMJAG
 70
     0
  0
APPID
  2
ACAD_DSTYLE_DIMTALN
 70
     0
  0
APPID
  2
ACAD_MLEADERVER
 70
     0
  0
APPID
  2
ACAD_NAV_VCDISPLAY
 70
     0
  0
APPID
  2
AVE_RENDER
 70
     0
  0
APPID
  2
AVE_ENTITY_MATERIAL
 70
     0
  0
APPID
  2
AVE_FINISH
 70
     0
  0
APPID
  2
AVE_MATERIAL
 70
     0
  0
APPID
  2
AVE_GLOBAL
 70
     0
  0
ENDTAB
  0
TABLE
  2
DIMSTYLE
 70
     3
  0
DIMSTYLE
  2
STANDARD
 70
     0
  3

  4

  5

  6

  7

 40
1.0
 41
0.18
 42
0.0625
 43
0.38
 44
0.18
 45
0.0
 46
0.0
 47
0.0
 48
0.0
140
0.18
141
0.09
142
0.0
143
25.399999999999999
144
1.0
145
0.0
146
1.0
147
0.09
 71
     0
 72
     0
 73
     1
 74
     1
 75
     0
 76
     0
 77
     0
 78
     0
170
     0
171
     2
172
     0
173
     0
174
     0
175
     0
176
     0
177
     0
178
     0
  0
DIMSTYLE
  2
ANNOTATIVE
 70
     0
  3

  4

  5

  6

  7

 40
0.0
 41
2.5
 42
0.625
 43
3.75
 44
1.25
 45
0.0
 46
0.0
 47
0.0
 48
0.0
140
2.5
141
2.5
142
0.0
143
0.03937007874016
144
1.0
145
0.0
146
1.0
147
0.625
 71
     0
 72
     0
 73
     0
 74
     0
 75
     0
 76
     0
 77
     1
 78
     8
170
     0
171
     3
172
     1
173
     0
174
     0
175
     0
176
     0
177
     0
178
     0
  0
DIMSTYLE
  2
ISO-25
 70
     0
  3

  4

  5

  6

  7

 40
1.0
 41
2.5
 42
0.625
 43
3.75
 44
1.25
 45
0.0
 46
0.0
 47
0.0
 48
0.0
140
2.5
141
2.5
142
0.0
143
0.03937007874016
144
1.0
145
0.0
146
1.0
147
0.625
 71
     0
 72
     0
 73
     0
 74
     0
 75
     0
 76
     0
 77
     1
 78
     8
170
     0
171
     3
172
     1
173
     0
174
     0
175
     0
176
     0
177
     0
178
     0
  0
ENDTAB
  0
ENDSEC
  0
SECTION
  2
BLOCKS
  0
BLOCK
  8
0
  2
$MODEL_SPACE
 70
     0
 10
0.0
 20
0.0
 30
0.0
  3
$MODEL_SPACE
  1

  0
ENDBLK
  5
21
  8
0
  0
BLOCK
 67
     1
  8
0
  2
$PAPER_SPACE
 70
     0
 10
0.0
 20
0.0
 30
0.0
  3
$PAPER_SPACE
  1

  0
ENDBLK
  5
D5
 67
     1
  8
0
  0
BLOCK
  8
KORPUS
  2
AVE_RENDER
 70
     0
 10
0.0
 20
0.0
 30
0.0
  3
AVE_RENDER
  1
AVE_RENDER
  0
ENDBLK
  5
233
  8
0
  0
BLOCK
  8
KORPUS
  2
AVE_GLOBAL
 70
     0
 10
0.0
 20
0.0
 30
0.0
  3
AVE_GLOBAL
  1
AVE_GLOBAL
  0
ENDBLK
  5
241
  8
0
  0
ENDSEC
  0
SECTION
  2
ENTITIES
  0
INSERT
  5
18DF
  8
ASHADE
 62
     1
  2
AVE_RENDER
 10
0.0
 20
0.0
 30
0.0
1001
AVE_RENDER
1002
{
1070
     7
1000
Pref
1070
    50
1070
    20
1070
     1
1070
     0
1000

1070
    10
1070
     1
1070
    10
1040
1.0
1070
     1
1040
0.699999988079071
1040
1.0
1040
0.2000000029802322
1040
2.0
1010
-1.0
1020
-1.0
1030
-1.0
1040
0.3000000119209289
1070
    49
1070
     0
1070
     0
1010
1.0
1020
1.0
1030
1.0
1040
45.0
1070
     1
1070
     0
1000
WCS
1040
0.0
1070
     0
1040
10.0
1002
}
  0
INSERT
  5
18E0
  8
ASHADE
 62
     3
  2
AVE_RENDER
 10
0.0
 20
0.0
 30
0.0
1001
AVE_RENDER
1002
{
1070
     0
1000
Full Opt
1070
     0
1070
     1
1070
     1
1070
     1
1070
     0
1070
     0
1070
     0
1070
     1
1070
     1
1040
0.0001
1040
0.0001
1002
}
  0
INSERT
  5
18E1
  8
ASHADE
 62
     4
  2
AVE_RENDER
 10
0.0
 20
0.0
 30
0.0
1001
AVE_RENDER
1002
{
1070
     0
1000
Quick Opt
1070
     0
1070
     1
1070
     1
1070
     1
1070
     0
1070
     0
1070
     1
1002
}
  0
INSERT
  5
18E2
  8
ASHADE
 62
     5
  2
AVE_RENDER
 10
0.0
 20
0.0
 30
0.0
1001
AVE_RENDER
1002
{
1070
     1
1000
Scanl Opt
1070
     2
1070
     0
1070
     2
1040
2.0
1040
4.0
1070
     0
1070
     1
1070
     0
1040
0.03
1002
}
  0
INSERT
  5
18E3
  8
ASHADE
 62
     6
  2
AVE_RENDER
 10
0.0
 20
0.0
 30
0.0
1001
AVE_RENDER
1002
{
1070
     2
1000
Raytr Opt
1070
     2
1070
     0
1070
     2
1040
2.0
1040
4.0
1070
     0
1070
     1
1070
     1
1040
0.03
1070
     3
1040
0.03
1002
}
  0
INSERT
  5
18E4
  8
ASHADE
 62
     7
  2
AVE_RENDER
 10
0.0
 20
0.0
 30
0.0
1001
AVE_RENDER
1002
{
1070
     0
1000
RFile Opt
1070
     1
1070
   640
1070
   480
1070
 10000
1070
     1
1070
     8
1070
     8
1070
     0
1070
     0
1070
     0
1070
     0
1070
     0
1070
     0
1070
     0
1002
}
  0
INSERT
  5
18E5
  8
ASHADE
 62
     8
  2
AVE_RENDER
 10
0.0
 20
0.0
 30
0.0
1001
AVE_RENDER
1002
{
1070
     0
1000
Fog Opt
1070
     0
1070
     0
1040
0.0
1040
1.0
1040
0.0
1040
1.0
1010
0.5
1020
0.5
1030
0.5
1002
}
  0
INSERT
  5
18E6
  8
ASHADE
 62
     9
  2
AVE_RENDER
 10
0.0
 20
0.0
 30
0.0
1001
AVE_RENDER
1002
{
1070
     0
1000
BG Opt
1070
     0
1070
     1
1010
0.0
1020
0.0
1030
0.0
1010
0.0
1020
0.0
1030
1.0
1010
0.0
1020
1.0
1030
0.0
1010
1.0
1020
0.0
1030
0.0
1040
0.5
1040
0.5
1040
0.0
1000

1070
     1
1000

1070
     1
1070
     1
1040
1.0
1040
1.0
1040
0.0
1040
0.0
1070
     0
1002
}
  0
INSERT
  5
18E7
  8
ASHADE
 62
     1
  2
AVE_GLOBAL
 10
0.0
 20
0.0
 30
0.0
1001
AVE_MATERIAL
1002
{
1000
*GLOBAL*
1000
2
1000
Global finish.
1002
{
1002
}
1002
{
1070
    63
1002
{
1002
{
1010
-1.0
1020
-1.0
1030
-1.0
1002
}
1040
0.699999988079071
1000

1040
0.0
1002
{
1002
}
1040
0.0
1002
{
1002
}
1040
0.0
1002
}
1002
{
1002
{
1010
-1.0
1020
-1.0
1030
-1.0
1002
}
1040
1.0
1000

1040
0.0
1002
{
1002
}
1040
0.0
1002
{
1002
}
1040
0.0
1002
}
1002
{
1002
{
1010
-1.0
1020
-1.0
1030
-1.0
1002
}
1040
0.2000000029802322
1000

1040
0.0
1002
{
1002
}
1040
0.0
1002
{
1002
}
1040
0.0
1002
}
1002
{
1070
     0
1002
{
1070
     1
1002
{
1040
1.0
1040
1.0
1000

1040
0.0
1002
{
1002
}
1040
0.0
1002
{
1002
}
1040
0.0
1002
}
1002
}
1040
1.0
1040
0.0
1040
0.0
1002
}
1002
{
1040
1.0
1040
1.0
1000

1040
0.0
1002
{
1002
}
1040
0.0
1002
{
1002
}
1040
0.0
1002
}
1002
{
1040
0.5
1040
1.0
1000

1040
0.0
1002
{
1002
}
1040
0.0
1002
{
1002
}
1040
0.0
1002
}
1002
{
1070
     0
1040
0.0
1002
{
1002
}
1040
1.0
1002
{
1002
}
1040
0.0
1002
}
1002
{
1040
0.0
1002
{
1002
{
1010
0.0
1020
0.0
1030
0.0
1002
}
1040
1.0
1000

1040
0.0
1002
{
1002
}
1040
0.0
1002
{
1002
}
1040
0.0
1002
}
1002
}
1002
{
1002
{
1070
     1
1002
{
1040
0.0
1040
1.0
1000

1040
0.0
1002
{
1002
}
1040
0.0
1002
{
1002
}
1040
0.0
1002
}
1002
}
1040
0.0
1002
{
1002
}
1010
1.0
1020
0.0
1030
0.0
1010
0.0
1020
1.0
1030
0.0
1010
0.0
1020
0.0
1030
1.0
1070
     0
1002
}
1002
{
1002
{
1040
1.0
1040
1.0
1002
{
1070
     1
1002
{
1040
1.0
1040
1.0
1000

1040
0.0
1002
{
1002
}
1040
0.0
1002
{
1002
}
1040
0.0
1002
}
1002
}
1002
}
1070
     0
1040
0.0
1002
{
1002
}
1002
}
1002
{
1002
}
1002
}
1002
{
1071
        3
1070
     3
1070
     0
1002
{
1070
     2
1070
     0
1070
     0
1040
0.0
1002
}
1070
     0
1070
     2
1002
{
1002
}
1002
}
1002
{
1040
8030.0
1040
190.30000305175781
1040
0.3050000071525574
1040
228.0
1040
545.0
1040
14.0
1040
17.39999961853027
1040
0.4560000002384186
1002
}
1000

1002
}
  0
POLYLINE
  5
18ED
  8
KORPUS
 66
     1
 10
0.0
 20
0.0
 30
0.0
 70
    64
 71
    46
 72
    32
1001
AVE_ENTITY_MATERIAL
1002
{
1000

1002
{
1071
        0
1070
     0
1070
     0
1002
{
1070
     0
1070
     0
1070
     0
1040
0.0
1002
}
1070
     0
1070
     0
1002
{
1002
}
1002
}
1002
{
1002
}
1002
{
1002
}
1011
0.0
1021
0.0
1031
0.0
1021
0.0
1031
0.0
1011
1.0
1021
0.0
1031
0.0
1021
0.0
1031
0.0
1011
0.0
1021
0.0
1031
0.0
1021
1.0
1031
0.0
1011
0.0
1021
0.0
1031
0.0
1021
0.0
1031
1.0
1002
}
  0
VERTEX
  5
18EE
  8
KORPUS
 10
3.057470321655273
 20
24.662155151367191
 30
-0.0000024344471967
 70
   192
  0
VERTEX
  5
18EF
  8
KORPUS
 10
18.0
 20
17.906585693359371
 30
0.0
 70
   192
  0
VERTEX
  5
18F0
  8
KORPUS
 10
6.8116388320922852
 20
17.672153472900391
 30
-0.0000018228154204
 70
   192
  0
VERTEX
  5
18F1
  8
KORPUS
 10
11.76247406005859
 20
11.66906070709228
 30
-0.0000010162219723
 70
   192
  0
VERTEX
  5
18F2
  8
KORPUS
 10
0.0
 20
475.0
 30
-0.0000029325724427
 70
   192
  0
VERTEX
  5
18F3
  8
KORPUS
 10
18.0
 20
475.0
 30
0.0
 70
   192
  0
VERTEX
  5
18F4
  8
KORPUS
 10
0.0
 20
40.0
 30
-0.0000029325724427
 70
   192
  0
VERTEX
  5
18F5
  8
KORPUS
 10
0.7568492889404297
 20
32.255641937255859
 30
-0.0000028092658795
 70
   192
  0
VERTEX
  5
18F6
  8
KORPUS
 10
17.999942779541009
 20
17.906585693359371
 30
350.0
 70
   192
  0
VERTEX
  5
18F7
  8
KORPUS
 10
3.0574131011962891
 20
24.662155151367191
 30
350.0
 70
   192
  0
VERTEX
  5
18F8
  8
KORPUS
 10
6.8115816116332999
 20
17.672153472900391
 30
350.0
 70
   192
  0
VERTEX
  5
18F9
  8
KORPUS
 10
11.762416839599609
 20
11.66906070709228
 30
350.0
 70
   192
  0
VERTEX
  5
18FA
  8
KORPUS
 10
-0.0000572204589844
 20
475.0
 30
350.0
 70
   192
  0
VERTEX
  5
18FB
  8
KORPUS
 10
17.999942779541009
 20
475.0
 30
350.0
 70
   192
  0
VERTEX
  5
18FC
  8
KORPUS
 10
-0.0000572204589844
 20
40.0
 30
350.0
 70
   192
  0
VERTEX
  5
18FD
  8
KORPUS
 10
0.7567920684814454
 20
32.255641937255859
 30
350.0
 70
   192
  0
VERTEX
  5
18FE
  8
KORPUS
 10
0.0
 20
475.0
 30
-0.0000029325724427
 70
   192
  0
VERTEX
  5
18FF
  8
KORPUS
 10
17.999942779541009
 20
475.0
 30
350.0
 70
   192
  0
VERTEX
  5
1900
  8
KORPUS
 10
18.0
 20
475.0
 30
0.0
 70
   192
  0
VERTEX
  5
1901
  8
KORPUS
 10
-0.0000572204589844
 20
475.0
 30
350.0
 70
   192
  0
VERTEX
  5
1902
  8
KORPUS
 10
18.0
 20
17.906585693359371
 30
0.0
 70
   192
  0
VERTEX
  5
1903
  8
KORPUS
 10
17.999942779541009
 20
475.0
 30
350.0
 70
   192
  0
VERTEX
  5
1904
  8
KORPUS
 10
17.999942779541009
 20
17.906585693359371
 30
350.0
 70
   192
  0
VERTEX
  5
1905
  8
KORPUS
 10
18.0
 20
475.0
 30
0.0
 70
   192
  0
VERTEX
  5
1906
  8
KORPUS
 10
0.0
 20
40.0
 30
-0.0000029325724427
 70
   192
  0
VERTEX
  5
1907
  8
KORPUS
 10
-0.0000572204589844
 20
475.0
 30
350.0
 70
   192
  0
VERTEX
  5
1908
  8
KORPUS
 10
0.0
 20
475.0
 30
-0.0000029325724427
 70
   192
  0
VERTEX
  5
1909
  8
KORPUS
 10
-0.0000572204589844
 20
40.0
 30
350.0
 70
   192
  0
VERTEX
  5
190A
  8
KORPUS
 10
18.0
 20
17.906585693359371
 30
0.0
 70
   192
  0
VERTEX
  5
190B
  8
KORPUS
 10
11.762416839599609
 20
11.66906070709228
 30
350.0
 70
   192
  0
VERTEX
  5
190C
  8
KORPUS
 10
11.76247406005859
 20
11.66906070709228
 30
-0.0000010162219723
 70
   192
  0
VERTEX
  5
190D
  8
KORPUS
 10
17.999942779541009
 20
17.906585693359371
 30
350.0
 70
   192
  0
VERTEX
  5
190E
  8
KORPUS
 10
6.4650754928588858
 20
18.196039199829102
 30
350.0
 70
   192
  0
VERTEX
  5
190F
  8
KORPUS
 10
3.057470321655273
 20
24.662155151367191
 30
-0.0000024344471967
 70
   192
  0
VERTEX
  5
1910
  8
KORPUS
 10
6.4651327133178711
 20
18.196039199829102
 30
-0.0000018792684386
 70
   192
  0
VERTEX
  5
1911
  8
KORPUS
 10
11.296989440917971
 20
12.140702247619631
 30
350.0
 70
   192
  0
VERTEX
  5
1912
  8
KORPUS
 10
11.76247406005859
 20
11.66906070709228
 30
-0.0000010162219723
 70
   192
  0
VERTEX
  5
1913
  8
KORPUS
 10
11.762416839599609
 20
11.66906070709228
 30
350.0
 70
   192
  0
VERTEX
  5
1914
  8
KORPUS
 10
11.29704666137695
 20
12.140702247619631
 30
-0.0000010920496152
 70
   192
  0
VERTEX
  5
1915
  8
KORPUS
 10
0.0054874420166016
 20
39.33740234375
 30
-0.0000029316784094
 70
   192
  0
VERTEX
  5
1916
  8
KORPUS
 10
-0.0000572204589844
 20
40.0
 30
350.0
 70
   192
  0
VERTEX
  5
1917
  8
KORPUS
 10
0.0
 20
40.0
 30
-0.0000029325724427
 70
   192
  0
VERTEX
  5
1918
  8
KORPUS
 10
0.0054302215576172
 20
39.33740234375
 30
350.0
 70
   192
  0
VERTEX
  5
1919
  8
KORPUS
 10
0.8832340240478515
 20
31.640390396118171
 30
350.0
 70
   192
  0
VERTEX
  5
191A
  8
KORPUS
 10
0.8832912445068359
 20
31.640390396118171
 30
-0.0000027886658245
 70
   192
  0
VERTEX
  5
191B
  8
KORPUS
 10
3.0574131011962891
 20
24.662155151367191
 30
350.0
 70
   192
  0
VERTEX
  5
191C
  8
KORPUS
 10
0.0
 20
0.0
 30
0.0
 70
   128
 71
     1
 72
     2
 73
     3
  0
VERTEX
  5
191D
  8
KORPUS
 10
0.0
 20
0.0
 30
0.0
 70
   128
 71
     3
 72
     2
 73
     4
  0
VERTEX
  5
191E
  8
KORPUS
 10
0.0
 20
0.0
 30
0.0
 70
   128
 71
     2
 72
     5
 73
     6
  0
VERTEX
  5
191F
  8
KORPUS
 10
0.0
 20
0.0
 30
0.0
 70
   128
 71
     2
 72
     7
 73
     5
  0
VERTEX
  5
1920
  8
KORPUS
 10
0.0
 20
0.0
 30
0.0
 70
   128
 71
     2
 72
     8
 73
     7
  0
VERTEX
  5
1921
  8
KORPUS
 10
0.0
 20
0.0
 30
0.0
 70
   128
 71
     2
 72
     1
 73
     8
  0
VERTEX
  5
1922
  8
KORPUS
 10
0.0
 20
0.0
 30
0.0
 70
   128
 71
     9
 72
    10
 73
    11
  0
VERTEX
  5
1923
  8
KORPUS
 10
0.0
 20
0.0
 30
0.0
 70
   128
 71
     9
 72
    11
 73
    12
  0
VERTEX
  5
1924
  8
KORPUS
 10
0.0
 20
0.0
 30
0.0
 70
   128
 71
    13
 72
     9
 73
    14
  0
VERTEX
  5
1925
  8
KORPUS
 10
0.0
 20
0.0
 30
0.0
 70
   128
 71
    15
 72
     9
 73
    13
  0
VERTEX
  5
1926
  8
KORPUS
 10
0.0
 20
0.0
 30
0.0
 70
   128
 71
    16
 72
     9
 73
    15
  0
VERTEX
  5
1927
  8
KORPUS
 10
0.0
 20
0.0
 30
0.0
 70
   128
 71
    10
 72
     9
 73
    16
  0
VERTEX
  5
1928
  8
KORPUS
 10
0.0
 20
0.0
 30
0.0
 70
   128
 71
    17
 72
    18
 73
    19
  0
VERTEX
  5
1929
  8
KORPUS
 10
0.0
 20
0.0
 30
0.0
 70
   128
 71
    18
 72
    17
 73
    20
  0
VERTEX
  5
192A
  8
KORPUS
 10
0.0
 20
0.0
 30
0.0
 70
   128
 71
    21
 72
    22
 73
    23
  0
VERTEX
  5
192B
  8
KORPUS
 10
0.0
 20
0.0
 30
0.0
 70
   128
 71
    22
 72
    21
 73
    24
  0
VERTEX
  5
192C
  8
KORPUS
 10
0.0
 20
0.0
 30
0.0
 70
   128
 71
    25
 72
    26
 73
    27
  0
VERTEX
  5
192D
  8
KORPUS
 10
0.0
 20
0.0
 30
0.0
 70
   128
 71
    26
 72
    25
 73
    28
  0
VERTEX
  5
192E
  8
KORPUS
 10
0.0
 20
0.0
 30
0.0
 70
   128
 71
    29
 72
    30
 73
    31
  0
VERTEX
  5
192F
  8
KORPUS
 10
0.0
 20
0.0
 30
0.0
 70
   128
 71
    30
 72
    29
 73
    32
  0
VERTEX
  5
1930
  8
KORPUS
 10
0.0
 20
0.0
 30
0.0
 70
   128
 71
    33
 72
    34
 73
    35
  0
VERTEX
  5
1931
  8
KORPUS
 10
0.0
 20
0.0
 30
0.0
 70
   128
 71
    36
 72
    37
 73
    38
  0
VERTEX
  5
1932
  8
KORPUS
 10
0.0
 20
0.0
 30
0.0
 70
   128
 71
    36
 72
    39
 73
    37
  0
VERTEX
  5
1933
  8
KORPUS
 10
0.0
 20
0.0
 30
0.0
 70
   128
 71
    33
 72
    39
 73
    36
  0
VERTEX
  5
1934
  8
KORPUS
 10
0.0
 20
0.0
 30
0.0
 70
   128
 71
    33
 72
    35
 73
    39
  0
VERTEX
  5
1935
  8
KORPUS
 10
0.0
 20
0.0
 30
0.0
 70
   128
 71
    40
 72
    41
 73
    42
  0
VERTEX
  5
1936
  8
KORPUS
 10
0.0
 20
0.0
 30
0.0
 70
   128
 71
    40
 72
    43
 73
    41
  0
VERTEX
  5
1937
  8
KORPUS
 10
0.0
 20
0.0
 30
0.0
 70
   128
 71
    40
 72
    44
 73
    43
  0
VERTEX
  5
1938
  8
KORPUS
 10
0.0
 20
0.0
 30
0.0
 70
   128
 71
    45
 72
    44
 73
    40
  0
VERTEX
  5
1939
  8
KORPUS
 10
0.0
 20
0.0
 30
0.0
 70
   128
 71
    34
 72
    44
 73
    45
  0
VERTEX
  5
193A
  8
KORPUS
 10
0.0
 20
0.0
 30
0.0
 70
   128
 71
    34
 72
    46
 73
    44
  0
VERTEX
  5
193B
  8
KORPUS
 10
0.0
 20
0.0
 30
0.0
 70
   128
 71
    34
 72
    33
 73
    46
  0
SEQEND
  5
193C
  8
KORPUS
  0
POLYLINE
  5
193E
  8
KORPUS
 66
     1
 10
0.0
 20
0.0
 30
0.0
 70
    64
 71
    46
 72
    32
1001
AVE_ENTITY_MATERIAL
1002
{
1000

1002
{
1071
        0
1070
     0
1070
     0
1002
{
1070
     0
1070
     0
1070
     0
1040
0.0
1002
}
1070
     0
1070
     0
1002
{
1002
}
1002
}
1002
{
1002
}
1002
{
1002
}
1011
0.0
1021
0.0
1031
0.0
1021
0.0
1031
0.0
1011
1.0
1021
0.0
1031
0.0
1021
0.0
1031
0.0
1011
0.0
1021
0.0
1031
0.0
1021
1.0
1031
0.0
1011
0.0
1021
0.0
1031
0.0
1021
0.0
1031
1.0
1002
}
  0
VERTEX
  5
193F
  8
KORPUS
 10
1196.942504882812
 20
24.662155151367191
 30
350.0
 70
   192
  0
VERTEX
  5
1940
  8
KORPUS
 10
1182.0
 20
17.906585693359371
 30
350.0
 70
   192
  0
VERTEX
  5
1941
  8
KORPUS
 10
1193.188354492187
 20
17.672153472900391
 30
350.0
 70
   192
  0
VERTEX
  5
1942
  8
KORPUS
 10
1188.237548828125
 20
11.66906070709228
 30
350.0
 70
   192
  0
VERTEX
  5
1943
  8
KORPUS
 10
1200.0
 20
475.0
 30
350.0
 70
   192
  0
VERTEX
  5
1944
  8
KORPUS
 10
1182.0
 20
475.0
 30
350.0
 70
   192
  0
VERTEX
  5
1945
  8
KORPUS
 10
1200.0
 20
40.0
 30
350.0
 70
   192
  0
VERTEX
  5
1946
  8
KORPUS
 10
1199.2431640625
 20
32.255641937255859
 30
350.0
 70
   192
  0
VERTEX
  5
1947
  8
KORPUS
 10
1182.0
 20
17.906585693359371
 30
0.0
 70
   192
  0
VERTEX
  5
1948
  8
KORPUS
 10
1196.942504882812
 20
24.662155151367191
 30
0.0
 70
   192
  0
VERTEX
  5
1949
  8
KORPUS
 10
1193.188354492187
 20
17.672153472900391
 30
0.0
 70
   192
  0
VERTEX
  5
194A
  8
KORPUS
 10
1188.237548828125
 20
11.66906070709228
 30
0.0
 70
   192
  0
VERTEX
  5
194B
  8
KORPUS
 10
1200.0
 20
475.0
 30
0.0
 70
   192
  0
VERTEX
  5
194C
  8
KORPUS
 10
1182.0
 20
475.0
 30
0.0
 70
   192
  0
VERTEX
  5
194D
  8
KORPUS
 10
1200.0
 20
40.0
 30
0.0
 70
   192
  0
VERTEX
  5
194E
  8
KORPUS
 10
1199.2431640625
 20
32.255641937255859
 30
0.0
 70
   192
  0
VERTEX
  5
194F
  8
KORPUS
 10
1200.0
 20
475.0
 30
350.0
 70
   192
  0
VERTEX
  5
1950
  8
KORPUS
 10
1182.0
 20
475.0
 30
0.0
 70
   192
  0
VERTEX
  5
1951
  8
KORPUS
 10
1182.0
 20
475.0
 30
350.0
 70
   192
  0
VERTEX
  5
1952
  8
KORPUS
 10
1200.0
 20
475.0
 30
0.0
 70
   192
  0
VERTEX
  5
1953
  8
KORPUS
 10
1182.0
 20
17.906585693359371
 30
350.0
 70
   192
  0
VERTEX
  5
1954
  8
KORPUS
 10
1182.0
 20
475.0
 30
0.0
 70
   192
  0
VERTEX
  5
1955
  8
KORPUS
 10
1182.0
 20
17.906585693359371
 30
0.0
 70
   192
  0
VERTEX
  5
1956
  8
KORPUS
 10
1182.0
 20
475.0
 30
350.0
 70
   192
  0
VERTEX
  5
1957
  8
KORPUS
 10
1200.0
 20
40.0
 30
350.0
 70
   192
  0
VERTEX
  5
1958
  8
KORPUS
 10
1200.0
 20
475.0
 30
0.0
 70
   192
  0
VERTEX
  5
1959
  8
KORPUS
 10
1200.0
 20
475.0
 30
350.0
 70
   192
  0
VERTEX
  5
195A
  8
KORPUS
 10
1200.0
 20
40.0
 30
0.0
 70
   192
  0
VERTEX
  5
195B
  8
KORPUS
 10
1182.0
 20
17.906585693359371
 30
350.0
 70
   192
  0
VERTEX
  5
195C
  8
KORPUS
 10
1188.237548828125
 20
11.66906070709228
 30
0.0
 70
   192
  0
VERTEX
  5
195D
  8
KORPUS
 10
1188.237548828125
 20
11.66906070709228
 30
350.0
 70
   192
  0
VERTEX
  5
195E
  8
KORPUS
 10
1182.0
 20
17.906585693359371
 30
0.0
 70
   192
  0
VERTEX
  5
195F
  8
KORPUS
 10
1193.534912109375
 20
18.196039199829102
 30
0.0
 70
   192
  0
VERTEX
  5
1960
  8
KORPUS
 10
1196.942504882812
 20
24.662155151367191
 30
350.0
 70
   192
  0
VERTEX
  5
1961
  8
KORPUS
 10
1193.534912109375
 20
18.196039199829102
 30
350.0
 70
   192
  0
VERTEX
  5
1962
  8
KORPUS
 10
1188.702880859375
 20
12.140702247619631
 30
0.0
 70
   192
  0
VERTEX
  5
1963
  8
KORPUS
 10
1188.237548828125
 20
11.66906070709228
 30
350.0
 70
   192
  0
VERTEX
  5
1964
  8
KORPUS
 10
1188.237548828125
 20
11.66906070709228
 30
0.0
 70
   192
  0
VERTEX
  5
1965
  8
KORPUS
 10
1188.703002929687
 20
12.140702247619631
 30
350.0
 70
   192
  0
VERTEX
  5
1966
  8
KORPUS
 10
1199.994506835937
 20
39.33740234375
 30
350.0
 70
   192
  0
VERTEX
  5
1967
  8
KORPUS
 10
1200.0
 20
40.0
 30
0.0
 70
   192
  0
VERTEX
  5
1968
  8
KORPUS
 10
1200.0
 20
40.0
 30
350.0
 70
   192
  0
VERTEX
  5
1969
  8
KORPUS
 10
1199.994506835937
 20
39.33740234375
 30
0.0
 70
   192
  0
VERTEX
  5
196A
  8
KORPUS
 10
1199.11669921875
 20
31.640390396118171
 30
0.0
 70
   192
  0
VERTEX
  5
196B
  8
KORPUS
 10
1199.11669921875
 20
31.640390396118171
 30
350.0
 70
   192
  0
VERTEX
  5
196C
  8
KORPUS
 10
1196.942504882812
 20
24.662155151367191
 30
0.0
 70
   192
  0
VERTEX
  5
196D
  8
KORPUS
 10
0.0
 20
0.0
 30
0.0
 70
   128
 71
     1
 72
     2
 73
     3
  0
VERTEX
  5
196E
  8
KORPUS
 10
0.0
 20
0.0
 30
0.0
 70
   128
 71
     3
 72
     2
 73
     4
  0
VERTEX
  5
196F
  8
KORPUS
 10
0.0
 20
0.0
 30
0.0
 70
   128
 71
     2
 72
     5
 73
     6
  0
VERTEX
  5
1970
  8
KORPUS
 10
0.0
 20
0.0
 30
0.0
 70
   128
 71
     2
 72
     7
 73
     5
  0
VERTEX
  5
1971
  8
KORPUS
 10
0.0
 20
0.0
 30
0.0
 70
   128
 71
     2
 72
     8
 73
     7
  0
VERTEX
  5
1972
  8
KORPUS
 10
0.0
 20
0.0
 30
0.0
 70
   128
 71
     2
 72
     1
 73
     8
  0
VERTEX
  5
1973
  8
KORPUS
 10
0.0
 20
0.0
 30
0.0
 70
   128
 71
     9
 72
    10
 73
    11
  0
VERTEX
  5
1974
  8
KORPUS
 10
0.0
 20
0.0
 30
0.0
 70
   128
 71
     9
 72
    11
 73
    12
  0
VERTEX
  5
1975
  8
KORPUS
 10
0.0
 20
0.0
 30
0.0
 70
   128
 71
    13
 72
     9
 73
    14
  0
VERTEX
  5
1976
  8
KORPUS
 10
0.0
 20
0.0
 30
0.0
 70
   128
 71
    15
 72
     9
 73
    13
  0
VERTEX
  5
1977
  8
KORPUS
 10
0.0
 20
0.0
 30
0.0
 70
   128
 71
    16
 72
     9
 73
    15
  0
VERTEX
  5
1978
  8
KORPUS
 10
0.0
 20
0.0
 30
0.0
 70
   128
 71
    10
 72
     9
 73
    16
  0
VERTEX
  5
1979
  8
KORPUS
 10
0.0
 20
0.0
 30
0.0
 70
   128
 71
    17
 72
    18
 73
    19
  0
VERTEX
  5
197A
  8
KORPUS
 10
0.0
 20
0.0
 30
0.0
 70
   128
 71
    18
 72
    17
 73
    20
  0
VERTEX
  5
197B
  8
KORPUS
 10
0.0
 20
0.0
 30
0.0
 70
   128
 71
    21
 72
    22
 73
    23
  0
VERTEX
  5
197C
  8
KORPUS
 10
0.0
 20
0.0
 30
0.0
 70
   128
 71
    22
 72
    21
 73
    24
  0
VERTEX
  5
197D
  8
KORPUS
 10
0.0
 20
0.0
 30
0.0
 70
   128
 71
    25
 72
    26
 73
    27
  0
VERTEX
  5
197E
  8
KORPUS
 10
0.0
 20
0.0
 30
0.0
 70
   128
 71
    26
 72
    25
 73
    28
  0
VERTEX
  5
197F
  8
KORPUS
 10
0.0
 20
0.0
 30
0.0
 70
   128
 71
    29
 72
    30
 73
    31
  0
VERTEX
  5
1980
  8
KORPUS
 10
0.0
 20
0.0
 30
0.0
 70
   128
 71
    30
 72
    29
 73
    32
  0
VERTEX
  5
1981
  8
KORPUS
 10
0.0
 20
0.0
 30
0.0
 70
   128
 71
    33
 72
    34
 73
    35
  0
VERTEX
  5
1982
  8
KORPUS
 10
0.0
 20
0.0
 30
0.0
 70
   128
 71
    36
 72
    37
 73
    38
  0
VERTEX
  5
1983
  8
KORPUS
 10
0.0
 20
0.0
 30
0.0
 70
   128
 71
    36
 72
    39
 73
    37
  0
VERTEX
  5
1984
  8
KORPUS
 10
0.0
 20
0.0
 30
0.0
 70
   128
 71
    33
 72
    39
 73
    36
  0
VERTEX
  5
1985
  8
KORPUS
 10
0.0
 20
0.0
 30
0.0
 70
   128
 71
    33
 72
    35
 73
    39
  0
VERTEX
  5
1986
  8
KORPUS
 10
0.0
 20
0.0
 30
0.0
 70
   128
 71
    40
 72
    41
 73
    42
  0
VERTEX
  5
1987
  8
KORPUS
 10
0.0
 20
0.0
 30
0.0
 70
   128
 71
    40
 72
    43
 73
    41
  0
VERTEX
  5
1988
  8
KORPUS
 10
0.0
 20
0.0
 30
0.0
 70
   128
 71
    40
 72
    44
 73
    43
  0
VERTEX
  5
1989
  8
KORPUS
 10
0.0
 20
0.0
 30
0.0
 70
   128
 71
    45
 72
    44
 73
    40
  0
VERTEX
  5
198A
  8
KORPUS
 10
0.0
 20
0.0
 30
0.0
 70
   128
 71
    34
 72
    44
 73
    45
  0
VERTEX
  5
198B
  8
KORPUS
 10
0.0
 20
0.0
 30
0.0
 70
   128
 71
    34
 72
    46
 73
    44
  0
VERTEX
  5
198C
  8
KORPUS
 10
0.0
 20
0.0
 30
0.0
 70
   128
 71
    34
 72
    33
 73
    46
  0
SEQEND
  5
198D
  8
KORPUS
  0
POLYLINE
  5
198F
  8
KORPUS
 66
     1
 10
0.0
 20
0.0
 30
0.0
 70
    64
 71
    24
 72
    12
1001
AVE_ENTITY_MATERIAL
1002
{
1000

1002
{
1071
        0
1070
     0
1070
     0
1002
{
1070
     0
1070
     0
1070
     0
1040
0.0
1002
}
1070
     0
1070
     0
1002
{
1002
}
1002
}
1002
{
1002
}
1002
{
1002
}
1011
0.0
1021
0.0
1031
0.0
1021
0.0
1031
0.0
1011
1.0
1021
0.0
1031
0.0
1021
0.0
1031
0.0
1011
0.0
1021
0.0
1031
0.0
1021
1.0
1031
0.0
1011
0.0
1021
0.0
1031
0.0
1021
0.0
1031
1.0
1002
}
  0
VERTEX
  5
1990
  8
KORPUS
 10
18.0
 20
20.0
 30
18.0
 70
   192
  0
VERTEX
  5
1991
  8
KORPUS
 10
18.0
 20
474.0
 30
0.0
 70
   192
  0
VERTEX
  5
1992
  8
KORPUS
 10
18.0
 20
20.0
 30
0.0
 70
   192
  0
VERTEX
  5
1993
  8
KORPUS
 10
18.0
 20
474.0
 30
18.0
 70
   192
  0
VERTEX
  5
1994
  8
KORPUS
 10
1182.0
 20
20.0
 30
18.0
 70
   192
  0
VERTEX
  5
1995
  8
KORPUS
 10
18.0
 20
20.0
 30
0.0
 70
   192
  0
VERTEX
  5
1996
  8
KORPUS
 10
1182.0
 20
20.0
 30
0.0
 70
   192
  0
VERTEX
  5
1997
  8
KORPUS
 10
18.0
 20
20.0
 30
18.0
 70
   192
  0
VERTEX
  5
1998
  8
KORPUS
 10
1182.0
 20
474.0
 30
18.0
 70
   192
  0
VERTEX
  5
1999
  8
KORPUS
 10
1182.0
 20
20.0
 30
0.0
 70
   192
  0
VERTEX
  5
199A
  8
KORPUS
 10
1182.0
 20
474.0
 30
0.0
 70
   192
  0
VERTEX
  5
199B
  8
KORPUS
 10
1182.0
 20
20.0
 30
18.0
 70
   192
  0
VERTEX
  5
199C
  8
KORPUS
 10
18.0
 20
474.0
 30
18.0
 70
   192
  0
VERTEX
  5
199D
  8
KORPUS
 10
1182.0
 20
474.0
 30
0.0
 70
   192
  0
VERTEX
  5
199E
  8
KORPUS
 10
18.0
 20
474.0
 30
0.0
 70
   192
  0
VERTEX
  5
199F
  8
KORPUS
 10
1182.0
 20
474.0
 30
18.0
 70
   192
  0
VERTEX
  5
19A0
  8
KORPUS
 10
18.0
 20
474.0
 30
0.0
 70
   192
  0
VERTEX
  5
19A1
  8
KORPUS
 10
1182.0
 20
20.0
 30
0.0
 70
   192
  0
VERTEX
  5
19A2
  8
KORPUS
 10
18.0
 20
20.0
 30
0.0
 70
   192
  0
VERTEX
  5
19A3
  8
KORPUS
 10
1182.0
 20
474.0
 30
0.0
 70
   192
  0
VERTEX
  5
19A4
  8
KORPUS
 10
18.0
 20
474.0
 30
18.0
 70
   192
  0
VERTEX
  5
19A5
  8
KORPUS
 10
1182.0
 20
20.0
 30
18.0
 70
   192
  0
VERTEX
  5
19A6
  8
KORPUS
 10
1182.0
 20
474.0
 30
18.0
 70
   192
  0
VERTEX
  5
19A7
  8
KORPUS
 10
18.0
 20
20.0
 30
18.0
 70
   192
  0
VERTEX
  5
19A8
  8
KORPUS
 10
0.0
 20
0.0
 30
0.0
 70
   128
 71
     1
 72
     2
 73
     3
  0
VERTEX
  5
19A9
  8
KORPUS
 10
0.0
 20
0.0
 30
0.0
 70
   128
 71
     2
 72
     1
 73
     4
  0
VERTEX
  5
19AA
  8
KORPUS
 10
0.0
 20
0.0
 30
0.0
 70
   128
 71
     5
 72
     6
 73
     7
  0
VERTEX
  5
19AB
  8
KORPUS
 10
0.0
 20
0.0
 30
0.0
 70
   128
 71
     6
 72
     5
 73
     8
  0
VERTEX
  5
19AC
  8
KORPUS
 10
0.0
 20
0.0
 30
0.0
 70
   128
 71
     9
 72
    10
 73
    11
  0
VERTEX
  5
19AD
  8
KORPUS
 10
0.0
 20
0.0
 30
0.0
 70
   128
 71
    10
 72
     9
 73
    12
  0
VERTEX
  5
19AE
  8
KORPUS
 10
0.0
 20
0.0
 30
0.0
 70
   128
 71
    13
 72
    14
 73
    15
  0
VERTEX
  5
19AF
  8
KORPUS
 10
0.0
 20
0.0
 30
0.0
 70
   128
 71
    14
 72
    13
 73
    16
  0
VERTEX
  5
19B0
  8
KORPUS
 10
0.0
 20
0.0
 30
0.0
 70
   128
 71
    17
 72
    18
 73
    19
  0
VERTEX
  5
19B1
  8
KORPUS
 10
0.0
 20
0.0
 30
0.0
 70
   128
 71
    18
 72
    17
 73
    20
  0
VERTEX
  5
19B2
  8
KORPUS
 10
0.0
 20
0.0
 30
0.0
 70
   128
 71
    21
 72
    22
 73
    23
  0
VERTEX
  5
19B3
  8
KORPUS
 10
0.0
 20
0.0
 30
0.0
 70
   128
 71
    22
 72
    21
 73
    24
  0
SEQEND
  5
19B4
  8
KORPUS
  0
POLYLINE
  5
19B6
  8
PROFIL
 66
     1
 10
0.0
 20
0.0
 30
0.0
 70
    64
 71
   596
 72
   512
1001
AVE_ENTITY_MATERIAL
1002
{
1000

1002
{
1071
        0
1070
     0
1070
     0
1002
{
1070
     0
1070
     0
1070
     0
1040
0.0
1002
}
1070
     0
1070
     0
1002
{
1002
}
1002
}
1002
{
1002
}
1002
{
1002
}
1011
0.0
1021
0.0
1031
0.0
1021
0.0
1031
0.0
1011
1.0
1021
0.0
1031
0.0
1021
0.0
1031
0.0
1011
0.0
1021
0.0
1031
0.0
1021
1.0
1031
0.0
1011
0.0
1021
0.0
1031
0.0
1021
0.0
1031
1.0
1002
}
  0
VERTEX
  5
19B7
  8
PROFIL
 10
1182.0
 20
22.499811172485352
 30
293.70004272460937
 70
   192
  0
VERTEX
  5
19B8
  8
PROFIL
 10
1182.0
 20
22.683856964111332
 30
293.66494750976562
 70
   192
  0
VERTEX
  5
19B9
  8
PROFIL
 10
1182.0
 20
22.590791702270511
 30
293.69171142578131
 70
   192
  0
VERTEX
  5
19BA
  8
PROFIL
 10
1182.0
 20
43.999809265136719
 30
347.00006103515619
 70
   192
  0
VERTEX
  5
19BB
  8
PROFIL
 10
1182.0
 20
43.099811553955071
 30
348.800048828125
 70
   192
  0
VERTEX
  5
19BC
  8
PROFIL
 10
1182.0
 20
43.099811553955071
 30
347.00006103515619
 70
   192
  0
VERTEX
  5
19BD
  8
PROFIL
 10
1182.0
 20
44.299812316894531
 30
321.050048828125
 70
   192
  0
VERTEX
  5
19BE
  8
PROFIL
 10
1182.0
 20
43.849811553955071
 30
317.60003662109381
 70
   192
  0
VERTEX
  5
19BF
  8
PROFIL
 10
1182.0
 20
44.299812316894531
 30
317.60003662109381
 70
   192
  0
VERTEX
  5
19C0
  8
PROFIL
 10
1182.0
 20
43.849811553955071
 30
305.60003662109381
 70
   192
  0
VERTEX
  5
19C1
  8
PROFIL
 10
1182.0
 20
44.299812316894531
 30
304.10003662109369
 70
   192
  0
VERTEX
  5
19C2
  8
PROFIL
 10
1182.0
 20
44.299812316894531
 30
305.60003662109381
 70
   192
  0
VERTEX
  5
19C3
  8
PROFIL
 10
1182.0
 20
43.713340759277337
 30
317.61257934570312
 70
   192
  0
VERTEX
  5
19C4
  8
PROFIL
 10
1182.0
 20
43.573738098144531
 30
317.6527099609375
 70
   192
  0
VERTEX
  5
19C5
  8
PROFIL
 10
1182.0
 20
43.439403533935547
 30
317.7222900390625
 70
   192
  0
VERTEX
  5
19C6
  8
PROFIL
 10
1182.0
 20
43.319480895996087
 30
317.81973266601562
 70
   192
  0
VERTEX
  5
19C7
  8
PROFIL
 10
1182.0
 20
43.222064971923821
 30
317.93963623046881
 70
   192
  0
VERTEX
  5
19C8
  8
PROFIL
 10
1182.0
 20
43.152469635009759
 30
318.073974609375
 70
   192
  0
VERTEX
  5
19C9
  8
PROFIL
 10
1182.0
 20
43.112331390380859
 30
318.21359252929687
 70
   192
  0
VERTEX
  5
19CA
  8
PROFIL
 10
1182.0
 20
43.099811553955071
 30
318.35003662109381
 70
   192
  0
VERTEX
  5
19CB
  8
PROFIL
 10
1182.0
 20
43.099811553955071
 30
320.60003662109369
 70
   192
  0
VERTEX
  5
19CC
  8
PROFIL
 10
1182.0
 20
43.713340759277337
 30
305.5875244140625
 70
   192
  0
VERTEX
  5
19CD
  8
PROFIL
 10
1182.0
 20
43.573738098144531
 30
305.54739379882812
 70
   192
  0
VERTEX
  5
19CE
  8
PROFIL
 10
1182.0
 20
43.439403533935547
 30
305.477783203125
 70
   192
  0
VERTEX
  5
19CF
  8
PROFIL
 10
1182.0
 20
43.319480895996087
 30
305.38037109375
 70
   192
  0
VERTEX
  5
19D0
  8
PROFIL
 10
1182.0
 20
43.222064971923821
 30
305.26046752929687
 70
   192
  0
VERTEX
  5
19D1
  8
PROFIL
 10
1182.0
 20
43.152469635009759
 30
305.12612915039062
 70
   192
  0
VERTEX
  5
19D2
  8
PROFIL
 10
1182.0
 20
43.112331390380859
 30
304.98651123046869
 70
   192
  0
VERTEX
  5
19D3
  8
PROFIL
 10
1182.0
 20
43.099811553955071
 30
304.85003662109381
 70
   192
  0
VERTEX
  5
19D4
  8
PROFIL
 10
1182.0
 20
43.099811553955071
 30
304.10003662109369
 70
   192
  0
VERTEX
  5
19D5
  8
PROFIL
 10
1182.0
 20
44.124061584472649
 30
302.02398681640619
 70
   192
  0
VERTEX
  5
19D6
  8
PROFIL
 10
1182.0
 20
42.998451232910149
 30
302.60003662109369
 70
   192
  0
VERTEX
  5
19D7
  8
PROFIL
 10
1182.0
 20
44.039924621582017
 30
301.7850341796875
 70
   192
  0
VERTEX
  5
19D8
  8
PROFIL
 10
1182.0
 20
43.964324951171882
 30
301.67404174804687
 70
   192
  0
VERTEX
  5
19D9
  8
PROFIL
 10
1182.0
 20
43.868438720703118
 30
301.57687377929687
 70
   192
  0
VERTEX
  5
19DA
  8
PROFIL
 10
1182.0
 20
43.756530761718743
 30
301.49868774414062
 70
   192
  0
VERTEX
  5
19DB
  8
PROFIL
 10
1182.0
 20
43.634407043457031
 30
301.44284057617187
 70
   192
  0
VERTEX
  5
19DC
  8
PROFIL
 10
1182.0
 20
43.384735107421868
 30
301.40005493164062
 70
   192
  0
VERTEX
  5
19DD
  8
PROFIL
 10
1182.0
 20
39.798377990722663
 30
301.40005493164062
 70
   192
  0
VERTEX
  5
19DE
  8
PROFIL
 10
1182.0
 20
40.249809265136719
 30
302.60003662109369
 70
   192
  0
VERTEX
  5
19DF
  8
PROFIL
 10
1182.0
 20
44.28729248046875
 30
321.1865234375
 70
   192
  0
VERTEX
  5
19E0
  8
PROFIL
 10
1182.0
 20
44.247154235839837
 30
321.32611083984369
 70
   192
  0
VERTEX
  5
19E1
  8
PROFIL
 10
1182.0
 20
44.177558898925767
 30
321.46044921875
 70
   192
  0
VERTEX
  5
19E2
  8
PROFIL
 10
1182.0
 20
44.08013916015625
 30
321.58038330078131
 70
   192
  0
VERTEX
  5
19E3
  8
PROFIL
 10
1182.0
 20
43.960220336914063
 30
321.67779541015631
 70
   192
  0
VERTEX
  5
19E4
  8
PROFIL
 10
1182.0
 20
43.825881958007813
 30
321.74740600585937
 70
   192
  0
VERTEX
  5
19E5
  8
PROFIL
 10
1182.0
 20
43.686283111572259
 30
321.78753662109369
 70
   192
  0
VERTEX
  5
19E6
  8
PROFIL
 10
1182.0
 20
43.549812316894517
 30
321.800048828125
 70
   192
  0
VERTEX
  5
19E7
  8
PROFIL
 10
1182.0
 20
40.249809265136719
 30
321.800048828125
 70
   192
  0
VERTEX
  5
19E8
  8
PROFIL
 10
1182.0
 20
40.249809265136719
 30
320.60003662109369
 70
   192
  0
VERTEX
  5
19E9
  8
PROFIL
 10
1182.0
 20
44.054397583007813
 30
347.00506591796869
 70
   192
  0
VERTEX
  5
19EA
  8
PROFIL
 10
1182.0
 20
44.110237121582031
 30
347.0211181640625
 70
   192
  0
VERTEX
  5
19EB
  8
PROFIL
 10
1182.0
 20
44.163974761962891
 30
347.0489501953125
 70
   192
  0
VERTEX
  5
19EC
  8
PROFIL
 10
1182.0
 20
44.211944580078118
 30
347.08792114257813
 70
   192
  0
VERTEX
  5
19ED
  8
PROFIL
 10
1182.0
 20
44.250907897949212
 30
347.13589477539062
 70
   192
  0
VERTEX
  5
19EE
  8
PROFIL
 10
1182.0
 20
44.27874755859375
 30
347.18963623046881
 70
   192
  0
VERTEX
  5
19EF
  8
PROFIL
 10
1182.0
 20
44.294803619384759
 30
347.24545288085937
 70
   192
  0
VERTEX
  5
19F0
  8
PROFIL
 10
1182.0
 20
44.299812316894531
 30
347.300048828125
 70
   192
  0
VERTEX
  5
19F1
  8
PROFIL
 10
1182.0
 20
44.299812316894531
 30
349.00006103515619
 70
   192
  0
VERTEX
  5
19F2
  8
PROFIL
 10
1182.0
 20
44.283119201660163
 30
349.1820068359375
 70
   192
  0
VERTEX
  5
19F3
  8
PROFIL
 10
1182.0
 20
44.229598999023438
 30
349.36813354492187
 70
   192
  0
VERTEX
  5
19F4
  8
PROFIL
 10
1182.0
 20
44.136806488037109
 30
349.54727172851563
 70
   192
  0
VERTEX
  5
19F5
  8
PROFIL
 10
1182.0
 20
44.006919860839837
 30
349.7071533203125
 70
   192
  0
VERTEX
  5
19F6
  8
PROFIL
 10
1182.0
 20
43.847023010253913
 30
349.8370361328125
 70
   192
  0
VERTEX
  5
19F7
  8
PROFIL
 10
1182.0
 20
43.66790771484375
 30
349.92984008789062
 70
   192
  0
VERTEX
  5
19F8
  8
PROFIL
 10
1182.0
 20
43.481773376464837
 30
349.98336791992187
 70
   192
  0
VERTEX
  5
19F9
  8
PROFIL
 10
1182.0
 20
43.299812316894531
 30
350.00006103515631
 70
   192
  0
VERTEX
  5
19FA
  8
PROFIL
 10
1182.0
 20
39.149810791015632
 30
350.00006103515631
 70
   192
  0
VERTEX
  5
19FB
  8
PROFIL
 10
1182.0
 20
40.249809265136719
 30
348.800048828125
 70
   192
  0
VERTEX
  5
19FC
  8
PROFIL
 10
1182.0
 20
39.113418579101563
 30
349.9967041015625
 70
   192
  0
VERTEX
  5
19FD
  8
PROFIL
 10
1182.0
 20
39.076194763183587
 30
349.98602294921869
 70
   192
  0
VERTEX
  5
19FE
  8
PROFIL
 10
1182.0
 20
39.040367126464851
 30
349.96743774414062
 70
   192
  0
VERTEX
  5
19FF
  8
PROFIL
 10
1182.0
 20
39.008392333984382
 30
349.94146728515631
 70
   192
  0
VERTEX
  5
1A00
  8
PROFIL
 10
1182.0
 20
38.982414245605469
 30
349.90948486328119
 70
   192
  0
VERTEX
  5
1A01
  8
PROFIL
 10
1182.0
 20
38.963851928710937
 30
349.8736572265625
 70
   192
  0
VERTEX
  5
1A02
  8
PROFIL
 10
1182.0
 20
38.953147888183587
 30
349.83642578125
 70
   192
  0
VERTEX
  5
1A03
  8
PROFIL
 10
1182.0
 20
38.949813842773438
 30
349.800048828125
 70
   192
  0
VERTEX
  5
1A04
  8
PROFIL
 10
1182.0
 20
38.949813842773438
 30
304.10003662109369
 70
   192
  0
VERTEX
  5
1A05
  8
PROFIL
 10
1182.0
 20
38.83294677734375
 30
302.8262939453125
 70
   192
  0
VERTEX
  5
1A06
  8
PROFIL
 10
1182.0
 20
38.458328247070313
 30
301.52337646484381
 70
   192
  0
VERTEX
  5
1A07
  8
PROFIL
 10
1182.0
 20
38.638908386230469
 30
299.18618774414062
 70
   192
  0
VERTEX
  5
1A08
  8
PROFIL
 10
1182.0
 20
37.808780670166023
 30
300.26959228515619
 70
   192
  0
VERTEX
  5
1A09
  8
PROFIL
 10
1182.0
 20
36.899559020996087
 30
299.15029907226562
 70
   192
  0
VERTEX
  5
1A0A
  8
PROFIL
 10
1182.0
 20
36.770599365234382
 30
297.34356689453131
 70
   192
  0
VERTEX
  5
1A0B
  8
PROFIL
 10
1182.0
 20
35.780277252197273
 30
298.2410888671875
 70
   192
  0
VERTEX
  5
1A0C
  8
PROFIL
 10
1182.0
 20
34.420436859130859
 30
296.17630004882812
 70
   192
  0
VERTEX
  5
1A0D
  8
PROFIL
 10
1182.0
 20
34.526473999023438
 30
297.59152221679687
 70
   192
  0
VERTEX
  5
1A0E
  8
PROFIL
 10
1182.0
 20
33.223552703857422
 30
297.2169189453125
 70
   192
  0
VERTEX
  5
1A0F
  8
PROFIL
 10
1182.0
 20
31.949810028076168
 30
295.800048828125
 70
   192
  0
VERTEX
  5
1A10
  8
PROFIL
 10
1182.0
 20
31.949810028076168
 30
297.10003662109381
 70
   192
  0
VERTEX
  5
1A11
  8
PROFIL
 10
1182.0
 20
20.749811172485352
 30
297.10003662109381
 70
   192
  0
VERTEX
  5
1A12
  8
PROFIL
 10
1182.0
 20
21.199810028076168
 30
295.800048828125
 70
   192
  0
VERTEX
  5
1A13
  8
PROFIL
 10
1182.0
 20
20.613338470458991
 30
297.0875244140625
 70
   192
  0
VERTEX
  5
1A14
  8
PROFIL
 10
1182.0
 20
20.473739624023441
 30
297.04739379882812
 70
   192
  0
VERTEX
  5
1A15
  8
PROFIL
 10
1182.0
 20
20.33940315246582
 30
296.977783203125
 70
   192
  0
VERTEX
  5
1A16
  8
PROFIL
 10
1182.0
 20
20.219480514526371
 30
296.88037109375
 70
   192
  0
VERTEX
  5
1A17
  8
PROFIL
 10
1182.0
 20
20.122064590454102
 30
296.76046752929687
 70
   192
  0
VERTEX
  5
1A18
  8
PROFIL
 10
1182.0
 20
20.052469253540039
 30
296.62612915039062
 70
   192
  0
VERTEX
  5
1A19
  8
PROFIL
 10
1182.0
 20
20.012331008911129
 30
296.48651123046869
 70
   192
  0
VERTEX
  5
1A1A
  8
PROFIL
 10
1182.0
 20
19.999811172485352
 30
296.35003662109369
 70
   192
  0
VERTEX
  5
1A1B
  8
PROFIL
 10
1182.0
 20
19.999811172485352
 30
293.25006103515631
 70
   192
  0
VERTEX
  5
1A1C
  8
PROFIL
 10
1182.0
 20
21.199810028076168
 30
293.70004272460937
 70
   192
  0
VERTEX
  5
1A1D
  8
PROFIL
 10
1182.0
 20
20.012331008911129
 30
293.11358642578131
 70
   192
  0
VERTEX
  5
1A1E
  8
PROFIL
 10
1182.0
 20
20.052469253540039
 30
292.97396850585937
 70
   192
  0
VERTEX
  5
1A1F
  8
PROFIL
 10
1182.0
 20
20.122064590454102
 30
292.83963012695312
 70
   192
  0
VERTEX
  5
1A20
  8
PROFIL
 10
1182.0
 20
20.219480514526371
 30
292.7197265625
 70
   192
  0
VERTEX
  5
1A21
  8
PROFIL
 10
1182.0
 20
20.33940315246582
 30
292.622314453125
 70
   192
  0
VERTEX
  5
1A22
  8
PROFIL
 10
1182.0
 20
20.473739624023441
 30
292.55270385742187
 70
   192
  0
VERTEX
  5
1A23
  8
PROFIL
 10
1182.0
 20
20.613338470458991
 30
292.5125732421875
 70
   192
  0
VERTEX
  5
1A24
  8
PROFIL
 10
1182.0
 20
20.749811172485352
 30
292.50006103515619
 70
   192
  0
VERTEX
  5
1A25
  8
PROFIL
 10
1182.0
 20
22.499811172485352
 30
292.50006103515619
 70
   192
  0
VERTEX
  5
1A26
  8
PROFIL
 10
1182.0
 20
22.590791702270511
 30
292.50839233398437
 70
   192
  0
VERTEX
  5
1A27
  8
PROFIL
 10
1182.0
 20
22.683856964111332
 30
292.53515625
 70
   192
  0
VERTEX
  5
1A28
  8
PROFIL
 10
1182.0
 20
22.77341461181641
 30
292.58154296875
 70
   192
  0
VERTEX
  5
1A29
  8
PROFIL
 10
1182.0
 20
22.853363037109379
 30
292.646484375
 70
   192
  0
VERTEX
  5
1A2A
  8
PROFIL
 10
1182.0
 20
22.918308258056641
 30
292.7264404296875
 70
   192
  0
VERTEX
  5
1A2B
  8
PROFIL
 10
1182.0
 20
22.964704513549808
 30
292.81600952148437
 70
   192
  0
VERTEX
  5
1A2C
  8
PROFIL
 10
1182.0
 20
22.991462707519531
 30
292.9090576171875
 70
   192
  0
VERTEX
  5
1A2D
  8
PROFIL
 10
1182.0
 20
22.999811172485352
 30
293.00006103515619
 70
   192
  0
VERTEX
  5
1A2E
  8
PROFIL
 10
1182.0
 20
22.999811172485352
 30
293.20004272460937
 70
   192
  0
VERTEX
  5
1A2F
  8
PROFIL
 10
1182.0
 20
22.991462707519531
 30
293.29104614257812
 70
   192
  0
VERTEX
  5
1A30
  8
PROFIL
 10
1182.0
 20
22.964704513549808
 30
293.38409423828131
 70
   192
  0
VERTEX
  5
1A31
  8
PROFIL
 10
1182.0
 20
22.918308258056641
 30
293.47366333007812
 70
   192
  0
VERTEX
  5
1A32
  8
PROFIL
 10
1182.0
 20
22.853363037109379
 30
293.55361938476562
 70
   192
  0
VERTEX
  5
1A33
  8
PROFIL
 10
1182.0
 20
22.77341461181641
 30
293.61856079101563
 70
   192
  0
VERTEX
  5
1A34
  8
PROFIL
 10
18.0
 20
22.5
 30
292.5
 70
   192
  0
VERTEX
  5
1A35
  8
PROFIL
 10
18.0
 20
22.684047698974609
 30
292.53509521484381
 70
   192
  0
VERTEX
  5
1A36
  8
PROFIL
 10
18.0
 20
22.59098052978516
 30
292.50836181640619
 70
   192
  0
VERTEX
  5
1A37
  8
PROFIL
 10
18.000003814697259
 20
44.299999237060547
 30
304.10000610351562
 70
   192
  0
VERTEX
  5
1A38
  8
PROFIL
 10
18.000003814697259
 20
43.849998474121087
 30
305.60000610351562
 70
   192
  0
VERTEX
  5
1A39
  8
PROFIL
 10
18.000003814697259
 20
44.299999237060547
 30
305.60000610351562
 70
   192
  0
VERTEX
  5
1A3A
  8
PROFIL
 10
18.000001907348629
 20
43.849998474121087
 30
317.60000610351562
 70
   192
  0
VERTEX
  5
1A3B
  8
PROFIL
 10
18.000001907348629
 20
44.299999237060547
 30
321.04998779296881
 70
   192
  0
VERTEX
  5
1A3C
  8
PROFIL
 10
18.000001907348629
 20
44.299999237060547
 30
317.60000610351562
 70
   192
  0
VERTEX
  5
1A3D
  8
PROFIL
 10
18.000001907348629
 20
43.099998474121087
 30
348.79998779296869
 70
   192
  0
VERTEX
  5
1A3E
  8
PROFIL
 10
18.000001907348629
 20
44.0
 30
347.0
 70
   192
  0
VERTEX
  5
1A3F
  8
PROFIL
 10
18.000001907348629
 20
43.099998474121087
 30
347.0
 70
   192
  0
VERTEX
  5
1A40
  8
PROFIL
 10
18.000001907348629
 20
43.713527679443359
 30
317.61251831054687
 70
   192
  0
VERTEX
  5
1A41
  8
PROFIL
 10
18.000001907348629
 20
43.573928833007813
 30
317.65264892578119
 70
   192
  0
VERTEX
  5
1A42
  8
PROFIL
 10
18.000001907348629
 20
43.439590454101563
 30
317.72225952148437
 70
   192
  0
VERTEX
  5
1A43
  8
PROFIL
 10
18.000001907348629
 20
43.319671630859368
 30
317.81967163085937
 70
   192
  0
VERTEX
  5
1A44
  8
PROFIL
 10
18.000001907348629
 20
43.222251892089837
 30
317.93960571289062
 70
   192
  0
VERTEX
  5
1A45
  8
PROFIL
 10
18.000001907348629
 20
43.152656555175781
 30
318.07391357421881
 70
   192
  0
VERTEX
  5
1A46
  8
PROFIL
 10
18.000001907348629
 20
43.112518310546868
 30
318.21353149414062
 70
   192
  0
VERTEX
  5
1A47
  8
PROFIL
 10
18.000001907348629
 20
43.099998474121087
 30
318.35000610351562
 70
   192
  0
VERTEX
  5
1A48
  8
PROFIL
 10
18.000001907348629
 20
43.099998474121087
 30
320.60000610351562
 70
   192
  0
VERTEX
  5
1A49
  8
PROFIL
 10
18.000003814697259
 20
43.713527679443359
 30
305.58746337890631
 70
   192
  0
VERTEX
  5
1A4A
  8
PROFIL
 10
18.000003814697259
 20
43.573928833007813
 30
305.54733276367187
 70
   192
  0
VERTEX
  5
1A4B
  8
PROFIL
 10
18.000003814697259
 20
43.439590454101563
 30
305.47775268554687
 70
   192
  0
VERTEX
  5
1A4C
  8
PROFIL
 10
18.000003814697259
 20
43.319671630859368
 30
305.38034057617187
 70
   192
  0
VERTEX
  5
1A4D
  8
PROFIL
 10
18.000003814697259
 20
43.222251892089837
 30
305.26040649414062
 70
   192
  0
VERTEX
  5
1A4E
  8
PROFIL
 10
18.000003814697259
 20
43.152656555175781
 30
305.12606811523437
 70
   192
  0
VERTEX
  5
1A4F
  8
PROFIL
 10
18.000003814697259
 20
43.112518310546868
 30
304.98648071289062
 70
   192
  0
VERTEX
  5
1A50
  8
PROFIL
 10
18.000003814697259
 20
43.099998474121087
 30
304.85000610351562
 70
   192
  0
VERTEX
  5
1A51
  8
PROFIL
 10
18.000003814697259
 20
43.099998474121087
 30
304.10000610351562
 70
   192
  0
VERTEX
  5
1A52
  8
PROFIL
 10
18.000003814697259
 20
44.12425231933593
 30
302.02392578125
 70
   192
  0
VERTEX
  5
1A53
  8
PROFIL
 10
18.000003814697259
 20
42.998641967773438
 30
302.60000610351562
 70
   192
  0
VERTEX
  5
1A54
  8
PROFIL
 10
18.000003814697259
 20
44.040111541748047
 30
301.78500366210937
 70
   192
  0
VERTEX
  5
1A55
  8
PROFIL
 10
18.000003814697259
 20
43.964515686035163
 30
301.67401123046881
 70
   192
  0
VERTEX
  5
1A56
  8
PROFIL
 10
18.000003814697259
 20
43.868629455566399
 30
301.57681274414062
 70
   192
  0
VERTEX
  5
1A57
  8
PROFIL
 10
18.000003814697259
 20
43.756717681884759
 30
301.49862670898437
 70
   192
  0
VERTEX
  5
1A58
  8
PROFIL
 10
18.000003814697259
 20
43.634597778320313
 30
301.44277954101562
 70
   192
  0
VERTEX
  5
1A59
  8
PROFIL
 10
18.000003814697259
 20
43.384925842285149
 30
301.39999389648437
 70
   192
  0
VERTEX
  5
1A5A
  8
PROFIL
 10
18.000001907348629
 20
39.798568725585938
 30
301.39999389648437
 70
   192
  0
VERTEX
  5
1A5B
  8
PROFIL
 10
18.000001907348629
 20
40.25
 30
302.60000610351562
 70
   192
  0
VERTEX
  5
1A5C
  8
PROFIL
 10
18.000001907348629
 20
44.287479400634759
 30
321.18646240234381
 70
   192
  0
VERTEX
  5
1A5D
  8
PROFIL
 10
18.000001907348629
 20
44.247341156005852
 30
321.32608032226562
 70
   192
  0
VERTEX
  5
1A5E
  8
PROFIL
 10
18.000001907348629
 20
44.177745819091797
 30
321.46041870117187
 70
   192
  0
VERTEX
  5
1A5F
  8
PROFIL
 10
18.000001907348629
 20
44.080329895019531
 30
321.580322265625
 70
   192
  0
VERTEX
  5
1A60
  8
PROFIL
 10
18.000001907348629
 20
43.960407257080071
 30
321.677734375
 70
   192
  0
VERTEX
  5
1A61
  8
PROFIL
 10
18.000001907348629
 20
43.826072692871087
 30
321.74734497070312
 70
   192
  0
VERTEX
  5
1A62
  8
PROFIL
 10
18.000001907348629
 20
43.686470031738281
 30
321.7874755859375
 70
   192
  0
VERTEX
  5
1A63
  8
PROFIL
 10
18.000001907348629
 20
43.549999237060547
 30
321.79998779296869
 70
   192
  0
VERTEX
  5
1A64
  8
PROFIL
 10
18.000001907348629
 20
40.25
 30
321.79998779296869
 70
   192
  0
VERTEX
  5
1A65
  8
PROFIL
 10
18.000001907348629
 20
40.25
 30
320.60000610351562
 70
   192
  0
VERTEX
  5
1A66
  8
PROFIL
 10
18.000001907348629
 20
44.054588317871087
 30
347.0050048828125
 70
   192
  0
VERTEX
  5
1A67
  8
PROFIL
 10
18.000001907348629
 20
44.110427856445313
 30
347.02105712890619
 70
   192
  0
VERTEX
  5
1A68
  8
PROFIL
 10
18.000001907348629
 20
44.164161682128899
 30
347.04888916015619
 70
   192
  0
VERTEX
  5
1A69
  8
PROFIL
 10
18.000001907348629
 20
44.212131500244141
 30
347.08786010742188
 70
   192
  0
VERTEX
  5
1A6A
  8
PROFIL
 10
18.000001907348629
 20
44.2510986328125
 30
347.13583374023437
 70
   192
  0
VERTEX
  5
1A6B
  8
PROFIL
 10
18.000001907348629
 20
44.278938293457031
 30
347.1895751953125
 70
   192
  0
VERTEX
  5
1A6C
  8
PROFIL
 10
18.000001907348629
 20
44.294990539550781
 30
347.24542236328131
 70
   192
  0
VERTEX
  5
1A6D
  8
PROFIL
 10
18.000001907348629
 20
44.299999237060547
 30
347.29998779296881
 70
   192
  0
VERTEX
  5
1A6E
  8
PROFIL
 10
18.000001907348629
 20
44.299999237060547
 30
349.0
 70
   192
  0
VERTEX
  5
1A6F
  8
PROFIL
 10
18.000001907348629
 20
44.283306121826172
 30
349.18197631835937
 70
   192
  0
VERTEX
  5
1A70
  8
PROFIL
 10
18.000001907348629
 20
44.229789733886719
 30
349.36810302734381
 70
   192
  0
VERTEX
  5
1A71
  8
PROFIL
 10
18.000001907348629
 20
44.136993408203118
 30
349.54721069335938
 70
   192
  0
VERTEX
  5
1A72
  8
PROFIL
 10
18.000001907348629
 20
44.007106781005859
 30
349.70709228515631
 70
   192
  0
VERTEX
  5
1A73
  8
PROFIL
 10
18.000001907348629
 20
43.847209930419922
 30
349.83700561523438
 70
   192
  0
VERTEX
  5
1A74
  8
PROFIL
 10
18.000001907348629
 20
43.668094635009773
 30
349.92977905273437
 70
   192
  0
VERTEX
  5
1A75
  8
PROFIL
 10
18.000001907348629
 20
43.481964111328118
 30
349.98330688476562
 70
   192
  0
VERTEX
  5
1A76
  8
PROFIL
 10
18.000001907348629
 20
43.29999923706054
 30
350.0
 70
   192
  0
VERTEX
  5
1A77
  8
PROFIL
 10
18.0
 20
39.150001525878913
 30
350.0
 70
   192
  0
VERTEX
  5
1A78
  8
PROFIL
 10
18.0
 20
40.25
 30
348.79998779296869
 70
   192
  0
VERTEX
  5
1A79
  8
PROFIL
 10
18.0
 20
39.113609313964851
 30
349.99667358398437
 70
   192
  0
VERTEX
  5
1A7A
  8
PROFIL
 10
18.0
 20
39.076381683349609
 30
349.9859619140625
 70
   192
  0
VERTEX
  5
1A7B
  8
PROFIL
 10
18.0
 20
39.040557861328132
 30
349.9674072265625
 70
   192
  0
VERTEX
  5
1A7C
  8
PROFIL
 10
18.0
 20
39.008579254150391
 30
349.94140625
 70
   192
  0
VERTEX
  5
1A7D
  8
PROFIL
 10
18.0
 20
38.982601165771477
 30
349.90945434570312
 70
   192
  0
VERTEX
  5
1A7E
  8
PROFIL
 10
18.0
 20
38.964042663574219
 30
349.87362670898437
 70
   192
  0
VERTEX
  5
1A7F
  8
PROFIL
 10
18.0
 20
38.953338623046882
 30
349.83639526367187
 70
   192
  0
VERTEX
  5
1A80
  8
PROFIL
 10
18.0
 20
38.950000762939453
 30
349.79998779296881
 70
   192
  0
VERTEX
  5
1A81
  8
PROFIL
 10
18.000001907348629
 20
38.950000762939453
 30
304.10000610351562
 70
   192
  0
VERTEX
  5
1A82
  8
PROFIL
 10
18.000001907348629
 20
38.833137512207031
 30
302.82626342773437
 70
   192
  0
VERTEX
  5
1A83
  8
PROFIL
 10
18.000001907348629
 20
38.458518981933587
 30
301.52334594726562
 70
   192
  0
VERTEX
  5
1A84
  8
PROFIL
 10
18.000001907348629
 20
38.639095306396491
 30
299.18612670898437
 70
   192
  0
VERTEX
  5
1A85
  8
PROFIL
 10
18.000001907348629
 20
37.808967590332031
 30
300.26953125
 70
   192
  0
VERTEX
  5
1A86
  8
PROFIL
 10
18.000001907348629
 20
36.899749755859382
 30
299.15023803710937
 70
   192
  0
VERTEX
  5
1A87
  8
PROFIL
 10
18.000001907348629
 20
36.770790100097663
 30
297.34353637695312
 70
   192
  0
VERTEX
  5
1A88
  8
PROFIL
 10
18.000001907348629
 20
35.780467987060547
 30
298.24102783203119
 70
   192
  0
VERTEX
  5
1A89
  8
PROFIL
 10
18.000001907348629
 20
34.420623779296868
 30
296.17623901367187
 70
   192
  0
VERTEX
  5
1A8A
  8
PROFIL
 10
18.000001907348629
 20
34.526664733886719
 30
297.59149169921869
 70
   192
  0
VERTEX
  5
1A8B
  8
PROFIL
 10
18.000001907348629
 20
33.223739624023438
 30
297.21685791015631
 70
   192
  0
VERTEX
  5
1A8C
  8
PROFIL
 10
18.000001907348629
 20
31.95000076293946
 30
295.79998779296881
 70
   192
  0
VERTEX
  5
1A8D
  8
PROFIL
 10
18.000001907348629
 20
31.95000076293946
 30
297.10000610351562
 70
   192
  0
VERTEX
  5
1A8E
  8
PROFIL
 10
18.0
 20
21.20000076293945
 30
295.79998779296881
 70
   192
  0
VERTEX
  5
1A8F
  8
PROFIL
 10
18.0
 20
20.75
 30
297.10000610351562
 70
   192
  0
VERTEX
  5
1A90
  8
PROFIL
 10
18.0
 20
20.613527297973629
 30
297.08749389648438
 70
   192
  0
VERTEX
  5
1A91
  8
PROFIL
 10
18.0
 20
20.473928451538089
 30
297.04733276367187
 70
   192
  0
VERTEX
  5
1A92
  8
PROFIL
 10
18.0
 20
20.339591979980469
 30
296.97775268554687
 70
   192
  0
VERTEX
  5
1A93
  8
PROFIL
 10
18.0
 20
20.219669342041019
 30
296.88034057617187
 70
   192
  0
VERTEX
  5
1A94
  8
PROFIL
 10
18.0
 20
20.12225341796875
 30
296.76040649414062
 70
   192
  0
VERTEX
  5
1A95
  8
PROFIL
 10
18.0
 20
20.052658081054691
 30
296.62606811523437
 70
   192
  0
VERTEX
  5
1A96
  8
PROFIL
 10
18.0
 20
20.012521743774411
 30
296.48648071289062
 70
   192
  0
VERTEX
  5
1A97
  8
PROFIL
 10
18.0
 20
20.0
 30
296.35000610351562
 70
   192
  0
VERTEX
  5
1A98
  8
PROFIL
 10
18.0
 20
20.0
 30
293.25
 70
   192
  0
VERTEX
  5
1A99
  8
PROFIL
 10
18.0
 20
21.20000076293945
 30
293.70001220703119
 70
   192
  0
VERTEX
  5
1A9A
  8
PROFIL
 10
18.0
 20
20.012521743774411
 30
293.113525390625
 70
   192
  0
VERTEX
  5
1A9B
  8
PROFIL
 10
18.0
 20
20.052658081054691
 30
292.97393798828119
 70
   192
  0
VERTEX
  5
1A9C
  8
PROFIL
 10
18.0
 20
20.12225341796875
 30
292.839599609375
 70
   192
  0
VERTEX
  5
1A9D
  8
PROFIL
 10
18.0
 20
20.219669342041019
 30
292.71966552734369
 70
   192
  0
VERTEX
  5
1A9E
  8
PROFIL
 10
18.0
 20
20.339591979980469
 30
292.62225341796881
 70
   192
  0
VERTEX
  5
1A9F
  8
PROFIL
 10
18.0
 20
20.473928451538089
 30
292.55267333984381
 70
   192
  0
VERTEX
  5
1AA0
  8
PROFIL
 10
18.0
 20
20.613527297973629
 30
292.51251220703119
 70
   192
  0
VERTEX
  5
1AA1
  8
PROFIL
 10
18.0
 20
20.75
 30
292.5
 70
   192
  0
VERTEX
  5
1AA2
  8
PROFIL
 10
18.0
 20
22.5
 30
293.70001220703119
 70
   192
  0
VERTEX
  5
1AA3
  8
PROFIL
 10
18.0
 20
22.59098052978516
 30
293.691650390625
 70
   192
  0
VERTEX
  5
1AA4
  8
PROFIL
 10
18.0
 20
22.684047698974609
 30
293.66488647460937
 70
   192
  0
VERTEX
  5
1AA5
  8
PROFIL
 10
18.0
 20
22.773605346679691
 30
293.61849975585937
 70
   192
  0
VERTEX
  5
1AA6
  8
PROFIL
 10
18.0
 20
22.85355377197266
 30
293.55355834960937
 70
   192
  0
VERTEX
  5
1AA7
  8
PROFIL
 10
18.0
 20
22.918497085571289
 30
293.47360229492187
 70
   192
  0
VERTEX
  5
1AA8
  8
PROFIL
 10
18.0
 20
22.96489334106445
 30
293.384033203125
 70
   192
  0
VERTEX
  5
1AA9
  8
PROFIL
 10
18.0
 20
22.991653442382809
 30
293.29098510742187
 70
   192
  0
VERTEX
  5
1AAA
  8
PROFIL
 10
18.0
 20
23.0
 30
293.20001220703119
 70
   192
  0
VERTEX
  5
1AAB
  8
PROFIL
 10
18.0
 20
23.0
 30
293.0
 70
   192
  0
VERTEX
  5
1AAC
  8
PROFIL
 10
18.0
 20
22.991653442382809
 30
292.90902709960938
 70
   192
  0
VERTEX
  5
1AAD
  8
PROFIL
 10
18.0
 20
22.96489334106445
 30
292.81594848632812
 70
   192
  0
VERTEX
  5
1AAE
  8
PROFIL
 10
18.0
 20
22.918497085571289
 30
292.72640991210937
 70
   192
  0
VERTEX
  5
1AAF
  8
PROFIL
 10
18.0
 20
22.85355377197266
 30
292.64645385742187
 70
   192
  0
VERTEX
  5
1AB0
  8
PROFIL
 10
18.0
 20
22.773605346679691
 30
292.58151245117187
 70
   192
  0
VERTEX
  5
1AB1
  8
PROFIL
 10
1182.0
 20
43.999809265136719
 30
347.00006103515619
 70
   192
  0
VERTEX
  5
1AB2
  8
PROFIL
 10
18.000001907348629
 20
43.099998474121087
 30
347.0
 70
   192
  0
VERTEX
  5
1AB3
  8
PROFIL
 10
18.000001907348629
 20
44.0
 30
347.0
 70
   192
  0
VERTEX
  5
1AB4
  8
PROFIL
 10
1182.0
 20
43.099811553955071
 30
347.00006103515619
 70
   192
  0
VERTEX
  5
1AB5
  8
PROFIL
 10
1182.0
 20
43.099811553955071
 30
347.00006103515619
 70
   192
  0
VERTEX
  5
1AB6
  8
PROFIL
 10
18.000001907348629
 20
43.099998474121087
 30
348.79998779296869
 70
   192
  0
VERTEX
  5
1AB7
  8
PROFIL
 10
18.000001907348629
 20
43.099998474121087
 30
347.0
 70
   192
  0
VERTEX
  5
1AB8
  8
PROFIL
 10
1182.0
 20
43.099811553955071
 30
348.800048828125
 70
   192
  0
VERTEX
  5
1AB9
  8
PROFIL
 10
1182.0
 20
43.099811553955071
 30
348.800048828125
 70
   192
  0
VERTEX
  5
1ABA
  8
PROFIL
 10
18.0
 20
40.25
 30
348.79998779296869
 70
   192
  0
VERTEX
  5
1ABB
  8
PROFIL
 10
18.000001907348629
 20
43.099998474121087
 30
348.79998779296869
 70
   192
  0
VERTEX
  5
1ABC
  8
PROFIL
 10
1182.0
 20
40.249809265136719
 30
348.800048828125
 70
   192
  0
VERTEX
  5
1ABD
  8
PROFIL
 10
1182.0
 20
40.249809265136719
 30
348.800048828125
 70
   192
  0
VERTEX
  5
1ABE
  8
PROFIL
 10
18.000001907348629
 20
40.25
 30
321.79998779296869
 70
   192
  0
VERTEX
  5
1ABF
  8
PROFIL
 10
18.0
 20
40.25
 30
348.79998779296869
 70
   192
  0
VERTEX
  5
1AC0
  8
PROFIL
 10
1182.0
 20
40.249809265136719
 30
321.800048828125
 70
   192
  0
VERTEX
  5
1AC1
  8
PROFIL
 10
1182.0
 20
40.249809265136719
 30
321.800048828125
 70
   192
  0
VERTEX
  5
1AC2
  8
PROFIL
 10
18.000001907348629
 20
43.549999237060547
 30
321.79998779296869
 70
   192
  0
VERTEX
  5
1AC3
  8
PROFIL
 10
18.000001907348629
 20
40.25
 30
321.79998779296869
 70
   192
  0
VERTEX
  5
1AC4
  8
PROFIL
 10
1182.0
 20
43.549812316894517
 30
321.800048828125
 70
   192
  0
VERTEX
  5
1AC5
  8
PROFIL
 10
1182.0
 20
43.686283111572259
 30
321.78753662109369
 70
   192
  0
VERTEX
  5
1AC6
  8
PROFIL
 10
18.000001907348629
 20
43.549999237060547
 30
321.79998779296869
 70
   192
  0
VERTEX
  5
1AC7
  8
PROFIL
 10
1182.0
 20
43.549812316894517
 30
321.800048828125
 70
   192
  0
VERTEX
  5
1AC8
  8
PROFIL
 10
18.000001907348629
 20
44.287479400634759
 30
321.18646240234381
 70
   192
  0
VERTEX
  5
1AC9
  8
PROFIL
 10
1182.0
 20
44.299812316894531
 30
321.050048828125
 70
   192
  0
VERTEX
  5
1ACA
  8
PROFIL
 10
18.000001907348629
 20
44.299999237060547
 30
321.04998779296881
 70
   192
  0
VERTEX
  5
1ACB
  8
PROFIL
 10
1182.0
 20
44.28729248046875
 30
321.1865234375
 70
   192
  0
VERTEX
  5
1ACC
  8
PROFIL
 10
18.000001907348629
 20
44.247341156005852
 30
321.32608032226562
 70
   192
  0
VERTEX
  5
1ACD
  8
PROFIL
 10
1182.0
 20
44.247154235839837
 30
321.32611083984369
 70
   192
  0
VERTEX
  5
1ACE
  8
PROFIL
 10
18.000001907348629
 20
44.177745819091797
 30
321.46041870117187
 70
   192
  0
VERTEX
  5
1ACF
  8
PROFIL
 10
1182.0
 20
44.177558898925767
 30
321.46044921875
 70
   192
  0
VERTEX
  5
1AD0
  8
PROFIL
 10
18.000001907348629
 20
44.080329895019531
 30
321.580322265625
 70
   192
  0
VERTEX
  5
1AD1
  8
PROFIL
 10
1182.0
 20
44.08013916015625
 30
321.58038330078131
 70
   192
  0
VERTEX
  5
1AD2
  8
PROFIL
 10
18.000001907348629
 20
43.960407257080071
 30
321.677734375
 70
   192
  0
VERTEX
  5
1AD3
  8
PROFIL
 10
1182.0
 20
43.960220336914063
 30
321.67779541015631
 70
   192
  0
VERTEX
  5
1AD4
  8
PROFIL
 10
18.000001907348629
 20
43.826072692871087
 30
321.74734497070312
 70
   192
  0
VERTEX
  5
1AD5
  8
PROFIL
 10
1182.0
 20
43.825881958007813
 30
321.74740600585937
 70
   192
  0
VERTEX
  5
1AD6
  8
PROFIL
 10
18.000001907348629
 20
43.686470031738281
 30
321.7874755859375
 70
   192
  0
VERTEX
  5
1AD7
  8
PROFIL
 10
1182.0
 20
44.299812316894531
 30
321.050048828125
 70
   192
  0
VERTEX
  5
1AD8
  8
PROFIL
 10
18.000001907348629
 20
44.299999237060547
 30
317.60000610351562
 70
   192
  0
VERTEX
  5
1AD9
  8
PROFIL
 10
18.000001907348629
 20
44.299999237060547
 30
321.04998779296881
 70
   192
  0
VERTEX
  5
1ADA
  8
PROFIL
 10
1182.0
 20
44.299812316894531
 30
317.60003662109381
 70
   192
  0
VERTEX
  5
1ADB
  8
PROFIL
 10
1182.0
 20
44.299812316894531
 30
317.60003662109381
 70
   192
  0
VERTEX
  5
1ADC
  8
PROFIL
 10
18.000001907348629
 20
43.849998474121087
 30
317.60000610351562
 70
   192
  0
VERTEX
  5
1ADD
  8
PROFIL
 10
18.000001907348629
 20
44.299999237060547
 30
317.60000610351562
 70
   192
  0
VERTEX
  5
1ADE
  8
PROFIL
 10
1182.0
 20
43.849811553955071
 30
317.60003662109381
 70
   192
  0
VERTEX
  5
1ADF
  8
PROFIL
 10
18.000001907348629
 20
43.112518310546868
 30
318.21353149414062
 70
   192
  0
VERTEX
  5
1AE0
  8
PROFIL
 10
1182.0
 20
43.099811553955071
 30
318.35003662109381
 70
   192
  0
VERTEX
  5
1AE1
  8
PROFIL
 10
18.000001907348629
 20
43.099998474121087
 30
318.35000610351562
 70
   192
  0
VERTEX
  5
1AE2
  8
PROFIL
 10
1182.0
 20
43.713340759277337
 30
317.61257934570312
 70
   192
  0
VERTEX
  5
1AE3
  8
PROFIL
 10
18.000001907348629
 20
43.849998474121087
 30
317.60000610351562
 70
   192
  0
VERTEX
  5
1AE4
  8
PROFIL
 10
1182.0
 20
43.849811553955071
 30
317.60003662109381
 70
   192
  0
VERTEX
  5
1AE5
  8
PROFIL
 10
18.000001907348629
 20
43.713527679443359
 30
317.61251831054687
 70
   192
  0
VERTEX
  5
1AE6
  8
PROFIL
 10
1182.0
 20
43.573738098144531
 30
317.6527099609375
 70
   192
  0
VERTEX
  5
1AE7
  8
PROFIL
 10
18.000001907348629
 20
43.573928833007813
 30
317.65264892578119
 70
   192
  0
VERTEX
  5
1AE8
  8
PROFIL
 10
1182.0
 20
43.439403533935547
 30
317.7222900390625
 70
   192
  0
VERTEX
  5
1AE9
  8
PROFIL
 10
18.000001907348629
 20
43.439590454101563
 30
317.72225952148437
 70
   192
  0
VERTEX
  5
1AEA
  8
PROFIL
 10
1182.0
 20
43.319480895996087
 30
317.81973266601562
 70
   192
  0
VERTEX
  5
1AEB
  8
PROFIL
 10
18.000001907348629
 20
43.319671630859368
 30
317.81967163085937
 70
   192
  0
VERTEX
  5
1AEC
  8
PROFIL
 10
1182.0
 20
43.222064971923821
 30
317.93963623046881
 70
   192
  0
VERTEX
  5
1AED
  8
PROFIL
 10
18.000001907348629
 20
43.222251892089837
 30
317.93960571289062
 70
   192
  0
VERTEX
  5
1AEE
  8
PROFIL
 10
1182.0
 20
43.152469635009759
 30
318.073974609375
 70
   192
  0
VERTEX
  5
1AEF
  8
PROFIL
 10
18.000001907348629
 20
43.152656555175781
 30
318.07391357421881
 70
   192
  0
VERTEX
  5
1AF0
  8
PROFIL
 10
1182.0
 20
43.112331390380859
 30
318.21359252929687
 70
   192
  0
VERTEX
  5
1AF1
  8
PROFIL
 10
18.000001907348629
 20
43.099998474121087
 30
318.35000610351562
 70
   192
  0
VERTEX
  5
1AF2
  8
PROFIL
 10
1182.0
 20
43.099811553955071
 30
320.60003662109369
 70
   192
  0
VERTEX
  5
1AF3
  8
PROFIL
 10
18.000001907348629
 20
43.099998474121087
 30
320.60000610351562
 70
   192
  0
VERTEX
  5
1AF4
  8
PROFIL
 10
1182.0
 20
43.099811553955071
 30
318.35003662109381
 70
   192
  0
VERTEX
  5
1AF5
  8
PROFIL
 10
1182.0
 20
43.099811553955071
 30
320.60003662109369
 70
   192
  0
VERTEX
  5
1AF6
  8
PROFIL
 10
18.000001907348629
 20
40.25
 30
320.60000610351562
 70
   192
  0
VERTEX
  5
1AF7
  8
PROFIL
 10
18.000001907348629
 20
43.099998474121087
 30
320.60000610351562
 70
   192
  0
VERTEX
  5
1AF8
  8
PROFIL
 10
1182.0
 20
40.249809265136719
 30
320.60003662109369
 70
   192
  0
VERTEX
  5
1AF9
  8
PROFIL
 10
1182.0
 20
40.249809265136719
 30
320.60003662109369
 70
   192
  0
VERTEX
  5
1AFA
  8
PROFIL
 10
18.000001907348629
 20
40.25
 30
302.60000610351562
 70
   192
  0
VERTEX
  5
1AFB
  8
PROFIL
 10
18.000001907348629
 20
40.25
 30
320.60000610351562
 70
   192
  0
VERTEX
  5
1AFC
  8
PROFIL
 10
1182.0
 20
40.249809265136719
 30
302.60003662109369
 70
   192
  0
VERTEX
  5
1AFD
  8
PROFIL
 10
18.000001907348629
 20
40.25
 30
302.60000610351562
 70
   192
  0
VERTEX
  5
1AFE
  8
PROFIL
 10
1182.0
 20
42.998451232910149
 30
302.60003662109369
 70
   192
  0
VERTEX
  5
1AFF
  8
PROFIL
 10
18.000003814697259
 20
42.998641967773438
 30
302.60000610351562
 70
   192
  0
VERTEX
  5
1B00
  8
PROFIL
 10
1182.0
 20
40.249809265136719
 30
302.60003662109369
 70
   192
  0
VERTEX
  5
1B01
  8
PROFIL
 10
1182.0
 20
42.998451232910149
 30
302.60003662109369
 70
   192
  0
VERTEX
  5
1B02
  8
PROFIL
 10
18.000003814697259
 20
43.074630737304688
 30
303.34829711914062
 70
   192
  0
VERTEX
  5
1B03
  8
PROFIL
 10
18.000003814697259
 20
42.998641967773438
 30
302.60000610351562
 70
   192
  0
VERTEX
  5
1B04
  8
PROFIL
 10
18.000003814697259
 20
43.099998474121087
 30
304.10000610351562
 70
   192
  0
VERTEX
  5
1B05
  8
PROFIL
 10
1182.0
 20
43.074443817138672
 30
303.34832763671881
 70
   192
  0
VERTEX
  5
1B06
  8
PROFIL
 10
1182.0
 20
43.099811553955071
 30
304.10003662109369
 70
   192
  0
VERTEX
  5
1B07
  8
PROFIL
 10
1182.0
 20
43.099811553955071
 30
304.10003662109369
 70
   192
  0
VERTEX
  5
1B08
  8
PROFIL
 10
18.000003814697259
 20
43.099998474121087
 30
304.85000610351562
 70
   192
  0
VERTEX
  5
1B09
  8
PROFIL
 10
18.000003814697259
 20
43.099998474121087
 30
304.10000610351562
 70
   192
  0
VERTEX
  5
1B0A
  8
PROFIL
 10
1182.0
 20
43.099811553955071
 30
304.85003662109381
 70
   192
  0
VERTEX
  5
1B0B
  8
PROFIL
 10
1182.0
 20
43.099811553955071
 30
304.85003662109381
 70
   192
  0
VERTEX
  5
1B0C
  8
PROFIL
 10
18.000003814697259
 20
43.112518310546868
 30
304.98648071289062
 70
   192
  0
VERTEX
  5
1B0D
  8
PROFIL
 10
18.000003814697259
 20
43.099998474121087
 30
304.85000610351562
 70
   192
  0
VERTEX
  5
1B0E
  8
PROFIL
 10
18.000003814697259
 20
43.849998474121087
 30
305.60000610351562
 70
   192
  0
VERTEX
  5
1B0F
  8
PROFIL
 10
1182.0
 20
43.713340759277337
 30
305.5875244140625
 70
   192
  0
VERTEX
  5
1B10
  8
PROFIL
 10
1182.0
 20
43.849811553955071
 30
305.60003662109381
 70
   192
  0
VERTEX
  5
1B11
  8
PROFIL
 10
18.000003814697259
 20
43.713527679443359
 30
305.58746337890631
 70
   192
  0
VERTEX
  5
1B12
  8
PROFIL
 10
1182.0
 20
43.573738098144531
 30
305.54739379882812
 70
   192
  0
VERTEX
  5
1B13
  8
PROFIL
 10
18.000003814697259
 20
43.573928833007813
 30
305.54733276367187
 70
   192
  0
VERTEX
  5
1B14
  8
PROFIL
 10
1182.0
 20
43.439403533935547
 30
305.477783203125
 70
   192
  0
VERTEX
  5
1B15
  8
PROFIL
 10
18.000003814697259
 20
43.439590454101563
 30
305.47775268554687
 70
   192
  0
VERTEX
  5
1B16
  8
PROFIL
 10
1182.0
 20
43.319480895996087
 30
305.38037109375
 70
   192
  0
VERTEX
  5
1B17
  8
PROFIL
 10
18.000003814697259
 20
43.319671630859368
 30
305.38034057617187
 70
   192
  0
VERTEX
  5
1B18
  8
PROFIL
 10
1182.0
 20
43.222064971923821
 30
305.26046752929687
 70
   192
  0
VERTEX
  5
1B19
  8
PROFIL
 10
18.000003814697259
 20
43.222251892089837
 30
305.26040649414062
 70
   192
  0
VERTEX
  5
1B1A
  8
PROFIL
 10
1182.0
 20
43.152469635009759
 30
305.12612915039062
 70
   192
  0
VERTEX
  5
1B1B
  8
PROFIL
 10
18.000003814697259
 20
43.152656555175781
 30
305.12606811523437
 70
   192
  0
VERTEX
  5
1B1C
  8
PROFIL
 10
1182.0
 20
43.112331390380859
 30
304.98651123046869
 70
   192
  0
VERTEX
  5
1B1D
  8
PROFIL
 10
1182.0
 20
43.849811553955071
 30
305.60003662109381
 70
   192
  0
VERTEX
  5
1B1E
  8
PROFIL
 10
18.000003814697259
 20
44.299999237060547
 30
305.60000610351562
 70
   192
  0
VERTEX
  5
1B1F
  8
PROFIL
 10
18.000003814697259
 20
43.849998474121087
 30
305.60000610351562
 70
   192
  0
VERTEX
  5
1B20
  8
PROFIL
 10
1182.0
 20
44.299812316894531
 30
305.60003662109381
 70
   192
  0
VERTEX
  5
1B21
  8
PROFIL
 10
1182.0
 20
44.299812316894531
 30
305.60003662109381
 70
   192
  0
VERTEX
  5
1B22
  8
PROFIL
 10
18.000003814697259
 20
44.299999237060547
 30
304.10000610351562
 70
   192
  0
VERTEX
  5
1B23
  8
PROFIL
 10
18.000003814697259
 20
44.299999237060547
 30
305.60000610351562
 70
   192
  0
VERTEX
  5
1B24
  8
PROFIL
 10
1182.0
 20
44.299812316894531
 30
304.10003662109369
 70
   192
  0
VERTEX
  5
1B25
  8
PROFIL
 10
18.000003814697259
 20
44.255985260009759
 30
303.05825805664062
 70
   192
  0
VERTEX
  5
1B26
  8
PROFIL
 10
1182.0
 20
44.124061584472649
 30
302.02398681640619
 70
   192
  0
VERTEX
  5
1B27
  8
PROFIL
 10
18.000003814697259
 20
44.12425231933593
 30
302.02392578125
 70
   192
  0
VERTEX
  5
1B28
  8
PROFIL
 10
1182.0
 20
44.255798339843743
 30
303.05828857421869
 70
   192
  0
VERTEX
  5
1B29
  8
PROFIL
 10
18.000003814697259
 20
44.299999237060547
 30
304.10000610351562
 70
   192
  0
VERTEX
  5
1B2A
  8
PROFIL
 10
1182.0
 20
44.299812316894531
 30
304.10003662109369
 70
   192
  0
VERTEX
  5
1B2B
  8
PROFIL
 10
1182.0
 20
44.124061584472649
 30
302.02398681640619
 70
   192
  0
VERTEX
  5
1B2C
  8
PROFIL
 10
18.000003814697259
 20
44.106292724609368
 30
301.94476318359381
 70
   192
  0
VERTEX
  5
1B2D
  8
PROFIL
 10
18.000003814697259
 20
44.12425231933593
 30
302.02392578125
 70
   192
  0
VERTEX
  5
1B2E
  8
PROFIL
 10
18.000003814697259
 20
43.384925842285149
 30
301.39999389648437
 70
   192
  0
VERTEX
  5
1B2F
  8
PROFIL
 10
1182.0
 20
43.465797424316399
 30
301.40444946289062
 70
   192
  0
VERTEX
  5
1B30
  8
PROFIL
 10
1182.0
 20
43.384735107421868
 30
301.40005493164062
 70
   192
  0
VERTEX
  5
1B31
  8
PROFIL
 10
18.000003814697259
 20
43.465984344482422
 30
301.40438842773437
 70
   192
  0
VERTEX
  5
1B32
  8
PROFIL
 10
1182.0
 20
43.605903625488281
 30
301.43341064453119
 70
   192
  0
VERTEX
  5
1B33
  8
PROFIL
 10
18.000003814697259
 20
43.606094360351562
 30
301.433349609375
 70
   192
  0
VERTEX
  5
1B34
  8
PROFIL
 10
1182.0
 20
43.743053436279297
 30
301.49118041992187
 70
   192
  0
VERTEX
  5
1B35
  8
PROFIL
 10
18.000003814697259
 20
43.743240356445313
 30
301.49111938476562
 70
   192
  0
VERTEX
  5
1B36
  8
PROFIL
 10
1182.0
 20
43.868438720703118
 30
301.57687377929687
 70
   192
  0
VERTEX
  5
1B37
  8
PROFIL
 10
18.000003814697259
 20
43.868629455566399
 30
301.57681274414062
 70
   192
  0
VERTEX
  5
1B38
  8
PROFIL
 10
1182.0
 20
43.973995208740227
 30
301.68606567382812
 70
   192
  0
VERTEX
  5
1B39
  8
PROFIL
 10
18.000003814697259
 20
43.97418212890625
 30
301.68603515625
 70
   192
  0
VERTEX
  5
1B3A
  8
PROFIL
 10
1182.0
 20
44.054008483886719
 30
301.81155395507812
 70
   192
  0
VERTEX
  5
1B3B
  8
PROFIL
 10
18.000003814697259
 20
44.054195404052727
 30
301.81149291992187
 70
   192
  0
VERTEX
  5
1B3C
  8
PROFIL
 10
1182.0
 20
44.106105804443359
 30
301.94479370117187
 70
   192
  0
VERTEX
  5
1B3D
  8
PROFIL
 10
1182.0
 20
43.384735107421868
 30
301.40005493164062
 70
   192
  0
VERTEX
  5
1B3E
  8
PROFIL
 10
18.000001907348629
 20
39.798568725585938
 30
301.39999389648437
 70
   192
  0
VERTEX
  5
1B3F
  8
PROFIL
 10
18.000003814697259
 20
43.384925842285149
 30
301.39999389648437
 70
   192
  0
VERTEX
  5
1B40
  8
PROFIL
 10
1182.0
 20
39.798377990722663
 30
301.40005493164062
 70
   192
  0
VERTEX
  5
1B41
  8
PROFIL
 10
18.000001907348629
 20
35.46087646484375
 30
296.5791015625
 70
   192
  0
VERTEX
  5
1B42
  8
PROFIL
 10
1182.0
 20
33.945098876953132
 30
296.04345703125
 70
   192
  0
VERTEX
  5
1B43
  8
PROFIL
 10
18.000001907348629
 20
33.945289611816413
 30
296.04339599609369
 70
   192
  0
VERTEX
  5
1B44
  8
PROFIL
 10
18.000001907348629
 20
31.95000076293946
 30
295.79998779296881
 70
   192
  0
VERTEX
  5
1B45
  8
PROFIL
 10
1182.0
 20
32.287578582763672
 30
295.80691528320312
 70
   192
  0
VERTEX
  5
1B46
  8
PROFIL
 10
1182.0
 20
31.949810028076168
 30
295.800048828125
 70
   192
  0
VERTEX
  5
1B47
  8
PROFIL
 10
18.000001907348629
 20
32.287765502929688
 30
295.806884765625
 70
   192
  0
VERTEX
  5
1B48
  8
PROFIL
 10
1182.0
 20
39.681999206542969
 30
301.0828857421875
 70
   192
  0
VERTEX
  5
1B49
  8
PROFIL
 10
18.000001907348629
 20
39.798568725585938
 30
301.39999389648437
 70
   192
  0
VERTEX
  5
1B4A
  8
PROFIL
 10
1182.0
 20
39.798377990722663
 30
301.40005493164062
 70
   192
  0
VERTEX
  5
1B4B
  8
PROFIL
 10
18.000001907348629
 20
39.68218994140625
 30
301.08282470703131
 70
   192
  0
VERTEX
  5
1B4C
  8
PROFIL
 10
1182.0
 20
38.919147491455078
 30
299.59246826171881
 70
   192
  0
VERTEX
  5
1B4D
  8
PROFIL
 10
18.000001907348629
 20
38.919334411621087
 30
299.5924072265625
 70
   192
  0
VERTEX
  5
1B4E
  8
PROFIL
 10
1182.0
 20
37.919548034667969
 30
298.33358764648437
 70
   192
  0
VERTEX
  5
1B4F
  8
PROFIL
 10
18.000001907348629
 20
37.91973876953125
 30
298.33352661132812
 70
   192
  0
VERTEX
  5
1B50
  8
PROFIL
 10
1182.0
 20
36.770599365234382
 30
297.34356689453131
 70
   192
  0
VERTEX
  5
1B51
  8
PROFIL
 10
18.000001907348629
 20
36.770790100097663
 30
297.34353637695312
 70
   192
  0
VERTEX
  5
1B52
  8
PROFIL
 10
1182.0
 20
35.460685729980469
 30
296.57916259765619
 70
   192
  0
VERTEX
  5
1B53
  8
PROFIL
 10
1182.0
 20
31.949810028076168
 30
295.800048828125
 70
   192
  0
VERTEX
  5
1B54
  8
PROFIL
 10
18.0
 20
21.20000076293945
 30
295.79998779296881
 70
   192
  0
VERTEX
  5
1B55
  8
PROFIL
 10
18.000001907348629
 20
31.95000076293946
 30
295.79998779296881
 70
   192
  0
VERTEX
  5
1B56
  8
PROFIL
 10
1182.0
 20
21.199810028076168
 30
295.800048828125
 70
   192
  0
VERTEX
  5
1B57
  8
PROFIL
 10
1182.0
 20
21.199810028076168
 30
295.800048828125
 70
   192
  0
VERTEX
  5
1B58
  8
PROFIL
 10
18.0
 20
21.20000076293945
 30
293.70001220703119
 70
   192
  0
VERTEX
  5
1B59
  8
PROFIL
 10
18.0
 20
21.20000076293945
 30
295.79998779296881
 70
   192
  0
VERTEX
  5
1B5A
  8
PROFIL
 10
1182.0
 20
21.199810028076168
 30
293.70004272460937
 70
   192
  0
VERTEX
  5
1B5B
  8
PROFIL
 10
1182.0
 20
21.199810028076168
 30
293.70004272460937
 70
   192
  0
VERTEX
  5
1B5C
  8
PROFIL
 10
18.0
 20
22.5
 30
293.70001220703119
 70
   192
  0
VERTEX
  5
1B5D
  8
PROFIL
 10
18.0
 20
21.20000076293945
 30
293.70001220703119
 70
   192
  0
VERTEX
  5
1B5E
  8
PROFIL
 10
1182.0
 20
22.499811172485352
 30
293.70004272460937
 70
   192
  0
VERTEX
  5
1B5F
  8
PROFIL
 10
1182.0
 20
22.590791702270511
 30
293.69171142578131
 70
   192
  0
VERTEX
  5
1B60
  8
PROFIL
 10
18.0
 20
22.5
 30
293.70001220703119
 70
   192
  0
VERTEX
  5
1B61
  8
PROFIL
 10
1182.0
 20
22.499811172485352
 30
293.70004272460937
 70
   192
  0
VERTEX
  5
1B62
  8
PROFIL
 10
18.0
 20
22.991653442382809
 30
293.29098510742187
 70
   192
  0
VERTEX
  5
1B63
  8
PROFIL
 10
1182.0
 20
22.999811172485352
 30
293.20004272460937
 70
   192
  0
VERTEX
  5
1B64
  8
PROFIL
 10
18.0
 20
23.0
 30
293.20001220703119
 70
   192
  0
VERTEX
  5
1B65
  8
PROFIL
 10
1182.0
 20
22.991462707519531
 30
293.29104614257812
 70
   192
  0
VERTEX
  5
1B66
  8
PROFIL
 10
18.0
 20
22.96489334106445
 30
293.384033203125
 70
   192
  0
VERTEX
  5
1B67
  8
PROFIL
 10
1182.0
 20
22.964704513549808
 30
293.38409423828131
 70
   192
  0
VERTEX
  5
1B68
  8
PROFIL
 10
18.0
 20
22.918497085571289
 30
293.47360229492187
 70
   192
  0
VERTEX
  5
1B69
  8
PROFIL
 10
1182.0
 20
22.918308258056641
 30
293.47366333007812
 70
   192
  0
VERTEX
  5
1B6A
  8
PROFIL
 10
18.0
 20
22.85355377197266
 30
293.55355834960937
 70
   192
  0
VERTEX
  5
1B6B
  8
PROFIL
 10
1182.0
 20
22.853363037109379
 30
293.55361938476562
 70
   192
  0
VERTEX
  5
1B6C
  8
PROFIL
 10
18.0
 20
22.773605346679691
 30
293.61849975585937
 70
   192
  0
VERTEX
  5
1B6D
  8
PROFIL
 10
1182.0
 20
22.77341461181641
 30
293.61856079101563
 70
   192
  0
VERTEX
  5
1B6E
  8
PROFIL
 10
18.0
 20
22.684047698974609
 30
293.66488647460937
 70
   192
  0
VERTEX
  5
1B6F
  8
PROFIL
 10
1182.0
 20
22.683856964111332
 30
293.66494750976562
 70
   192
  0
VERTEX
  5
1B70
  8
PROFIL
 10
18.0
 20
22.59098052978516
 30
293.691650390625
 70
   192
  0
VERTEX
  5
1B71
  8
PROFIL
 10
1182.0
 20
22.999811172485352
 30
293.20004272460937
 70
   192
  0
VERTEX
  5
1B72
  8
PROFIL
 10
18.0
 20
23.0
 30
293.0
 70
   192
  0
VERTEX
  5
1B73
  8
PROFIL
 10
18.0
 20
23.0
 30
293.20001220703119
 70
   192
  0
VERTEX
  5
1B74
  8
PROFIL
 10
1182.0
 20
22.999811172485352
 30
293.00006103515619
 70
   192
  0
VERTEX
  5
1B75
  8
PROFIL
 10
1182.0
 20
22.999811172485352
 30
293.00006103515619
 70
   192
  0
VERTEX
  5
1B76
  8
PROFIL
 10
18.0
 20
22.991653442382809
 30
292.90902709960938
 70
   192
  0
VERTEX
  5
1B77
  8
PROFIL
 10
18.0
 20
23.0
 30
293.0
 70
   192
  0
VERTEX
  5
1B78
  8
PROFIL
 10
18.0
 20
22.5
 30
292.5
 70
   192
  0
VERTEX
  5
1B79
  8
PROFIL
 10
1182.0
 20
22.590791702270511
 30
292.50839233398437
 70
   192
  0
VERTEX
  5
1B7A
  8
PROFIL
 10
1182.0
 20
22.499811172485352
 30
292.50006103515619
 70
   192
  0
VERTEX
  5
1B7B
  8
PROFIL
 10
18.0
 20
22.59098052978516
 30
292.50836181640619
 70
   192
  0
VERTEX
  5
1B7C
  8
PROFIL
 10
1182.0
 20
22.683856964111332
 30
292.53515625
 70
   192
  0
VERTEX
  5
1B7D
  8
PROFIL
 10
18.0
 20
22.684047698974609
 30
292.53509521484381
 70
   192
  0
VERTEX
  5
1B7E
  8
PROFIL
 10
1182.0
 20
22.77341461181641
 30
292.58154296875
 70
   192
  0
VERTEX
  5
1B7F
  8
PROFIL
 10
18.0
 20
22.773605346679691
 30
292.58151245117187
 70
   192
  0
VERTEX
  5
1B80
  8
PROFIL
 10
1182.0
 20
22.853363037109379
 30
292.646484375
 70
   192
  0
VERTEX
  5
1B81
  8
PROFIL
 10
18.0
 20
22.85355377197266
 30
292.64645385742187
 70
   192
  0
VERTEX
  5
1B82
  8
PROFIL
 10
1182.0
 20
22.918308258056641
 30
292.7264404296875
 70
   192
  0
VERTEX
  5
1B83
  8
PROFIL
 10
18.0
 20
22.918497085571289
 30
292.72640991210937
 70
   192
  0
VERTEX
  5
1B84
  8
PROFIL
 10
1182.0
 20
22.964704513549808
 30
292.81600952148437
 70
   192
  0
VERTEX
  5
1B85
  8
PROFIL
 10
18.0
 20
22.96489334106445
 30
292.81594848632812
 70
   192
  0
VERTEX
  5
1B86
  8
PROFIL
 10
1182.0
 20
22.991462707519531
 30
292.9090576171875
 70
   192
  0
VERTEX
  5
1B87
  8
PROFIL
 10
1182.0
 20
22.499811172485352
 30
292.50006103515619
 70
   192
  0
VERTEX
  5
1B88
  8
PROFIL
 10
18.0
 20
20.75
 30
292.5
 70
   192
  0
VERTEX
  5
1B89
  8
PROFIL
 10
18.0
 20
22.5
 30
292.5
 70
   192
  0
VERTEX
  5
1B8A
  8
PROFIL
 10
1182.0
 20
20.749811172485352
 30
292.50006103515619
 70
   192
  0
VERTEX
  5
1B8B
  8
PROFIL
 10
18.0
 20
20.012521743774411
 30
293.113525390625
 70
   192
  0
VERTEX
  5
1B8C
  8
PROFIL
 10
1182.0
 20
19.999811172485352
 30
293.25006103515631
 70
   192
  0
VERTEX
  5
1B8D
  8
PROFIL
 10
18.0
 20
20.0
 30
293.25
 70
   192
  0
VERTEX
  5
1B8E
  8
PROFIL
 10
1182.0
 20
20.613338470458991
 30
292.5125732421875
 70
   192
  0
VERTEX
  5
1B8F
  8
PROFIL
 10
18.0
 20
20.75
 30
292.5
 70
   192
  0
VERTEX
  5
1B90
  8
PROFIL
 10
1182.0
 20
20.749811172485352
 30
292.50006103515619
 70
   192
  0
VERTEX
  5
1B91
  8
PROFIL
 10
18.0
 20
20.613527297973629
 30
292.51251220703119
 70
   192
  0
VERTEX
  5
1B92
  8
PROFIL
 10
1182.0
 20
20.473739624023441
 30
292.55270385742187
 70
   192
  0
VERTEX
  5
1B93
  8
PROFIL
 10
18.0
 20
20.473928451538089
 30
292.55267333984381
 70
   192
  0
VERTEX
  5
1B94
  8
PROFIL
 10
1182.0
 20
20.33940315246582
 30
292.622314453125
 70
   192
  0
VERTEX
  5
1B95
  8
PROFIL
 10
18.0
 20
20.339591979980469
 30
292.62225341796881
 70
   192
  0
VERTEX
  5
1B96
  8
PROFIL
 10
1182.0
 20
20.219480514526371
 30
292.7197265625
 70
   192
  0
VERTEX
  5
1B97
  8
PROFIL
 10
18.0
 20
20.219669342041019
 30
292.71966552734369
 70
   192
  0
VERTEX
  5
1B98
  8
PROFIL
 10
1182.0
 20
20.122064590454102
 30
292.83963012695312
 70
   192
  0
VERTEX
  5
1B99
  8
PROFIL
 10
18.0
 20
20.12225341796875
 30
292.839599609375
 70
   192
  0
VERTEX
  5
1B9A
  8
PROFIL
 10
1182.0
 20
20.052469253540039
 30
292.97396850585937
 70
   192
  0
VERTEX
  5
1B9B
  8
PROFIL
 10
18.0
 20
20.052658081054691
 30
292.97393798828119
 70
   192
  0
VERTEX
  5
1B9C
  8
PROFIL
 10
1182.0
 20
20.012331008911129
 30
293.11358642578131
 70
   192
  0
VERTEX
  5
1B9D
  8
PROFIL
 10
18.0
 20
20.0
 30
293.25
 70
   192
  0
VERTEX
  5
1B9E
  8
PROFIL
 10
1182.0
 20
19.999811172485352
 30
296.35003662109369
 70
   192
  0
VERTEX
  5
1B9F
  8
PROFIL
 10
18.0
 20
20.0
 30
296.35000610351562
 70
   192
  0
VERTEX
  5
1BA0
  8
PROFIL
 10
1182.0
 20
19.999811172485352
 30
293.25006103515631
 70
   192
  0
VERTEX
  5
1BA1
  8
PROFIL
 10
1182.0
 20
19.999811172485352
 30
296.35003662109369
 70
   192
  0
VERTEX
  5
1BA2
  8
PROFIL
 10
18.0
 20
20.012521743774411
 30
296.48648071289062
 70
   192
  0
VERTEX
  5
1BA3
  8
PROFIL
 10
18.0
 20
20.0
 30
296.35000610351562
 70
   192
  0
VERTEX
  5
1BA4
  8
PROFIL
 10
18.0
 20
20.75
 30
297.10000610351562
 70
   192
  0
VERTEX
  5
1BA5
  8
PROFIL
 10
1182.0
 20
20.613338470458991
 30
297.0875244140625
 70
   192
  0
VERTEX
  5
1BA6
  8
PROFIL
 10
1182.0
 20
20.749811172485352
 30
297.10003662109381
 70
   192
  0
VERTEX
  5
1BA7
  8
PROFIL
 10
18.0
 20
20.613527297973629
 30
297.08749389648438
 70
   192
  0
VERTEX
  5
1BA8
  8
PROFIL
 10
1182.0
 20
20.473739624023441
 30
297.04739379882812
 70
   192
  0
VERTEX
  5
1BA9
  8
PROFIL
 10
18.0
 20
20.473928451538089
 30
297.04733276367187
 70
   192
  0
VERTEX
  5
1BAA
  8
PROFIL
 10
1182.0
 20
20.33940315246582
 30
296.977783203125
 70
   192
  0
VERTEX
  5
1BAB
  8
PROFIL
 10
18.0
 20
20.339591979980469
 30
296.97775268554687
 70
   192
  0
VERTEX
  5
1BAC
  8
PROFIL
 10
1182.0
 20
20.219480514526371
 30
296.88037109375
 70
   192
  0
VERTEX
  5
1BAD
  8
PROFIL
 10
18.0
 20
20.219669342041019
 30
296.88034057617187
 70
   192
  0
VERTEX
  5
1BAE
  8
PROFIL
 10
1182.0
 20
20.122064590454102
 30
296.76046752929687
 70
   192
  0
VERTEX
  5
1BAF
  8
PROFIL
 10
18.0
 20
20.12225341796875
 30
296.76040649414062
 70
   192
  0
VERTEX
  5
1BB0
  8
PROFIL
 10
1182.0
 20
20.052469253540039
 30
296.62612915039062
 70
   192
  0
VERTEX
  5
1BB1
  8
PROFIL
 10
18.0
 20
20.052658081054691
 30
296.62606811523437
 70
   192
  0
VERTEX
  5
1BB2
  8
PROFIL
 10
1182.0
 20
20.012331008911129
 30
296.48651123046869
 70
   192
  0
VERTEX
  5
1BB3
  8
PROFIL
 10
1182.0
 20
20.749811172485352
 30
297.10003662109381
 70
   192
  0
VERTEX
  5
1BB4
  8
PROFIL
 10
18.000001907348629
 20
31.95000076293946
 30
297.10000610351562
 70
   192
  0
VERTEX
  5
1BB5
  8
PROFIL
 10
18.0
 20
20.75
 30
297.10000610351562
 70
   192
  0
VERTEX
  5
1BB6
  8
PROFIL
 10
1182.0
 20
31.949810028076168
 30
297.10003662109381
 70
   192
  0
VERTEX
  5
1BB7
  8
PROFIL
 10
1182.0
 20
33.384178161621101
 30
297.24859619140619
 70
   192
  0
VERTEX
  5
1BB8
  8
PROFIL
 10
18.000001907348629
 20
31.95000076293946
 30
297.10000610351562
 70
   192
  0
VERTEX
  5
1BB9
  8
PROFIL
 10
1182.0
 20
31.949810028076168
 30
297.10003662109381
 70
   192
  0
VERTEX
  5
1BBA
  8
PROFIL
 10
18.000001907348629
 20
38.950000762939453
 30
304.10000610351562
 70
   192
  0
VERTEX
  5
1BBB
  8
PROFIL
 10
1182.0
 20
38.801277160644531
 30
302.66567993164062
 70
   192
  0
VERTEX
  5
1BBC
  8
PROFIL
 10
1182.0
 20
38.949813842773438
 30
304.10003662109369
 70
   192
  0
VERTEX
  5
1BBD
  8
PROFIL
 10
18.000001907348629
 20
38.801467895507813
 30
302.66561889648437
 70
   192
  0
VERTEX
  5
1BBE
  8
PROFIL
 10
18.000001907348629
 20
38.374191284179687
 30
301.31976318359381
 70
   192
  0
VERTEX
  5
1BBF
  8
PROFIL
 10
1182.0
 20
38.374004364013672
 30
301.31982421875
 70
   192
  0
VERTEX
  5
1BC0
  8
PROFIL
 10
18.000001907348629
 20
37.717784881591797
 30
300.133544921875
 70
   192
  0
VERTEX
  5
1BC1
  8
PROFIL
 10
1182.0
 20
37.717597961425781
 30
300.13360595703119
 70
   192
  0
VERTEX
  5
1BC2
  8
PROFIL
 10
1182.0
 20
36.899559020996087
 30
299.15029907226562
 70
   192
  0
VERTEX
  5
1BC3
  8
PROFIL
 10
18.000001907348629
 20
36.899749755859382
 30
299.15023803710937
 70
   192
  0
VERTEX
  5
1BC4
  8
PROFIL
 10
18.000001907348629
 20
35.91644287109375
 30
298.33221435546869
 70
   192
  0
VERTEX
  5
1BC5
  8
PROFIL
 10
1182.0
 20
35.916252136230469
 30
298.332275390625
 70
   192
  0
VERTEX
  5
1BC6
  8
PROFIL
 10
18.000001907348629
 20
34.730239868164063
 30
297.67581176757812
 70
   192
  0
VERTEX
  5
1BC7
  8
PROFIL
 10
1182.0
 20
34.730052947998047
 30
297.67587280273437
 70
   192
  0
VERTEX
  5
1BC8
  8
PROFIL
 10
18.000001907348629
 20
33.384365081787109
 30
297.24853515625
 70
   192
  0
VERTEX
  5
1BC9
  8
PROFIL
 10
1182.0
 20
38.949813842773438
 30
304.10003662109369
 70
   192
  0
VERTEX
  5
1BCA
  8
PROFIL
 10
18.0
 20
38.950000762939453
 30
349.79998779296881
 70
   192
  0
VERTEX
  5
1BCB
  8
PROFIL
 10
18.000001907348629
 20
38.950000762939453
 30
304.10000610351562
 70
   192
  0
VERTEX
  5
1BCC
  8
PROFIL
 10
1182.0
 20
38.949813842773438
 30
349.800048828125
 70
   192
  0
VERTEX
  5
1BCD
  8
PROFIL
 10
18.0
 20
39.109016418457031
 30
349.99575805664062
 70
   192
  0
VERTEX
  5
1BCE
  8
PROFIL
 10
1182.0
 20
39.149810791015632
 30
350.00006103515631
 70
   192
  0
VERTEX
  5
1BCF
  8
PROFIL
 10
18.0
 20
39.150001525878913
 30
350.0
 70
   192
  0
VERTEX
  5
1BD0
  8
PROFIL
 10
1182.0
 20
38.954055786132813
 30
349.84103393554687
 70
   192
  0
VERTEX
  5
1BD1
  8
PROFIL
 10
18.0
 20
38.950000762939453
 30
349.79998779296881
 70
   192
  0
VERTEX
  5
1BD2
  8
PROFIL
 10
1182.0
 20
38.949813842773438
 30
349.800048828125
 70
   192
  0
VERTEX
  5
1BD3
  8
PROFIL
 10
18.0
 20
38.954246520996101
 30
349.84097290039062
 70
   192
  0
VERTEX
  5
1BD4
  8
PROFIL
 10
1182.0
 20
38.966262817382813
 30
349.87948608398437
 70
   192
  0
VERTEX
  5
1BD5
  8
PROFIL
 10
18.0
 20
38.966453552246101
 30
349.87942504882812
 70
   192
  0
VERTEX
  5
1BD6
  8
PROFIL
 10
1182.0
 20
38.985015869140632
 30
349.91339111328119
 70
   192
  0
VERTEX
  5
1BD7
  8
PROFIL
 10
18.0
 20
38.985206604003913
 30
349.913330078125
 70
   192
  0
VERTEX
  5
1BD8
  8
PROFIL
 10
1182.0
 20
39.008392333984382
 30
349.94146728515631
 70
   192
  0
VERTEX
  5
1BD9
  8
PROFIL
 10
18.0
 20
39.008579254150391
 30
349.94140625
 70
   192
  0
VERTEX
  5
1BDA
  8
PROFIL
 10
1182.0
 20
39.036483764648438
 30
349.96484375
 70
   192
  0
VERTEX
  5
1BDB
  8
PROFIL
 10
18.0
 20
39.036674499511719
 30
349.96478271484381
 70
   192
  0
VERTEX
  5
1BDC
  8
PROFIL
 10
18.0
 20
39.070564270019531
 30
349.98355102539062
 70
   192
  0
VERTEX
  5
1BDD
  8
PROFIL
 10
1182.0
 20
39.07037353515625
 30
349.98358154296869
 70
   192
  0
VERTEX
  5
1BDE
  8
PROFIL
 10
1182.0
 20
39.108829498291009
 30
349.99581909179687
 70
   192
  0
VERTEX
  5
1BDF
  8
PROFIL
 10
1182.0
 20
39.149810791015632
 30
350.00006103515631
 70
   192
  0
VERTEX
  5
1BE0
  8
PROFIL
 10
18.000001907348629
 20
43.29999923706054
 30
350.0
 70
   192
  0
VERTEX
  5
1BE1
  8
PROFIL
 10
18.0
 20
39.150001525878913
 30
350.0
 70
   192
  0
VERTEX
  5
1BE2
  8
PROFIL
 10
1182.0
 20
43.299812316894531
 30
350.00006103515631
 70
   192
  0
VERTEX
  5
1BE3
  8
PROFIL
 10
1182.0
 20
43.481773376464837
 30
349.98336791992187
 70
   192
  0
VERTEX
  5
1BE4
  8
PROFIL
 10
18.000001907348629
 20
43.29999923706054
 30
350.0
 70
   192
  0
VERTEX
  5
1BE5
  8
PROFIL
 10
1182.0
 20
43.299812316894531
 30
350.00006103515631
 70
   192
  0
VERTEX
  5
1BE6
  8
PROFIL
 10
18.000001907348629
 20
44.283306121826172
 30
349.18197631835937
 70
   192
  0
VERTEX
  5
1BE7
  8
PROFIL
 10
1182.0
 20
44.299812316894531
 30
349.00006103515619
 70
   192
  0
VERTEX
  5
1BE8
  8
PROFIL
 10
18.000001907348629
 20
44.299999237060547
 30
349.0
 70
   192
  0
VERTEX
  5
1BE9
  8
PROFIL
 10
1182.0
 20
44.283119201660163
 30
349.1820068359375
 70
   192
  0
VERTEX
  5
1BEA
  8
PROFIL
 10
18.000001907348629
 20
44.229789733886719
 30
349.36810302734381
 70
   192
  0
VERTEX
  5
1BEB
  8
PROFIL
 10
1182.0
 20
44.229598999023438
 30
349.36813354492187
 70
   192
  0
VERTEX
  5
1BEC
  8
PROFIL
 10
18.000001907348629
 20
44.136993408203118
 30
349.54721069335938
 70
   192
  0
VERTEX
  5
1BED
  8
PROFIL
 10
1182.0
 20
44.136806488037109
 30
349.54727172851563
 70
   192
  0
VERTEX
  5
1BEE
  8
PROFIL
 10
18.000001907348629
 20
44.007106781005859
 30
349.70709228515631
 70
   192
  0
VERTEX
  5
1BEF
  8
PROFIL
 10
1182.0
 20
44.006919860839837
 30
349.7071533203125
 70
   192
  0
VERTEX
  5
1BF0
  8
PROFIL
 10
18.000001907348629
 20
43.847209930419922
 30
349.83700561523438
 70
   192
  0
VERTEX
  5
1BF1
  8
PROFIL
 10
1182.0
 20
43.847023010253913
 30
349.8370361328125
 70
   192
  0
VERTEX
  5
1BF2
  8
PROFIL
 10
18.000001907348629
 20
43.668094635009773
 30
349.92977905273437
 70
   192
  0
VERTEX
  5
1BF3
  8
PROFIL
 10
1182.0
 20
43.66790771484375
 30
349.92984008789062
 70
   192
  0
VERTEX
  5
1BF4
  8
PROFIL
 10
18.000001907348629
 20
43.481964111328118
 30
349.98330688476562
 70
   192
  0
VERTEX
  5
1BF5
  8
PROFIL
 10
1182.0
 20
44.299812316894531
 30
349.00006103515619
 70
   192
  0
VERTEX
  5
1BF6
  8
PROFIL
 10
18.000001907348629
 20
44.299999237060547
 30
347.29998779296881
 70
   192
  0
VERTEX
  5
1BF7
  8
PROFIL
 10
18.000001907348629
 20
44.299999237060547
 30
349.0
 70
   192
  0
VERTEX
  5
1BF8
  8
PROFIL
 10
1182.0
 20
44.299812316894531
 30
347.300048828125
 70
   192
  0
VERTEX
  5
1BF9
  8
PROFIL
 10
18.000001907348629
 20
44.061470031738281
 30
347.00637817382812
 70
   192
  0
VERTEX
  5
1BFA
  8
PROFIL
 10
1182.0
 20
43.999809265136719
 30
347.00006103515619
 70
   192
  0
VERTEX
  5
1BFB
  8
PROFIL
 10
18.000001907348629
 20
44.0
 30
347.0
 70
   192
  0
VERTEX
  5
1BFC
  8
PROFIL
 10
1182.0
 20
44.293445587158203
 30
347.23858642578119
 70
   192
  0
VERTEX
  5
1BFD
  8
PROFIL
 10
18.000001907348629
 20
44.299999237060547
 30
347.29998779296881
 70
   192
  0
VERTEX
  5
1BFE
  8
PROFIL
 10
1182.0
 20
44.299812316894531
 30
347.300048828125
 70
   192
  0
VERTEX
  5
1BFF
  8
PROFIL
 10
18.000001907348629
 20
44.293632507324212
 30
347.238525390625
 70
   192
  0
VERTEX
  5
1C00
  8
PROFIL
 10
1182.0
 20
44.27513122558593
 30
347.180908203125
 70
   192
  0
VERTEX
  5
1C01
  8
PROFIL
 10
18.000001907348629
 20
44.275321960449212
 30
347.18084716796869
 70
   192
  0
VERTEX
  5
1C02
  8
PROFIL
 10
1182.0
 20
44.247001647949219
 30
347.13006591796869
 70
   192
  0
VERTEX
  5
1C03
  8
PROFIL
 10
18.000001907348629
 20
44.2471923828125
 30
347.1300048828125
 70
   192
  0
VERTEX
  5
1C04
  8
PROFIL
 10
1182.0
 20
44.211944580078118
 30
347.08792114257813
 70
   192
  0
VERTEX
  5
1C05
  8
PROFIL
 10
18.000001907348629
 20
44.212131500244141
 30
347.08786010742188
 70
   192
  0
VERTEX
  5
1C06
  8
PROFIL
 10
1182.0
 20
44.1697998046875
 30
347.0528564453125
 70
   192
  0
VERTEX
  5
1C07
  8
PROFIL
 10
18.000001907348629
 20
44.169990539550781
 30
347.05279541015631
 70
   192
  0
VERTEX
  5
1C08
  8
PROFIL
 10
1182.0
 20
44.118965148925767
 30
347.02471923828119
 70
   192
  0
VERTEX
  5
1C09
  8
PROFIL
 10
18.000001907348629
 20
44.119155883789063
 30
347.02468872070312
 70
   192
  0
VERTEX
  5
1C0A
  8
PROFIL
 10
1182.0
 20
44.061283111572259
 30
347.00640869140619
 70
   192
  0
VERTEX
  5
1C0B
  8
PROFIL
 10
0.0
 20
0.0
 30
0.0
 70
   128
 71
     1
 72
     2
 73
     3
  0
VERTEX
  5
1C0C
  8
PROFIL
 10
0.0
 20
0.0
 30
0.0
 70
   128
 71
     4
 72
     5
 73
     6
  0
VERTEX
  5
1C0D
  8
PROFIL
 10
0.0
 20
0.0
 30
0.0
 70
   128
 71
     7
 72
     8
 73
     9
  0
VERTEX
  5
1C0E
  8
PROFIL
 10
0.0
 20
0.0
 30
0.0
 70
   128
 71
    10
 72
    11
 73
    12
  0
VERTEX
  5
1C0F
  8
PROFIL
 10
0.0
 20
0.0
 30
0.0
 70
   128
 71
     7
 72
    13
 73
     8
  0
VERTEX
  5
1C10
  8
PROFIL
 10
0.0
 20
0.0
 30
0.0
 70
   128
 71
     7
 72
    14
 73
    13
  0
VERTEX
  5
1C11
  8
PROFIL
 10
0.0
 20
0.0
 30
0.0
 70
   128
 71
     7
 72
    15
 73
    14
  0
VERTEX
  5
1C12
  8
PROFIL
 10
0.0
 20
0.0
 30
0.0
 70
   128
 71
     7
 72
    16
 73
    15
  0
VERTEX
  5
1C13
  8
PROFIL
 10
0.0
 20
0.0
 30
0.0
 70
   128
 71
     7
 72
    17
 73
    16
  0
VERTEX
  5
1C14
  8
PROFIL
 10
0.0
 20
0.0
 30
0.0
 70
   128
 71
     7
 72
    18
 73
    17
  0
VERTEX
  5
1C15
  8
PROFIL
 10
0.0
 20
0.0
 30
0.0
 70
   128
 71
     7
 72
    19
 73
    18
  0
VERTEX
  5
1C16
  8
PROFIL
 10
0.0
 20
0.0
 30
0.0
 70
   128
 71
     7
 72
    20
 73
    19
  0
VERTEX
  5
1C17
  8
PROFIL
 10
0.0
 20
0.0
 30
0.0
 70
   128
 71
     7
 72
    21
 73
    20
  0
VERTEX
  5
1C18
  8
PROFIL
 10
0.0
 20
0.0
 30
0.0
 70
   128
 71
    22
 72
    11
 73
    10
  0
VERTEX
  5
1C19
  8
PROFIL
 10
0.0
 20
0.0
 30
0.0
 70
   128
 71
    23
 72
    11
 73
    22
  0
VERTEX
  5
1C1A
  8
PROFIL
 10
0.0
 20
0.0
 30
0.0
 70
   128
 71
    24
 72
    11
 73
    23
  0
VERTEX
  5
1C1B
  8
PROFIL
 10
0.0
 20
0.0
 30
0.0
 70
   128
 71
    25
 72
    11
 73
    24
  0
VERTEX
  5
1C1C
  8
PROFIL
 10
0.0
 20
0.0
 30
0.0
 70
   128
 71
    26
 72
    11
 73
    25
  0
VERTEX
  5
1C1D
  8
PROFIL
 10
0.0
 20
0.0
 30
0.0
 70
   128
 71
    27
 72
    11
 73
    26
  0
VERTEX
  5
1C1E
  8
PROFIL
 10
0.0
 20
0.0
 30
0.0
 70
   128
 71
    28
 72
    11
 73
    27
  0
VERTEX
  5
1C1F
  8
PROFIL
 10
0.0
 20
0.0
 30
0.0
 70
   128
 71
    29
 72
    11
 73
    28
  0
VERTEX
  5
1C20
  8
PROFIL
 10
0.0
 20
0.0
 30
0.0
 70
   128
 71
    30
 72
    11
 73
    29
  0
VERTEX
  5
1C21
  8
PROFIL
 10
0.0
 20
0.0
 30
0.0
 70
   128
 71
    30
 72
    31
 73
    11
  0
VERTEX
  5
1C22
  8
PROFIL
 10
0.0
 20
0.0
 30
0.0
 70
   128
 71
    32
 72
    31
 73
    30
  0
VERTEX
  5
1C23
  8
PROFIL
 10
0.0
 20
0.0
 30
0.0
 70
   128
 71
    32
 72
    33
 73
    31
  0
VERTEX
  5
1C24
  8
PROFIL
 10
0.0
 20
0.0
 30
0.0
 70
   128
 71
    32
 72
    34
 73
    33
  0
VERTEX
  5
1C25
  8
PROFIL
 10
0.0
 20
0.0
 30
0.0
 70
   128
 71
    32
 72
    35
 73
    34
  0
VERTEX
  5
1C26
  8
PROFIL
 10
0.0
 20
0.0
 30
0.0
 70
   128
 71
    32
 72
    36
 73
    35
  0
VERTEX
  5
1C27
  8
PROFIL
 10
0.0
 20
0.0
 30
0.0
 70
   128
 71
    32
 72
    37
 73
    36
  0
VERTEX
  5
1C28
  8
PROFIL
 10
0.0
 20
0.0
 30
0.0
 70
   128
 71
    32
 72
    38
 73
    37
  0
VERTEX
  5
1C29
  8
PROFIL
 10
0.0
 20
0.0
 30
0.0
 70
   128
 71
    32
 72
    39
 73
    38
  0
VERTEX
  5
1C2A
  8
PROFIL
 10
0.0
 20
0.0
 30
0.0
 70
   128
 71
    40
 72
    39
 73
    32
  0
VERTEX
  5
1C2B
  8
PROFIL
 10
0.0
 20
0.0
 30
0.0
 70
   128
 71
    41
 72
    21
 73
     7
  0
VERTEX
  5
1C2C
  8
PROFIL
 10
0.0
 20
0.0
 30
0.0
 70
   128
 71
    42
 72
    21
 73
    41
  0
VERTEX
  5
1C2D
  8
PROFIL
 10
0.0
 20
0.0
 30
0.0
 70
   128
 71
    43
 72
    21
 73
    42
  0
VERTEX
  5
1C2E
  8
PROFIL
 10
0.0
 20
0.0
 30
0.0
 70
   128
 71
    44
 72
    21
 73
    43
  0
VERTEX
  5
1C2F
  8
PROFIL
 10
0.0
 20
0.0
 30
0.0
 70
   128
 71
    45
 72
    21
 73
    44
  0
VERTEX
  5
1C30
  8
PROFIL
 10
0.0
 20
0.0
 30
0.0
 70
   128
 71
    46
 72
    21
 73
    45
  0
VERTEX
  5
1C31
  8
PROFIL
 10
0.0
 20
0.0
 30
0.0
 70
   128
 71
    47
 72
    21
 73
    46
  0
VERTEX
  5
1C32
  8
PROFIL
 10
0.0
 20
0.0
 30
0.0
 70
   128
 71
    48
 72
    21
 73
    47
  0
VERTEX
  5
1C33
  8
PROFIL
 10
0.0
 20
0.0
 30
0.0
 70
   128
 71
    49
 72
    21
 73
    48
  0
VERTEX
  5
1C34
  8
PROFIL
 10
0.0
 20
0.0
 30
0.0
 70
   128
 71
    49
 72
    50
 73
    21
  0
VERTEX
  5
1C35
  8
PROFIL
 10
0.0
 20
0.0
 30
0.0
 70
   128
 71
    51
 72
     5
 73
     4
  0
VERTEX
  5
1C36
  8
PROFIL
 10
0.0
 20
0.0
 30
0.0
 70
   128
 71
    52
 72
     5
 73
    51
  0
VERTEX
  5
1C37
  8
PROFIL
 10
0.0
 20
0.0
 30
0.0
 70
   128
 71
    53
 72
     5
 73
    52
  0
VERTEX
  5
1C38
  8
PROFIL
 10
0.0
 20
0.0
 30
0.0
 70
   128
 71
    54
 72
     5
 73
    53
  0
VERTEX
  5
1C39
  8
PROFIL
 10
0.0
 20
0.0
 30
0.0
 70
   128
 71
    55
 72
     5
 73
    54
  0
VERTEX
  5
1C3A
  8
PROFIL
 10
0.0
 20
0.0
 30
0.0
 70
   128
 71
    56
 72
     5
 73
    55
  0
VERTEX
  5
1C3B
  8
PROFIL
 10
0.0
 20
0.0
 30
0.0
 70
   128
 71
    57
 72
     5
 73
    56
  0
VERTEX
  5
1C3C
  8
PROFIL
 10
0.0
 20
0.0
 30
0.0
 70
   128
 71
    58
 72
     5
 73
    57
  0
VERTEX
  5
1C3D
  8
PROFIL
 10
0.0
 20
0.0
 30
0.0
 70
   128
 71
    59
 72
     5
 73
    58
  0
VERTEX
  5
1C3E
  8
PROFIL
 10
0.0
 20
0.0
 30
0.0
 70
   128
 71
    60
 72
     5
 73
    59
  0
VERTEX
  5
1C3F
  8
PROFIL
 10
0.0
 20
0.0
 30
0.0
 70
   128
 71
    61
 72
     5
 73
    60
  0
VERTEX
  5
1C40
  8
PROFIL
 10
0.0
 20
0.0
 30
0.0
 70
   128
 71
    62
 72
     5
 73
    61
  0
VERTEX
  5
1C41
  8
PROFIL
 10
0.0
 20
0.0
 30
0.0
 70
   128
 71
    63
 72
     5
 73
    62
  0
VERTEX
  5
1C42
  8
PROFIL
 10
0.0
 20
0.0
 30
0.0
 70
   128
 71
    64
 72
     5
 73
    63
  0
VERTEX
  5
1C43
  8
PROFIL
 10
0.0
 20
0.0
 30
0.0
 70
   128
 71
    65
 72
     5
 73
    64
  0
VERTEX
  5
1C44
  8
PROFIL
 10
0.0
 20
0.0
 30
0.0
 70
   128
 71
    66
 72
     5
 73
    65
  0
VERTEX
  5
1C45
  8
PROFIL
 10
0.0
 20
0.0
 30
0.0
 70
   128
 71
    67
 72
     5
 73
    66
  0
VERTEX
  5
1C46
  8
PROFIL
 10
0.0
 20
0.0
 30
0.0
 70
   128
 71
    68
 72
     5
 73
    67
  0
VERTEX
  5
1C47
  8
PROFIL
 10
0.0
 20
0.0
 30
0.0
 70
   128
 71
    68
 72
    69
 73
     5
  0
VERTEX
  5
1C48
  8
PROFIL
 10
0.0
 20
0.0
 30
0.0
 70
   128
 71
    70
 72
    69
 73
    68
  0
VERTEX
  5
1C49
  8
PROFIL
 10
0.0
 20
0.0
 30
0.0
 70
   128
 71
    71
 72
    69
 73
    70
  0
VERTEX
  5
1C4A
  8
PROFIL
 10
0.0
 20
0.0
 30
0.0
 70
   128
 71
    72
 72
    69
 73
    71
  0
VERTEX
  5
1C4B
  8
PROFIL
 10
0.0
 20
0.0
 30
0.0
 70
   128
 71
    73
 72
    69
 73
    72
  0
VERTEX
  5
1C4C
  8
PROFIL
 10
0.0
 20
0.0
 30
0.0
 70
   128
 71
    74
 72
    69
 73
    73
  0
VERTEX
  5
1C4D
  8
PROFIL
 10
0.0
 20
0.0
 30
0.0
 70
   128
 71
    75
 72
    69
 73
    74
  0
VERTEX
  5
1C4E
  8
PROFIL
 10
0.0
 20
0.0
 30
0.0
 70
   128
 71
    76
 72
    69
 73
    75
  0
VERTEX
  5
1C4F
  8
PROFIL
 10
0.0
 20
0.0
 30
0.0
 70
   128
 71
    77
 72
    69
 73
    76
  0
VERTEX
  5
1C50
  8
PROFIL
 10
0.0
 20
0.0
 30
0.0
 70
   128
 71
    78
 72
    69
 73
    77
  0
VERTEX
  5
1C51
  8
PROFIL
 10
0.0
 20
0.0
 30
0.0
 70
   128
 71
    78
 72
    49
 73
    69
  0
VERTEX
  5
1C52
  8
PROFIL
 10
0.0
 20
0.0
 30
0.0
 70
   128
 71
    78
 72
    50
 73
    49
  0
VERTEX
  5
1C53
  8
PROFIL
 10
0.0
 20
0.0
 30
0.0
 70
   128
 71
    78
 72
    40
 73
    50
  0
VERTEX
  5
1C54
  8
PROFIL
 10
0.0
 20
0.0
 30
0.0
 70
   128
 71
    79
 72
    40
 73
    78
  0
VERTEX
  5
1C55
  8
PROFIL
 10
0.0
 20
0.0
 30
0.0
 70
   128
 71
    79
 72
    39
 73
    40
  0
VERTEX
  5
1C56
  8
PROFIL
 10
0.0
 20
0.0
 30
0.0
 70
   128
 71
    80
 72
    39
 73
    79
  0
VERTEX
  5
1C57
  8
PROFIL
 10
0.0
 20
0.0
 30
0.0
 70
   128
 71
    80
 72
    81
 73
    39
  0
VERTEX
  5
1C58
  8
PROFIL
 10
0.0
 20
0.0
 30
0.0
 70
   128
 71
    82
 72
    81
 73
    80
  0
VERTEX
  5
1C59
  8
PROFIL
 10
0.0
 20
0.0
 30
0.0
 70
   128
 71
    83
 72
    81
 73
    82
  0
VERTEX
  5
1C5A
  8
PROFIL
 10
0.0
 20
0.0
 30
0.0
 70
   128
 71
    83
 72
    84
 73
    81
  0
VERTEX
  5
1C5B
  8
PROFIL
 10
0.0
 20
0.0
 30
0.0
 70
   128
 71
    85
 72
    84
 73
    83
  0
VERTEX
  5
1C5C
  8
PROFIL
 10
0.0
 20
0.0
 30
0.0
 70
   128
 71
    85
 72
    86
 73
    84
  0
VERTEX
  5
1C5D
  8
PROFIL
 10
0.0
 20
0.0
 30
0.0
 70
   128
 71
    87
 72
    86
 73
    85
  0
VERTEX
  5
1C5E
  8
PROFIL
 10
0.0
 20
0.0
 30
0.0
 70
   128
 71
    88
 72
    86
 73
    87
  0
VERTEX
  5
1C5F
  8
PROFIL
 10
0.0
 20
0.0
 30
0.0
 70
   128
 71
    88
 72
    89
 73
    86
  0
VERTEX
  5
1C60
  8
PROFIL
 10
0.0
 20
0.0
 30
0.0
 70
   128
 71
    90
 72
    89
 73
    88
  0
VERTEX
  5
1C61
  8
PROFIL
 10
0.0
 20
0.0
 30
0.0
 70
   128
 71
    91
 72
    89
 73
    90
  0
VERTEX
  5
1C62
  8
PROFIL
 10
0.0
 20
0.0
 30
0.0
 70
   128
 71
    91
 72
    92
 73
    89
  0
VERTEX
  5
1C63
  8
PROFIL
 10
0.0
 20
0.0
 30
0.0
 70
   128
 71
    93
 72
    92
 73
    91
  0
VERTEX
  5
1C64
  8
PROFIL
 10
0.0
 20
0.0
 30
0.0
 70
   128
 71
    94
 72
    92
 73
    93
  0
VERTEX
  5
1C65
  8
PROFIL
 10
0.0
 20
0.0
 30
0.0
 70
   128
 71
    95
 72
    92
 73
    94
  0
VERTEX
  5
1C66
  8
PROFIL
 10
0.0
 20
0.0
 30
0.0
 70
   128
 71
    96
 72
    92
 73
    95
  0
VERTEX
  5
1C67
  8
PROFIL
 10
0.0
 20
0.0
 30
0.0
 70
   128
 71
    97
 72
    92
 73
    96
  0
VERTEX
  5
1C68
  8
PROFIL
 10
0.0
 20
0.0
 30
0.0
 70
   128
 71
    98
 72
    92
 73
    97
  0
VERTEX
  5
1C69
  8
PROFIL
 10
0.0
 20
0.0
 30
0.0
 70
   128
 71
    99
 72
    92
 73
    98
  0
VERTEX
  5
1C6A
  8
PROFIL
 10
0.0
 20
0.0
 30
0.0
 70
   128
 71
   100
 72
    92
 73
    99
  0
VERTEX
  5
1C6B
  8
PROFIL
 10
0.0
 20
0.0
 30
0.0
 70
   128
 71
   101
 72
    92
 73
   100
  0
VERTEX
  5
1C6C
  8
PROFIL
 10
0.0
 20
0.0
 30
0.0
 70
   128
 71
   101
 72
   102
 73
    92
  0
VERTEX
  5
1C6D
  8
PROFIL
 10
0.0
 20
0.0
 30
0.0
 70
   128
 71
   103
 72
   102
 73
   101
  0
VERTEX
  5
1C6E
  8
PROFIL
 10
0.0
 20
0.0
 30
0.0
 70
   128
 71
   104
 72
   102
 73
   103
  0
VERTEX
  5
1C6F
  8
PROFIL
 10
0.0
 20
0.0
 30
0.0
 70
   128
 71
   105
 72
   102
 73
   104
  0
VERTEX
  5
1C70
  8
PROFIL
 10
0.0
 20
0.0
 30
0.0
 70
   128
 71
   106
 72
   102
 73
   105
  0
VERTEX
  5
1C71
  8
PROFIL
 10
0.0
 20
0.0
 30
0.0
 70
   128
 71
   107
 72
   102
 73
   106
  0
VERTEX
  5
1C72
  8
PROFIL
 10
0.0
 20
0.0
 30
0.0
 70
   128
 71
   108
 72
   102
 73
   107
  0
VERTEX
  5
1C73
  8
PROFIL
 10
0.0
 20
0.0
 30
0.0
 70
   128
 71
   109
 72
   102
 73
   108
  0
VERTEX
  5
1C74
  8
PROFIL
 10
0.0
 20
0.0
 30
0.0
 70
   128
 71
   110
 72
   102
 73
   109
  0
VERTEX
  5
1C75
  8
PROFIL
 10
0.0
 20
0.0
 30
0.0
 70
   128
 71
   111
 72
   102
 73
   110
  0
VERTEX
  5
1C76
  8
PROFIL
 10
0.0
 20
0.0
 30
0.0
 70
   128
 71
   111
 72
     1
 73
   102
  0
VERTEX
  5
1C77
  8
PROFIL
 10
0.0
 20
0.0
 30
0.0
 70
   128
 71
   112
 72
     1
 73
   111
  0
VERTEX
  5
1C78
  8
PROFIL
 10
0.0
 20
0.0
 30
0.0
 70
   128
 71
   113
 72
     1
 73
   112
  0
VERTEX
  5
1C79
  8
PROFIL
 10
0.0
 20
0.0
 30
0.0
 70
   128
 71
   114
 72
     1
 73
   113
  0
VERTEX
  5
1C7A
  8
PROFIL
 10
0.0
 20
0.0
 30
0.0
 70
   128
 71
   115
 72
     1
 73
   114
  0
VERTEX
  5
1C7B
  8
PROFIL
 10
0.0
 20
0.0
 30
0.0
 70
   128
 71
   116
 72
     1
 73
   115
  0
VERTEX
  5
1C7C
  8
PROFIL
 10
0.0
 20
0.0
 30
0.0
 70
   128
 71
   117
 72
     1
 73
   116
  0
VERTEX
  5
1C7D
  8
PROFIL
 10
0.0
 20
0.0
 30
0.0
 70
   128
 71
   118
 72
     1
 73
   117
  0
VERTEX
  5
1C7E
  8
PROFIL
 10
0.0
 20
0.0
 30
0.0
 70
   128
 71
   119
 72
     1
 73
   118
  0
VERTEX
  5
1C7F
  8
PROFIL
 10
0.0
 20
0.0
 30
0.0
 70
   128
 71
   120
 72
     1
 73
   119
  0
VERTEX
  5
1C80
  8
PROFIL
 10
0.0
 20
0.0
 30
0.0
 70
   128
 71
   121
 72
     1
 73
   120
  0
VERTEX
  5
1C81
  8
PROFIL
 10
0.0
 20
0.0
 30
0.0
 70
   128
 71
   122
 72
     1
 73
   121
  0
VERTEX
  5
1C82
  8
PROFIL
 10
0.0
 20
0.0
 30
0.0
 70
   128
 71
   123
 72
     1
 73
   122
  0
VERTEX
  5
1C83
  8
PROFIL
 10
0.0
 20
0.0
 30
0.0
 70
   128
 71
   124
 72
     1
 73
   123
  0
VERTEX
  5
1C84
  8
PROFIL
 10
0.0
 20
0.0
 30
0.0
 70
   128
 71
   125
 72
     1
 73
   124
  0
VERTEX
  5
1C85
  8
PROFIL
 10
0.0
 20
0.0
 30
0.0
 70
   128
 71
     2
 72
     1
 73
   125
  0
VERTEX
  5
1C86
  8
PROFIL
 10
0.0
 20
0.0
 30
0.0
 70
   128
 71
   126
 72
   127
 73
   128
  0
VERTEX
  5
1C87
  8
PROFIL
 10
0.0
 20
0.0
 30
0.0
 70
   128
 71
   129
 72
   130
 73
   131
  0
VERTEX
  5
1C88
  8
PROFIL
 10
0.0
 20
0.0
 30
0.0
 70
   128
 71
   132
 72
   133
 73
   134
  0
VERTEX
  5
1C89
  8
PROFIL
 10
0.0
 20
0.0
 30
0.0
 70
   128
 71
   135
 72
   136
 73
   137
  0
VERTEX
  5
1C8A
  8
PROFIL
 10
0.0
 20
0.0
 30
0.0
 70
   128
 71
   138
 72
   133
 73
   132
  0
VERTEX
  5
1C8B
  8
PROFIL
 10
0.0
 20
0.0
 30
0.0
 70
   128
 71
   139
 72
   133
 73
   138
  0
VERTEX
  5
1C8C
  8
PROFIL
 10
0.0
 20
0.0
 30
0.0
 70
   128
 71
   140
 72
   133
 73
   139
  0
VERTEX
  5
1C8D
  8
PROFIL
 10
0.0
 20
0.0
 30
0.0
 70
   128
 71
   141
 72
   133
 73
   140
  0
VERTEX
  5
1C8E
  8
PROFIL
 10
0.0
 20
0.0
 30
0.0
 70
   128
 71
   142
 72
   133
 73
   141
  0
VERTEX
  5
1C8F
  8
PROFIL
 10
0.0
 20
0.0
 30
0.0
 70
   128
 71
   143
 72
   133
 73
   142
  0
VERTEX
  5
1C90
  8
PROFIL
 10
0.0
 20
0.0
 30
0.0
 70
   128
 71
   144
 72
   133
 73
   143
  0
VERTEX
  5
1C91
  8
PROFIL
 10
0.0
 20
0.0
 30
0.0
 70
   128
 71
   145
 72
   133
 73
   144
  0
VERTEX
  5
1C92
  8
PROFIL
 10
0.0
 20
0.0
 30
0.0
 70
   128
 71
   146
 72
   133
 73
   145
  0
VERTEX
  5
1C93
  8
PROFIL
 10
0.0
 20
0.0
 30
0.0
 70
   128
 71
   129
 72
   147
 73
   130
  0
VERTEX
  5
1C94
  8
PROFIL
 10
0.0
 20
0.0
 30
0.0
 70
   128
 71
   129
 72
   148
 73
   147
  0
VERTEX
  5
1C95
  8
PROFIL
 10
0.0
 20
0.0
 30
0.0
 70
   128
 71
   129
 72
   149
 73
   148
  0
VERTEX
  5
1C96
  8
PROFIL
 10
0.0
 20
0.0
 30
0.0
 70
   128
 71
   129
 72
   150
 73
   149
  0
VERTEX
  5
1C97
  8
PROFIL
 10
0.0
 20
0.0
 30
0.0
 70
   128
 71
   129
 72
   151
 73
   150
  0
VERTEX
  5
1C98
  8
PROFIL
 10
0.0
 20
0.0
 30
0.0
 70
   128
 71
   129
 72
   152
 73
   151
  0
VERTEX
  5
1C99
  8
PROFIL
 10
0.0
 20
0.0
 30
0.0
 70
   128
 71
   129
 72
   153
 73
   152
  0
VERTEX
  5
1C9A
  8
PROFIL
 10
0.0
 20
0.0
 30
0.0
 70
   128
 71
   129
 72
   154
 73
   153
  0
VERTEX
  5
1C9B
  8
PROFIL
 10
0.0
 20
0.0
 30
0.0
 70
   128
 71
   129
 72
   155
 73
   154
  0
VERTEX
  5
1C9C
  8
PROFIL
 10
0.0
 20
0.0
 30
0.0
 70
   128
 71
   156
 72
   155
 73
   129
  0
VERTEX
  5
1C9D
  8
PROFIL
 10
0.0
 20
0.0
 30
0.0
 70
   128
 71
   156
 72
   157
 73
   155
  0
VERTEX
  5
1C9E
  8
PROFIL
 10
0.0
 20
0.0
 30
0.0
 70
   128
 71
   158
 72
   157
 73
   156
  0
VERTEX
  5
1C9F
  8
PROFIL
 10
0.0
 20
0.0
 30
0.0
 70
   128
 71
   159
 72
   157
 73
   158
  0
VERTEX
  5
1CA0
  8
PROFIL
 10
0.0
 20
0.0
 30
0.0
 70
   128
 71
   160
 72
   157
 73
   159
  0
VERTEX
  5
1CA1
  8
PROFIL
 10
0.0
 20
0.0
 30
0.0
 70
   128
 71
   161
 72
   157
 73
   160
  0
VERTEX
  5
1CA2
  8
PROFIL
 10
0.0
 20
0.0
 30
0.0
 70
   128
 71
   162
 72
   157
 73
   161
  0
VERTEX
  5
1CA3
  8
PROFIL
 10
0.0
 20
0.0
 30
0.0
 70
   128
 71
   163
 72
   157
 73
   162
  0
VERTEX
  5
1CA4
  8
PROFIL
 10
0.0
 20
0.0
 30
0.0
 70
   128
 71
   164
 72
   157
 73
   163
  0
VERTEX
  5
1CA5
  8
PROFIL
 10
0.0
 20
0.0
 30
0.0
 70
   128
 71
   164
 72
   165
 73
   157
  0
VERTEX
  5
1CA6
  8
PROFIL
 10
0.0
 20
0.0
 30
0.0
 70
   128
 71
   146
 72
   166
 73
   133
  0
VERTEX
  5
1CA7
  8
PROFIL
 10
0.0
 20
0.0
 30
0.0
 70
   128
 71
   146
 72
   167
 73
   166
  0
VERTEX
  5
1CA8
  8
PROFIL
 10
0.0
 20
0.0
 30
0.0
 70
   128
 71
   146
 72
   168
 73
   167
  0
VERTEX
  5
1CA9
  8
PROFIL
 10
0.0
 20
0.0
 30
0.0
 70
   128
 71
   146
 72
   169
 73
   168
  0
VERTEX
  5
1CAA
  8
PROFIL
 10
0.0
 20
0.0
 30
0.0
 70
   128
 71
   146
 72
   170
 73
   169
  0
VERTEX
  5
1CAB
  8
PROFIL
 10
0.0
 20
0.0
 30
0.0
 70
   128
 71
   146
 72
   171
 73
   170
  0
VERTEX
  5
1CAC
  8
PROFIL
 10
0.0
 20
0.0
 30
0.0
 70
   128
 71
   146
 72
   172
 73
   171
  0
VERTEX
  5
1CAD
  8
PROFIL
 10
0.0
 20
0.0
 30
0.0
 70
   128
 71
   146
 72
   173
 73
   172
  0
VERTEX
  5
1CAE
  8
PROFIL
 10
0.0
 20
0.0
 30
0.0
 70
   128
 71
   146
 72
   174
 73
   173
  0
VERTEX
  5
1CAF
  8
PROFIL
 10
0.0
 20
0.0
 30
0.0
 70
   128
 71
   175
 72
   174
 73
   146
  0
VERTEX
  5
1CB0
  8
PROFIL
 10
0.0
 20
0.0
 30
0.0
 70
   128
 71
   135
 72
   176
 73
   136
  0
VERTEX
  5
1CB1
  8
PROFIL
 10
0.0
 20
0.0
 30
0.0
 70
   128
 71
   135
 72
   177
 73
   176
  0
VERTEX
  5
1CB2
  8
PROFIL
 10
0.0
 20
0.0
 30
0.0
 70
   128
 71
   135
 72
   178
 73
   177
  0
VERTEX
  5
1CB3
  8
PROFIL
 10
0.0
 20
0.0
 30
0.0
 70
   128
 71
   135
 72
   179
 73
   178
  0
VERTEX
  5
1CB4
  8
PROFIL
 10
0.0
 20
0.0
 30
0.0
 70
   128
 71
   135
 72
   180
 73
   179
  0
VERTEX
  5
1CB5
  8
PROFIL
 10
0.0
 20
0.0
 30
0.0
 70
   128
 71
   135
 72
   181
 73
   180
  0
VERTEX
  5
1CB6
  8
PROFIL
 10
0.0
 20
0.0
 30
0.0
 70
   128
 71
   135
 72
   182
 73
   181
  0
VERTEX
  5
1CB7
  8
PROFIL
 10
0.0
 20
0.0
 30
0.0
 70
   128
 71
   135
 72
   183
 73
   182
  0
VERTEX
  5
1CB8
  8
PROFIL
 10
0.0
 20
0.0
 30
0.0
 70
   128
 71
   135
 72
   184
 73
   183
  0
VERTEX
  5
1CB9
  8
PROFIL
 10
0.0
 20
0.0
 30
0.0
 70
   128
 71
   135
 72
   185
 73
   184
  0
VERTEX
  5
1CBA
  8
PROFIL
 10
0.0
 20
0.0
 30
0.0
 70
   128
 71
   135
 72
   186
 73
   185
  0
VERTEX
  5
1CBB
  8
PROFIL
 10
0.0
 20
0.0
 30
0.0
 70
   128
 71
   135
 72
   187
 73
   186
  0
VERTEX
  5
1CBC
  8
PROFIL
 10
0.0
 20
0.0
 30
0.0
 70
   128
 71
   135
 72
   188
 73
   187
  0
VERTEX
  5
1CBD
  8
PROFIL
 10
0.0
 20
0.0
 30
0.0
 70
   128
 71
   135
 72
   189
 73
   188
  0
VERTEX
  5
1CBE
  8
PROFIL
 10
0.0
 20
0.0
 30
0.0
 70
   128
 71
   135
 72
   190
 73
   189
  0
VERTEX
  5
1CBF
  8
PROFIL
 10
0.0
 20
0.0
 30
0.0
 70
   128
 71
   135
 72
   191
 73
   190
  0
VERTEX
  5
1CC0
  8
PROFIL
 10
0.0
 20
0.0
 30
0.0
 70
   128
 71
   135
 72
   192
 73
   191
  0
VERTEX
  5
1CC1
  8
PROFIL
 10
0.0
 20
0.0
 30
0.0
 70
   128
 71
   135
 72
   193
 73
   192
  0
VERTEX
  5
1CC2
  8
PROFIL
 10
0.0
 20
0.0
 30
0.0
 70
   128
 71
   194
 72
   193
 73
   135
  0
VERTEX
  5
1CC3
  8
PROFIL
 10
0.0
 20
0.0
 30
0.0
 70
   128
 71
   194
 72
   195
 73
   193
  0
VERTEX
  5
1CC4
  8
PROFIL
 10
0.0
 20
0.0
 30
0.0
 70
   128
 71
   194
 72
   196
 73
   195
  0
VERTEX
  5
1CC5
  8
PROFIL
 10
0.0
 20
0.0
 30
0.0
 70
   128
 71
   194
 72
   197
 73
   196
  0
VERTEX
  5
1CC6
  8
PROFIL
 10
0.0
 20
0.0
 30
0.0
 70
   128
 71
   194
 72
   198
 73
   197
  0
VERTEX
  5
1CC7
  8
PROFIL
 10
0.0
 20
0.0
 30
0.0
 70
   128
 71
   194
 72
   199
 73
   198
  0
VERTEX
  5
1CC8
  8
PROFIL
 10
0.0
 20
0.0
 30
0.0
 70
   128
 71
   194
 72
   200
 73
   199
  0
VERTEX
  5
1CC9
  8
PROFIL
 10
0.0
 20
0.0
 30
0.0
 70
   128
 71
   194
 72
   201
 73
   200
  0
VERTEX
  5
1CCA
  8
PROFIL
 10
0.0
 20
0.0
 30
0.0
 70
   128
 71
   194
 72
   202
 73
   201
  0
VERTEX
  5
1CCB
  8
PROFIL
 10
0.0
 20
0.0
 30
0.0
 70
   128
 71
   194
 72
   203
 73
   202
  0
VERTEX
  5
1CCC
  8
PROFIL
 10
0.0
 20
0.0
 30
0.0
 70
   128
 71
   174
 72
   203
 73
   194
  0
VERTEX
  5
1CCD
  8
PROFIL
 10
0.0
 20
0.0
 30
0.0
 70
   128
 71
   175
 72
   203
 73
   174
  0
VERTEX
  5
1CCE
  8
PROFIL
 10
0.0
 20
0.0
 30
0.0
 70
   128
 71
   165
 72
   203
 73
   175
  0
VERTEX
  5
1CCF
  8
PROFIL
 10
0.0
 20
0.0
 30
0.0
 70
   128
 71
   165
 72
   204
 73
   203
  0
VERTEX
  5
1CD0
  8
PROFIL
 10
0.0
 20
0.0
 30
0.0
 70
   128
 71
   164
 72
   204
 73
   165
  0
VERTEX
  5
1CD1
  8
PROFIL
 10
0.0
 20
0.0
 30
0.0
 70
   128
 71
   164
 72
   205
 73
   204
  0
VERTEX
  5
1CD2
  8
PROFIL
 10
0.0
 20
0.0
 30
0.0
 70
   128
 71
   206
 72
   205
 73
   164
  0
VERTEX
  5
1CD3
  8
PROFIL
 10
0.0
 20
0.0
 30
0.0
 70
   128
 71
   206
 72
   207
 73
   205
  0
VERTEX
  5
1CD4
  8
PROFIL
 10
0.0
 20
0.0
 30
0.0
 70
   128
 71
   206
 72
   208
 73
   207
  0
VERTEX
  5
1CD5
  8
PROFIL
 10
0.0
 20
0.0
 30
0.0
 70
   128
 71
   209
 72
   208
 73
   206
  0
VERTEX
  5
1CD6
  8
PROFIL
 10
0.0
 20
0.0
 30
0.0
 70
   128
 71
   209
 72
   210
 73
   208
  0
VERTEX
  5
1CD7
  8
PROFIL
 10
0.0
 20
0.0
 30
0.0
 70
   128
 71
   211
 72
   210
 73
   209
  0
VERTEX
  5
1CD8
  8
PROFIL
 10
0.0
 20
0.0
 30
0.0
 70
   128
 71
   211
 72
   212
 73
   210
  0
VERTEX
  5
1CD9
  8
PROFIL
 10
0.0
 20
0.0
 30
0.0
 70
   128
 71
   211
 72
   213
 73
   212
  0
VERTEX
  5
1CDA
  8
PROFIL
 10
0.0
 20
0.0
 30
0.0
 70
   128
 71
   214
 72
   213
 73
   211
  0
VERTEX
  5
1CDB
  8
PROFIL
 10
0.0
 20
0.0
 30
0.0
 70
   128
 71
   214
 72
   215
 73
   213
  0
VERTEX
  5
1CDC
  8
PROFIL
 10
0.0
 20
0.0
 30
0.0
 70
   128
 71
   216
 72
   215
 73
   214
  0
VERTEX
  5
1CDD
  8
PROFIL
 10
0.0
 20
0.0
 30
0.0
 70
   128
 71
   216
 72
   217
 73
   215
  0
VERTEX
  5
1CDE
  8
PROFIL
 10
0.0
 20
0.0
 30
0.0
 70
   128
 71
   216
 72
   218
 73
   217
  0
VERTEX
  5
1CDF
  8
PROFIL
 10
0.0
 20
0.0
 30
0.0
 70
   128
 71
   216
 72
   219
 73
   218
  0
VERTEX
  5
1CE0
  8
PROFIL
 10
0.0
 20
0.0
 30
0.0
 70
   128
 71
   216
 72
   220
 73
   219
  0
VERTEX
  5
1CE1
  8
PROFIL
 10
0.0
 20
0.0
 30
0.0
 70
   128
 71
   216
 72
   221
 73
   220
  0
VERTEX
  5
1CE2
  8
PROFIL
 10
0.0
 20
0.0
 30
0.0
 70
   128
 71
   216
 72
   222
 73
   221
  0
VERTEX
  5
1CE3
  8
PROFIL
 10
0.0
 20
0.0
 30
0.0
 70
   128
 71
   216
 72
   223
 73
   222
  0
VERTEX
  5
1CE4
  8
PROFIL
 10
0.0
 20
0.0
 30
0.0
 70
   128
 71
   216
 72
   224
 73
   223
  0
VERTEX
  5
1CE5
  8
PROFIL
 10
0.0
 20
0.0
 30
0.0
 70
   128
 71
   216
 72
   225
 73
   224
  0
VERTEX
  5
1CE6
  8
PROFIL
 10
0.0
 20
0.0
 30
0.0
 70
   128
 71
   216
 72
   226
 73
   225
  0
VERTEX
  5
1CE7
  8
PROFIL
 10
0.0
 20
0.0
 30
0.0
 70
   128
 71
   227
 72
   226
 73
   216
  0
VERTEX
  5
1CE8
  8
PROFIL
 10
0.0
 20
0.0
 30
0.0
 70
   128
 71
   227
 72
   228
 73
   226
  0
VERTEX
  5
1CE9
  8
PROFIL
 10
0.0
 20
0.0
 30
0.0
 70
   128
 71
   227
 72
   229
 73
   228
  0
VERTEX
  5
1CEA
  8
PROFIL
 10
0.0
 20
0.0
 30
0.0
 70
   128
 71
   227
 72
   230
 73
   229
  0
VERTEX
  5
1CEB
  8
PROFIL
 10
0.0
 20
0.0
 30
0.0
 70
   128
 71
   227
 72
   231
 73
   230
  0
VERTEX
  5
1CEC
  8
PROFIL
 10
0.0
 20
0.0
 30
0.0
 70
   128
 71
   227
 72
   232
 73
   231
  0
VERTEX
  5
1CED
  8
PROFIL
 10
0.0
 20
0.0
 30
0.0
 70
   128
 71
   227
 72
   233
 73
   232
  0
VERTEX
  5
1CEE
  8
PROFIL
 10
0.0
 20
0.0
 30
0.0
 70
   128
 71
   227
 72
   234
 73
   233
  0
VERTEX
  5
1CEF
  8
PROFIL
 10
0.0
 20
0.0
 30
0.0
 70
   128
 71
   227
 72
   235
 73
   234
  0
VERTEX
  5
1CF0
  8
PROFIL
 10
0.0
 20
0.0
 30
0.0
 70
   128
 71
   227
 72
   126
 73
   235
  0
VERTEX
  5
1CF1
  8
PROFIL
 10
0.0
 20
0.0
 30
0.0
 70
   128
 71
   236
 72
   126
 73
   227
  0
VERTEX
  5
1CF2
  8
PROFIL
 10
0.0
 20
0.0
 30
0.0
 70
   128
 71
   237
 72
   126
 73
   236
  0
VERTEX
  5
1CF3
  8
PROFIL
 10
0.0
 20
0.0
 30
0.0
 70
   128
 71
   238
 72
   126
 73
   237
  0
VERTEX
  5
1CF4
  8
PROFIL
 10
0.0
 20
0.0
 30
0.0
 70
   128
 71
   239
 72
   126
 73
   238
  0
VERTEX
  5
1CF5
  8
PROFIL
 10
0.0
 20
0.0
 30
0.0
 70
   128
 71
   240
 72
   126
 73
   239
  0
VERTEX
  5
1CF6
  8
PROFIL
 10
0.0
 20
0.0
 30
0.0
 70
   128
 71
   241
 72
   126
 73
   240
  0
VERTEX
  5
1CF7
  8
PROFIL
 10
0.0
 20
0.0
 30
0.0
 70
   128
 71
   242
 72
   126
 73
   241
  0
VERTEX
  5
1CF8
  8
PROFIL
 10
0.0
 20
0.0
 30
0.0
 70
   128
 71
   243
 72
   126
 73
   242
  0
VERTEX
  5
1CF9
  8
PROFIL
 10
0.0
 20
0.0
 30
0.0
 70
   128
 71
   244
 72
   126
 73
   243
  0
VERTEX
  5
1CFA
  8
PROFIL
 10
0.0
 20
0.0
 30
0.0
 70
   128
 71
   245
 72
   126
 73
   244
  0
VERTEX
  5
1CFB
  8
PROFIL
 10
0.0
 20
0.0
 30
0.0
 70
   128
 71
   246
 72
   126
 73
   245
  0
VERTEX
  5
1CFC
  8
PROFIL
 10
0.0
 20
0.0
 30
0.0
 70
   128
 71
   247
 72
   126
 73
   246
  0
VERTEX
  5
1CFD
  8
PROFIL
 10
0.0
 20
0.0
 30
0.0
 70
   128
 71
   248
 72
   126
 73
   247
  0
VERTEX
  5
1CFE
  8
PROFIL
 10
0.0
 20
0.0
 30
0.0
 70
   128
 71
   249
 72
   126
 73
   248
  0
VERTEX
  5
1CFF
  8
PROFIL
 10
0.0
 20
0.0
 30
0.0
 70
   128
 71
   250
 72
   126
 73
   249
  0
VERTEX
  5
1D00
  8
PROFIL
 10
0.0
 20
0.0
 30
0.0
 70
   128
 71
   127
 72
   126
 73
   250
  0
VERTEX
  5
1D01
  8
PROFIL
 10
0.0
 20
0.0
 30
0.0
 70
   128
 71
   251
 72
   252
 73
   253
  0
VERTEX
  5
1D02
  8
PROFIL
 10
0.0
 20
0.0
 30
0.0
 70
   128
 71
   252
 72
   251
 73
   254
  0
VERTEX
  5
1D03
  8
PROFIL
 10
0.0
 20
0.0
 30
0.0
 70
   128
 71
   255
 72
   256
 73
   257
  0
VERTEX
  5
1D04
  8
PROFIL
 10
0.0
 20
0.0
 30
0.0
 70
   128
 71
   256
 72
   255
 73
   258
  0
VERTEX
  5
1D05
  8
PROFIL
 10
0.0
 20
0.0
 30
0.0
 70
   128
 71
   259
 72
   260
 73
   261
  0
VERTEX
  5
1D06
  8
PROFIL
 10
0.0
 20
0.0
 30
0.0
 70
   128
 71
   260
 72
   259
 73
   262
  0
VERTEX
  5
1D07
  8
PROFIL
 10
0.0
 20
0.0
 30
0.0
 70
   128
 71
   263
 72
   264
 73
   265
  0
VERTEX
  5
1D08
  8
PROFIL
 10
0.0
 20
0.0
 30
0.0
 70
   128
 71
   264
 72
   263
 73
   266
  0
VERTEX
  5
1D09
  8
PROFIL
 10
0.0
 20
0.0
 30
0.0
 70
   128
 71
   267
 72
   268
 73
   269
  0
VERTEX
  5
1D0A
  8
PROFIL
 10
0.0
 20
0.0
 30
0.0
 70
   128
 71
   268
 72
   267
 73
   270
  0
VERTEX
  5
1D0B
  8
PROFIL
 10
0.0
 20
0.0
 30
0.0
 70
   128
 71
   271
 72
   272
 73
   273
  0
VERTEX
  5
1D0C
  8
PROFIL
 10
0.0
 20
0.0
 30
0.0
 70
   128
 71
   274
 72
   275
 73
   276
  0
VERTEX
  5
1D0D
  8
PROFIL
 10
0.0
 20
0.0
 30
0.0
 70
   128
 71
   274
 72
   277
 73
   275
  0
VERTEX
  5
1D0E
  8
PROFIL
 10
0.0
 20
0.0
 30
0.0
 70
   128
 71
   278
 72
   277
 73
   274
  0
VERTEX
  5
1D0F
  8
PROFIL
 10
0.0
 20
0.0
 30
0.0
 70
   128
 71
   278
 72
   279
 73
   277
  0
VERTEX
  5
1D10
  8
PROFIL
 10
0.0
 20
0.0
 30
0.0
 70
   128
 71
   280
 72
   279
 73
   278
  0
VERTEX
  5
1D11
  8
PROFIL
 10
0.0
 20
0.0
 30
0.0
 70
   128
 71
   280
 72
   281
 73
   279
  0
VERTEX
  5
1D12
  8
PROFIL
 10
0.0
 20
0.0
 30
0.0
 70
   128
 71
   282
 72
   281
 73
   280
  0
VERTEX
  5
1D13
  8
PROFIL
 10
0.0
 20
0.0
 30
0.0
 70
   128
 71
   282
 72
   283
 73
   281
  0
VERTEX
  5
1D14
  8
PROFIL
 10
0.0
 20
0.0
 30
0.0
 70
   128
 71
   284
 72
   283
 73
   282
  0
VERTEX
  5
1D15
  8
PROFIL
 10
0.0
 20
0.0
 30
0.0
 70
   128
 71
   284
 72
   285
 73
   283
  0
VERTEX
  5
1D16
  8
PROFIL
 10
0.0
 20
0.0
 30
0.0
 70
   128
 71
   286
 72
   285
 73
   284
  0
VERTEX
  5
1D17
  8
PROFIL
 10
0.0
 20
0.0
 30
0.0
 70
   128
 71
   286
 72
   287
 73
   285
  0
VERTEX
  5
1D18
  8
PROFIL
 10
0.0
 20
0.0
 30
0.0
 70
   128
 71
   288
 72
   287
 73
   286
  0
VERTEX
  5
1D19
  8
PROFIL
 10
0.0
 20
0.0
 30
0.0
 70
   128
 71
   288
 72
   271
 73
   287
  0
VERTEX
  5
1D1A
  8
PROFIL
 10
0.0
 20
0.0
 30
0.0
 70
   128
 71
   272
 72
   271
 73
   288
  0
VERTEX
  5
1D1B
  8
PROFIL
 10
0.0
 20
0.0
 30
0.0
 70
   128
 71
   289
 72
   290
 73
   291
  0
VERTEX
  5
1D1C
  8
PROFIL
 10
0.0
 20
0.0
 30
0.0
 70
   128
 71
   290
 72
   289
 73
   292
  0
VERTEX
  5
1D1D
  8
PROFIL
 10
0.0
 20
0.0
 30
0.0
 70
   128
 71
   293
 72
   294
 73
   295
  0
VERTEX
  5
1D1E
  8
PROFIL
 10
0.0
 20
0.0
 30
0.0
 70
   128
 71
   294
 72
   293
 73
   296
  0
VERTEX
  5
1D1F
  8
PROFIL
 10
0.0
 20
0.0
 30
0.0
 70
   128
 71
   297
 72
   298
 73
   299
  0
VERTEX
  5
1D20
  8
PROFIL
 10
0.0
 20
0.0
 30
0.0
 70
   128
 71
   300
 72
   301
 73
   302
  0
VERTEX
  5
1D21
  8
PROFIL
 10
0.0
 20
0.0
 30
0.0
 70
   128
 71
   300
 72
   303
 73
   301
  0
VERTEX
  5
1D22
  8
PROFIL
 10
0.0
 20
0.0
 30
0.0
 70
   128
 71
   304
 72
   303
 73
   300
  0
VERTEX
  5
1D23
  8
PROFIL
 10
0.0
 20
0.0
 30
0.0
 70
   128
 71
   304
 72
   305
 73
   303
  0
VERTEX
  5
1D24
  8
PROFIL
 10
0.0
 20
0.0
 30
0.0
 70
   128
 71
   306
 72
   305
 73
   304
  0
VERTEX
  5
1D25
  8
PROFIL
 10
0.0
 20
0.0
 30
0.0
 70
   128
 71
   306
 72
   307
 73
   305
  0
VERTEX
  5
1D26
  8
PROFIL
 10
0.0
 20
0.0
 30
0.0
 70
   128
 71
   308
 72
   307
 73
   306
  0
VERTEX
  5
1D27
  8
PROFIL
 10
0.0
 20
0.0
 30
0.0
 70
   128
 71
   308
 72
   309
 73
   307
  0
VERTEX
  5
1D28
  8
PROFIL
 10
0.0
 20
0.0
 30
0.0
 70
   128
 71
   310
 72
   309
 73
   308
  0
VERTEX
  5
1D29
  8
PROFIL
 10
0.0
 20
0.0
 30
0.0
 70
   128
 71
   310
 72
   311
 73
   309
  0
VERTEX
  5
1D2A
  8
PROFIL
 10
0.0
 20
0.0
 30
0.0
 70
   128
 71
   312
 72
   311
 73
   310
  0
VERTEX
  5
1D2B
  8
PROFIL
 10
0.0
 20
0.0
 30
0.0
 70
   128
 71
   312
 72
   313
 73
   311
  0
VERTEX
  5
1D2C
  8
PROFIL
 10
0.0
 20
0.0
 30
0.0
 70
   128
 71
   314
 72
   313
 73
   312
  0
VERTEX
  5
1D2D
  8
PROFIL
 10
0.0
 20
0.0
 30
0.0
 70
   128
 71
   314
 72
   297
 73
   313
  0
VERTEX
  5
1D2E
  8
PROFIL
 10
0.0
 20
0.0
 30
0.0
 70
   128
 71
   298
 72
   297
 73
   314
  0
VERTEX
  5
1D2F
  8
PROFIL
 10
0.0
 20
0.0
 30
0.0
 70
   128
 71
   315
 72
   316
 73
   317
  0
VERTEX
  5
1D30
  8
PROFIL
 10
0.0
 20
0.0
 30
0.0
 70
   128
 71
   316
 72
   315
 73
   318
  0
VERTEX
  5
1D31
  8
PROFIL
 10
0.0
 20
0.0
 30
0.0
 70
   128
 71
   319
 72
   320
 73
   321
  0
VERTEX
  5
1D32
  8
PROFIL
 10
0.0
 20
0.0
 30
0.0
 70
   128
 71
   320
 72
   319
 73
   322
  0
VERTEX
  5
1D33
  8
PROFIL
 10
0.0
 20
0.0
 30
0.0
 70
   128
 71
   323
 72
   324
 73
   325
  0
VERTEX
  5
1D34
  8
PROFIL
 10
0.0
 20
0.0
 30
0.0
 70
   128
 71
   324
 72
   323
 73
   326
  0
VERTEX
  5
1D35
  8
PROFIL
 10
0.0
 20
0.0
 30
0.0
 70
   128
 71
   327
 72
   328
 73
   329
  0
VERTEX
  5
1D36
  8
PROFIL
 10
0.0
 20
0.0
 30
0.0
 70
   128
 71
   328
 72
   327
 73
   330
  0
VERTEX
  5
1D37
  8
PROFIL
 10
0.0
 20
0.0
 30
0.0
 70
   128
 71
   331
 72
   332
 73
   333
  0
VERTEX
  5
1D38
  8
PROFIL
 10
0.0
 20
0.0
 30
0.0
 70
   128
 71
   334
 72
   335
 73
   336
  0
VERTEX
  5
1D39
  8
PROFIL
 10
0.0
 20
0.0
 30
0.0
 70
   128
 71
   332
 72
   335
 73
   334
  0
VERTEX
  5
1D3A
  8
PROFIL
 10
0.0
 20
0.0
 30
0.0
 70
   128
 71
   332
 72
   331
 73
   335
  0
VERTEX
  5
1D3B
  8
PROFIL
 10
0.0
 20
0.0
 30
0.0
 70
   128
 71
   337
 72
   338
 73
   339
  0
VERTEX
  5
1D3C
  8
PROFIL
 10
0.0
 20
0.0
 30
0.0
 70
   128
 71
   338
 72
   337
 73
   340
  0
VERTEX
  5
1D3D
  8
PROFIL
 10
0.0
 20
0.0
 30
0.0
 70
   128
 71
   341
 72
   342
 73
   343
  0
VERTEX
  5
1D3E
  8
PROFIL
 10
0.0
 20
0.0
 30
0.0
 70
   128
 71
   344
 72
   345
 73
   346
  0
VERTEX
  5
1D3F
  8
PROFIL
 10
0.0
 20
0.0
 30
0.0
 70
   128
 71
   347
 72
   345
 73
   344
  0
VERTEX
  5
1D40
  8
PROFIL
 10
0.0
 20
0.0
 30
0.0
 70
   128
 71
   347
 72
   348
 73
   345
  0
VERTEX
  5
1D41
  8
PROFIL
 10
0.0
 20
0.0
 30
0.0
 70
   128
 71
   349
 72
   348
 73
   347
  0
VERTEX
  5
1D42
  8
PROFIL
 10
0.0
 20
0.0
 30
0.0
 70
   128
 71
   349
 72
   350
 73
   348
  0
VERTEX
  5
1D43
  8
PROFIL
 10
0.0
 20
0.0
 30
0.0
 70
   128
 71
   351
 72
   350
 73
   349
  0
VERTEX
  5
1D44
  8
PROFIL
 10
0.0
 20
0.0
 30
0.0
 70
   128
 71
   351
 72
   352
 73
   350
  0
VERTEX
  5
1D45
  8
PROFIL
 10
0.0
 20
0.0
 30
0.0
 70
   128
 71
   353
 72
   352
 73
   351
  0
VERTEX
  5
1D46
  8
PROFIL
 10
0.0
 20
0.0
 30
0.0
 70
   128
 71
   353
 72
   354
 73
   352
  0
VERTEX
  5
1D47
  8
PROFIL
 10
0.0
 20
0.0
 30
0.0
 70
   128
 71
   355
 72
   354
 73
   353
  0
VERTEX
  5
1D48
  8
PROFIL
 10
0.0
 20
0.0
 30
0.0
 70
   128
 71
   355
 72
   356
 73
   354
  0
VERTEX
  5
1D49
  8
PROFIL
 10
0.0
 20
0.0
 30
0.0
 70
   128
 71
   357
 72
   356
 73
   355
  0
VERTEX
  5
1D4A
  8
PROFIL
 10
0.0
 20
0.0
 30
0.0
 70
   128
 71
   357
 72
   358
 73
   356
  0
VERTEX
  5
1D4B
  8
PROFIL
 10
0.0
 20
0.0
 30
0.0
 70
   128
 71
   342
 72
   358
 73
   357
  0
VERTEX
  5
1D4C
  8
PROFIL
 10
0.0
 20
0.0
 30
0.0
 70
   128
 71
   342
 72
   341
 73
   358
  0
VERTEX
  5
1D4D
  8
PROFIL
 10
0.0
 20
0.0
 30
0.0
 70
   128
 71
   359
 72
   360
 73
   361
  0
VERTEX
  5
1D4E
  8
PROFIL
 10
0.0
 20
0.0
 30
0.0
 70
   128
 71
   360
 72
   359
 73
   362
  0
VERTEX
  5
1D4F
  8
PROFIL
 10
0.0
 20
0.0
 30
0.0
 70
   128
 71
   363
 72
   364
 73
   365
  0
VERTEX
  5
1D50
  8
PROFIL
 10
0.0
 20
0.0
 30
0.0
 70
   128
 71
   364
 72
   363
 73
   366
  0
VERTEX
  5
1D51
  8
PROFIL
 10
0.0
 20
0.0
 30
0.0
 70
   128
 71
   367
 72
   368
 73
   369
  0
VERTEX
  5
1D52
  8
PROFIL
 10
0.0
 20
0.0
 30
0.0
 70
   128
 71
   370
 72
   371
 73
   372
  0
VERTEX
  5
1D53
  8
PROFIL
 10
0.0
 20
0.0
 30
0.0
 70
   128
 71
   370
 72
   367
 73
   371
  0
VERTEX
  5
1D54
  8
PROFIL
 10
0.0
 20
0.0
 30
0.0
 70
   128
 71
   368
 72
   367
 73
   370
  0
VERTEX
  5
1D55
  8
PROFIL
 10
0.0
 20
0.0
 30
0.0
 70
   128
 71
   373
 72
   374
 73
   375
  0
VERTEX
  5
1D56
  8
PROFIL
 10
0.0
 20
0.0
 30
0.0
 70
   128
 71
   376
 72
   377
 73
   378
  0
VERTEX
  5
1D57
  8
PROFIL
 10
0.0
 20
0.0
 30
0.0
 70
   128
 71
   379
 72
   377
 73
   376
  0
VERTEX
  5
1D58
  8
PROFIL
 10
0.0
 20
0.0
 30
0.0
 70
   128
 71
   379
 72
   380
 73
   377
  0
VERTEX
  5
1D59
  8
PROFIL
 10
0.0
 20
0.0
 30
0.0
 70
   128
 71
   381
 72
   380
 73
   379
  0
VERTEX
  5
1D5A
  8
PROFIL
 10
0.0
 20
0.0
 30
0.0
 70
   128
 71
   381
 72
   382
 73
   380
  0
VERTEX
  5
1D5B
  8
PROFIL
 10
0.0
 20
0.0
 30
0.0
 70
   128
 71
   383
 72
   382
 73
   381
  0
VERTEX
  5
1D5C
  8
PROFIL
 10
0.0
 20
0.0
 30
0.0
 70
   128
 71
   383
 72
   384
 73
   382
  0
VERTEX
  5
1D5D
  8
PROFIL
 10
0.0
 20
0.0
 30
0.0
 70
   128
 71
   385
 72
   384
 73
   383
  0
VERTEX
  5
1D5E
  8
PROFIL
 10
0.0
 20
0.0
 30
0.0
 70
   128
 71
   385
 72
   386
 73
   384
  0
VERTEX
  5
1D5F
  8
PROFIL
 10
0.0
 20
0.0
 30
0.0
 70
   128
 71
   387
 72
   386
 73
   385
  0
VERTEX
  5
1D60
  8
PROFIL
 10
0.0
 20
0.0
 30
0.0
 70
   128
 71
   387
 72
   388
 73
   386
  0
VERTEX
  5
1D61
  8
PROFIL
 10
0.0
 20
0.0
 30
0.0
 70
   128
 71
   389
 72
   388
 73
   387
  0
VERTEX
  5
1D62
  8
PROFIL
 10
0.0
 20
0.0
 30
0.0
 70
   128
 71
   389
 72
   390
 73
   388
  0
VERTEX
  5
1D63
  8
PROFIL
 10
0.0
 20
0.0
 30
0.0
 70
   128
 71
   374
 72
   390
 73
   389
  0
VERTEX
  5
1D64
  8
PROFIL
 10
0.0
 20
0.0
 30
0.0
 70
   128
 71
   374
 72
   373
 73
   390
  0
VERTEX
  5
1D65
  8
PROFIL
 10
0.0
 20
0.0
 30
0.0
 70
   128
 71
   391
 72
   392
 73
   393
  0
VERTEX
  5
1D66
  8
PROFIL
 10
0.0
 20
0.0
 30
0.0
 70
   128
 71
   392
 72
   391
 73
   394
  0
VERTEX
  5
1D67
  8
PROFIL
 10
0.0
 20
0.0
 30
0.0
 70
   128
 71
   395
 72
   396
 73
   397
  0
VERTEX
  5
1D68
  8
PROFIL
 10
0.0
 20
0.0
 30
0.0
 70
   128
 71
   398
 72
   399
 73
   400
  0
VERTEX
  5
1D69
  8
PROFIL
 10
0.0
 20
0.0
 30
0.0
 70
   128
 71
   401
 72
   399
 73
   398
  0
VERTEX
  5
1D6A
  8
PROFIL
 10
0.0
 20
0.0
 30
0.0
 70
   128
 71
   401
 72
   396
 73
   399
  0
VERTEX
  5
1D6B
  8
PROFIL
 10
0.0
 20
0.0
 30
0.0
 70
   128
 71
   397
 72
   396
 73
   401
  0
VERTEX
  5
1D6C
  8
PROFIL
 10
0.0
 20
0.0
 30
0.0
 70
   128
 71
   402
 72
   403
 73
   404
  0
VERTEX
  5
1D6D
  8
PROFIL
 10
0.0
 20
0.0
 30
0.0
 70
   128
 71
   402
 72
   405
 73
   403
  0
VERTEX
  5
1D6E
  8
PROFIL
 10
0.0
 20
0.0
 30
0.0
 70
   128
 71
   406
 72
   405
 73
   402
  0
VERTEX
  5
1D6F
  8
PROFIL
 10
0.0
 20
0.0
 30
0.0
 70
   128
 71
   406
 72
   407
 73
   405
  0
VERTEX
  5
1D70
  8
PROFIL
 10
0.0
 20
0.0
 30
0.0
 70
   128
 71
   408
 72
   407
 73
   406
  0
VERTEX
  5
1D71
  8
PROFIL
 10
0.0
 20
0.0
 30
0.0
 70
   128
 71
   408
 72
   409
 73
   407
  0
VERTEX
  5
1D72
  8
PROFIL
 10
0.0
 20
0.0
 30
0.0
 70
   128
 71
   410
 72
   409
 73
   408
  0
VERTEX
  5
1D73
  8
PROFIL
 10
0.0
 20
0.0
 30
0.0
 70
   128
 71
   410
 72
   411
 73
   409
  0
VERTEX
  5
1D74
  8
PROFIL
 10
0.0
 20
0.0
 30
0.0
 70
   128
 71
   412
 72
   411
 73
   410
  0
VERTEX
  5
1D75
  8
PROFIL
 10
0.0
 20
0.0
 30
0.0
 70
   128
 71
   412
 72
   395
 73
   411
  0
VERTEX
  5
1D76
  8
PROFIL
 10
0.0
 20
0.0
 30
0.0
 70
   128
 71
   396
 72
   395
 73
   412
  0
VERTEX
  5
1D77
  8
PROFIL
 10
0.0
 20
0.0
 30
0.0
 70
   128
 71
   413
 72
   414
 73
   415
  0
VERTEX
  5
1D78
  8
PROFIL
 10
0.0
 20
0.0
 30
0.0
 70
   128
 71
   414
 72
   413
 73
   416
  0
VERTEX
  5
1D79
  8
PROFIL
 10
0.0
 20
0.0
 30
0.0
 70
   128
 71
   417
 72
   418
 73
   419
  0
VERTEX
  5
1D7A
  8
PROFIL
 10
0.0
 20
0.0
 30
0.0
 70
   128
 71
   418
 72
   417
 73
   420
  0
VERTEX
  5
1D7B
  8
PROFIL
 10
0.0
 20
0.0
 30
0.0
 70
   128
 71
   421
 72
   422
 73
   423
  0
VERTEX
  5
1D7C
  8
PROFIL
 10
0.0
 20
0.0
 30
0.0
 70
   128
 71
   422
 72
   421
 73
   424
  0
VERTEX
  5
1D7D
  8
PROFIL
 10
0.0
 20
0.0
 30
0.0
 70
   128
 71
   425
 72
   426
 73
   427
  0
VERTEX
  5
1D7E
  8
PROFIL
 10
0.0
 20
0.0
 30
0.0
 70
   128
 71
   428
 72
   429
 73
   430
  0
VERTEX
  5
1D7F
  8
PROFIL
 10
0.0
 20
0.0
 30
0.0
 70
   128
 71
   428
 72
   431
 73
   429
  0
VERTEX
  5
1D80
  8
PROFIL
 10
0.0
 20
0.0
 30
0.0
 70
   128
 71
   432
 72
   431
 73
   428
  0
VERTEX
  5
1D81
  8
PROFIL
 10
0.0
 20
0.0
 30
0.0
 70
   128
 71
   432
 72
   433
 73
   431
  0
VERTEX
  5
1D82
  8
PROFIL
 10
0.0
 20
0.0
 30
0.0
 70
   128
 71
   434
 72
   433
 73
   432
  0
VERTEX
  5
1D83
  8
PROFIL
 10
0.0
 20
0.0
 30
0.0
 70
   128
 71
   434
 72
   435
 73
   433
  0
VERTEX
  5
1D84
  8
PROFIL
 10
0.0
 20
0.0
 30
0.0
 70
   128
 71
   436
 72
   435
 73
   434
  0
VERTEX
  5
1D85
  8
PROFIL
 10
0.0
 20
0.0
 30
0.0
 70
   128
 71
   436
 72
   437
 73
   435
  0
VERTEX
  5
1D86
  8
PROFIL
 10
0.0
 20
0.0
 30
0.0
 70
   128
 71
   438
 72
   437
 73
   436
  0
VERTEX
  5
1D87
  8
PROFIL
 10
0.0
 20
0.0
 30
0.0
 70
   128
 71
   438
 72
   439
 73
   437
  0
VERTEX
  5
1D88
  8
PROFIL
 10
0.0
 20
0.0
 30
0.0
 70
   128
 71
   440
 72
   439
 73
   438
  0
VERTEX
  5
1D89
  8
PROFIL
 10
0.0
 20
0.0
 30
0.0
 70
   128
 71
   440
 72
   441
 73
   439
  0
VERTEX
  5
1D8A
  8
PROFIL
 10
0.0
 20
0.0
 30
0.0
 70
   128
 71
   442
 72
   441
 73
   440
  0
VERTEX
  5
1D8B
  8
PROFIL
 10
0.0
 20
0.0
 30
0.0
 70
   128
 71
   442
 72
   425
 73
   441
  0
VERTEX
  5
1D8C
  8
PROFIL
 10
0.0
 20
0.0
 30
0.0
 70
   128
 71
   426
 72
   425
 73
   442
  0
VERTEX
  5
1D8D
  8
PROFIL
 10
0.0
 20
0.0
 30
0.0
 70
   128
 71
   443
 72
   444
 73
   445
  0
VERTEX
  5
1D8E
  8
PROFIL
 10
0.0
 20
0.0
 30
0.0
 70
   128
 71
   444
 72
   443
 73
   446
  0
VERTEX
  5
1D8F
  8
PROFIL
 10
0.0
 20
0.0
 30
0.0
 70
   128
 71
   447
 72
   448
 73
   449
  0
VERTEX
  5
1D90
  8
PROFIL
 10
0.0
 20
0.0
 30
0.0
 70
   128
 71
   450
 72
   451
 73
   452
  0
VERTEX
  5
1D91
  8
PROFIL
 10
0.0
 20
0.0
 30
0.0
 70
   128
 71
   453
 72
   451
 73
   450
  0
VERTEX
  5
1D92
  8
PROFIL
 10
0.0
 20
0.0
 30
0.0
 70
   128
 71
   453
 72
   454
 73
   451
  0
VERTEX
  5
1D93
  8
PROFIL
 10
0.0
 20
0.0
 30
0.0
 70
   128
 71
   455
 72
   454
 73
   453
  0
VERTEX
  5
1D94
  8
PROFIL
 10
0.0
 20
0.0
 30
0.0
 70
   128
 71
   455
 72
   456
 73
   454
  0
VERTEX
  5
1D95
  8
PROFIL
 10
0.0
 20
0.0
 30
0.0
 70
   128
 71
   457
 72
   456
 73
   455
  0
VERTEX
  5
1D96
  8
PROFIL
 10
0.0
 20
0.0
 30
0.0
 70
   128
 71
   457
 72
   458
 73
   456
  0
VERTEX
  5
1D97
  8
PROFIL
 10
0.0
 20
0.0
 30
0.0
 70
   128
 71
   459
 72
   458
 73
   457
  0
VERTEX
  5
1D98
  8
PROFIL
 10
0.0
 20
0.0
 30
0.0
 70
   128
 71
   459
 72
   460
 73
   458
  0
VERTEX
  5
1D99
  8
PROFIL
 10
0.0
 20
0.0
 30
0.0
 70
   128
 71
   461
 72
   460
 73
   459
  0
VERTEX
  5
1D9A
  8
PROFIL
 10
0.0
 20
0.0
 30
0.0
 70
   128
 71
   461
 72
   462
 73
   460
  0
VERTEX
  5
1D9B
  8
PROFIL
 10
0.0
 20
0.0
 30
0.0
 70
   128
 71
   463
 72
   462
 73
   461
  0
VERTEX
  5
1D9C
  8
PROFIL
 10
0.0
 20
0.0
 30
0.0
 70
   128
 71
   463
 72
   464
 73
   462
  0
VERTEX
  5
1D9D
  8
PROFIL
 10
0.0
 20
0.0
 30
0.0
 70
   128
 71
   448
 72
   464
 73
   463
  0
VERTEX
  5
1D9E
  8
PROFIL
 10
0.0
 20
0.0
 30
0.0
 70
   128
 71
   448
 72
   447
 73
   464
  0
VERTEX
  5
1D9F
  8
PROFIL
 10
0.0
 20
0.0
 30
0.0
 70
   128
 71
   465
 72
   466
 73
   467
  0
VERTEX
  5
1DA0
  8
PROFIL
 10
0.0
 20
0.0
 30
0.0
 70
   128
 71
   466
 72
   465
 73
   468
  0
VERTEX
  5
1DA1
  8
PROFIL
 10
0.0
 20
0.0
 30
0.0
 70
   128
 71
   469
 72
   470
 73
   471
  0
VERTEX
  5
1DA2
  8
PROFIL
 10
0.0
 20
0.0
 30
0.0
 70
   128
 71
   472
 72
   473
 73
   474
  0
VERTEX
  5
1DA3
  8
PROFIL
 10
0.0
 20
0.0
 30
0.0
 70
   128
 71
   472
 72
   475
 73
   473
  0
VERTEX
  5
1DA4
  8
PROFIL
 10
0.0
 20
0.0
 30
0.0
 70
   128
 71
   476
 72
   475
 73
   472
  0
VERTEX
  5
1DA5
  8
PROFIL
 10
0.0
 20
0.0
 30
0.0
 70
   128
 71
   476
 72
   477
 73
   475
  0
VERTEX
  5
1DA6
  8
PROFIL
 10
0.0
 20
0.0
 30
0.0
 70
   128
 71
   478
 72
   477
 73
   476
  0
VERTEX
  5
1DA7
  8
PROFIL
 10
0.0
 20
0.0
 30
0.0
 70
   128
 71
   478
 72
   479
 73
   477
  0
VERTEX
  5
1DA8
  8
PROFIL
 10
0.0
 20
0.0
 30
0.0
 70
   128
 71
   480
 72
   479
 73
   478
  0
VERTEX
  5
1DA9
  8
PROFIL
 10
0.0
 20
0.0
 30
0.0
 70
   128
 71
   480
 72
   481
 73
   479
  0
VERTEX
  5
1DAA
  8
PROFIL
 10
0.0
 20
0.0
 30
0.0
 70
   128
 71
   482
 72
   481
 73
   480
  0
VERTEX
  5
1DAB
  8
PROFIL
 10
0.0
 20
0.0
 30
0.0
 70
   128
 71
   482
 72
   483
 73
   481
  0
VERTEX
  5
1DAC
  8
PROFIL
 10
0.0
 20
0.0
 30
0.0
 70
   128
 71
   484
 72
   483
 73
   482
  0
VERTEX
  5
1DAD
  8
PROFIL
 10
0.0
 20
0.0
 30
0.0
 70
   128
 71
   484
 72
   485
 73
   483
  0
VERTEX
  5
1DAE
  8
PROFIL
 10
0.0
 20
0.0
 30
0.0
 70
   128
 71
   486
 72
   485
 73
   484
  0
VERTEX
  5
1DAF
  8
PROFIL
 10
0.0
 20
0.0
 30
0.0
 70
   128
 71
   486
 72
   469
 73
   485
  0
VERTEX
  5
1DB0
  8
PROFIL
 10
0.0
 20
0.0
 30
0.0
 70
   128
 71
   470
 72
   469
 73
   486
  0
VERTEX
  5
1DB1
  8
PROFIL
 10
0.0
 20
0.0
 30
0.0
 70
   128
 71
   487
 72
   488
 73
   489
  0
VERTEX
  5
1DB2
  8
PROFIL
 10
0.0
 20
0.0
 30
0.0
 70
   128
 71
   488
 72
   487
 73
   490
  0
VERTEX
  5
1DB3
  8
PROFIL
 10
0.0
 20
0.0
 30
0.0
 70
   128
 71
   491
 72
   492
 73
   493
  0
VERTEX
  5
1DB4
  8
PROFIL
 10
0.0
 20
0.0
 30
0.0
 70
   128
 71
   494
 72
   495
 73
   496
  0
VERTEX
  5
1DB5
  8
PROFIL
 10
0.0
 20
0.0
 30
0.0
 70
   128
 71
   497
 72
   495
 73
   494
  0
VERTEX
  5
1DB6
  8
PROFIL
 10
0.0
 20
0.0
 30
0.0
 70
   128
 71
   497
 72
   498
 73
   495
  0
VERTEX
  5
1DB7
  8
PROFIL
 10
0.0
 20
0.0
 30
0.0
 70
   128
 71
   499
 72
   498
 73
   497
  0
VERTEX
  5
1DB8
  8
PROFIL
 10
0.0
 20
0.0
 30
0.0
 70
   128
 71
   499
 72
   500
 73
   498
  0
VERTEX
  5
1DB9
  8
PROFIL
 10
0.0
 20
0.0
 30
0.0
 70
   128
 71
   501
 72
   500
 73
   499
  0
VERTEX
  5
1DBA
  8
PROFIL
 10
0.0
 20
0.0
 30
0.0
 70
   128
 71
   501
 72
   502
 73
   500
  0
VERTEX
  5
1DBB
  8
PROFIL
 10
0.0
 20
0.0
 30
0.0
 70
   128
 71
   503
 72
   502
 73
   501
  0
VERTEX
  5
1DBC
  8
PROFIL
 10
0.0
 20
0.0
 30
0.0
 70
   128
 71
   503
 72
   504
 73
   502
  0
VERTEX
  5
1DBD
  8
PROFIL
 10
0.0
 20
0.0
 30
0.0
 70
   128
 71
   505
 72
   504
 73
   503
  0
VERTEX
  5
1DBE
  8
PROFIL
 10
0.0
 20
0.0
 30
0.0
 70
   128
 71
   505
 72
   506
 73
   504
  0
VERTEX
  5
1DBF
  8
PROFIL
 10
0.0
 20
0.0
 30
0.0
 70
   128
 71
   507
 72
   506
 73
   505
  0
VERTEX
  5
1DC0
  8
PROFIL
 10
0.0
 20
0.0
 30
0.0
 70
   128
 71
   507
 72
   508
 73
   506
  0
VERTEX
  5
1DC1
  8
PROFIL
 10
0.0
 20
0.0
 30
0.0
 70
   128
 71
   492
 72
   508
 73
   507
  0
VERTEX
  5
1DC2
  8
PROFIL
 10
0.0
 20
0.0
 30
0.0
 70
   128
 71
   492
 72
   491
 73
   508
  0
VERTEX
  5
1DC3
  8
PROFIL
 10
0.0
 20
0.0
 30
0.0
 70
   128
 71
   509
 72
   510
 73
   511
  0
VERTEX
  5
1DC4
  8
PROFIL
 10
0.0
 20
0.0
 30
0.0
 70
   128
 71
   510
 72
   509
 73
   512
  0
VERTEX
  5
1DC5
  8
PROFIL
 10
0.0
 20
0.0
 30
0.0
 70
   128
 71
   513
 72
   514
 73
   515
  0
VERTEX
  5
1DC6
  8
PROFIL
 10
0.0
 20
0.0
 30
0.0
 70
   128
 71
   516
 72
   517
 73
   518
  0
VERTEX
  5
1DC7
  8
PROFIL
 10
0.0
 20
0.0
 30
0.0
 70
   128
 71
   519
 72
   517
 73
   516
  0
VERTEX
  5
1DC8
  8
PROFIL
 10
0.0
 20
0.0
 30
0.0
 70
   128
 71
   520
 72
   517
 73
   519
  0
VERTEX
  5
1DC9
  8
PROFIL
 10
0.0
 20
0.0
 30
0.0
 70
   128
 71
   520
 72
   521
 73
   517
  0
VERTEX
  5
1DCA
  8
PROFIL
 10
0.0
 20
0.0
 30
0.0
 70
   128
 71
   522
 72
   521
 73
   520
  0
VERTEX
  5
1DCB
  8
PROFIL
 10
0.0
 20
0.0
 30
0.0
 70
   128
 71
   522
 72
   523
 73
   521
  0
VERTEX
  5
1DCC
  8
PROFIL
 10
0.0
 20
0.0
 30
0.0
 70
   128
 71
   522
 72
   524
 73
   523
  0
VERTEX
  5
1DCD
  8
PROFIL
 10
0.0
 20
0.0
 30
0.0
 70
   128
 71
   525
 72
   524
 73
   522
  0
VERTEX
  5
1DCE
  8
PROFIL
 10
0.0
 20
0.0
 30
0.0
 70
   128
 71
   526
 72
   524
 73
   525
  0
VERTEX
  5
1DCF
  8
PROFIL
 10
0.0
 20
0.0
 30
0.0
 70
   128
 71
   526
 72
   527
 73
   524
  0
VERTEX
  5
1DD0
  8
PROFIL
 10
0.0
 20
0.0
 30
0.0
 70
   128
 71
   528
 72
   527
 73
   526
  0
VERTEX
  5
1DD1
  8
PROFIL
 10
0.0
 20
0.0
 30
0.0
 70
   128
 71
   528
 72
   529
 73
   527
  0
VERTEX
  5
1DD2
  8
PROFIL
 10
0.0
 20
0.0
 30
0.0
 70
   128
 71
   530
 72
   529
 73
   528
  0
VERTEX
  5
1DD3
  8
PROFIL
 10
0.0
 20
0.0
 30
0.0
 70
   128
 71
   530
 72
   513
 73
   529
  0
VERTEX
  5
1DD4
  8
PROFIL
 10
0.0
 20
0.0
 30
0.0
 70
   128
 71
   514
 72
   513
 73
   530
  0
VERTEX
  5
1DD5
  8
PROFIL
 10
0.0
 20
0.0
 30
0.0
 70
   128
 71
   531
 72
   532
 73
   533
  0
VERTEX
  5
1DD6
  8
PROFIL
 10
0.0
 20
0.0
 30
0.0
 70
   128
 71
   532
 72
   531
 73
   534
  0
VERTEX
  5
1DD7
  8
PROFIL
 10
0.0
 20
0.0
 30
0.0
 70
   128
 71
   535
 72
   536
 73
   537
  0
VERTEX
  5
1DD8
  8
PROFIL
 10
0.0
 20
0.0
 30
0.0
 70
   128
 71
   538
 72
   539
 73
   540
  0
VERTEX
  5
1DD9
  8
PROFIL
 10
0.0
 20
0.0
 30
0.0
 70
   128
 71
   538
 72
   541
 73
   539
  0
VERTEX
  5
1DDA
  8
PROFIL
 10
0.0
 20
0.0
 30
0.0
 70
   128
 71
   542
 72
   541
 73
   538
  0
VERTEX
  5
1DDB
  8
PROFIL
 10
0.0
 20
0.0
 30
0.0
 70
   128
 71
   542
 72
   543
 73
   541
  0
VERTEX
  5
1DDC
  8
PROFIL
 10
0.0
 20
0.0
 30
0.0
 70
   128
 71
   544
 72
   543
 73
   542
  0
VERTEX
  5
1DDD
  8
PROFIL
 10
0.0
 20
0.0
 30
0.0
 70
   128
 71
   544
 72
   545
 73
   543
  0
VERTEX
  5
1DDE
  8
PROFIL
 10
0.0
 20
0.0
 30
0.0
 70
   128
 71
   546
 72
   545
 73
   544
  0
VERTEX
  5
1DDF
  8
PROFIL
 10
0.0
 20
0.0
 30
0.0
 70
   128
 71
   546
 72
   547
 73
   545
  0
VERTEX
  5
1DE0
  8
PROFIL
 10
0.0
 20
0.0
 30
0.0
 70
   128
 71
   548
 72
   547
 73
   546
  0
VERTEX
  5
1DE1
  8
PROFIL
 10
0.0
 20
0.0
 30
0.0
 70
   128
 71
   548
 72
   549
 73
   547
  0
VERTEX
  5
1DE2
  8
PROFIL
 10
0.0
 20
0.0
 30
0.0
 70
   128
 71
   548
 72
   550
 73
   549
  0
VERTEX
  5
1DE3
  8
PROFIL
 10
0.0
 20
0.0
 30
0.0
 70
   128
 71
   551
 72
   550
 73
   548
  0
VERTEX
  5
1DE4
  8
PROFIL
 10
0.0
 20
0.0
 30
0.0
 70
   128
 71
   552
 72
   550
 73
   551
  0
VERTEX
  5
1DE5
  8
PROFIL
 10
0.0
 20
0.0
 30
0.0
 70
   128
 71
   552
 72
   535
 73
   550
  0
VERTEX
  5
1DE6
  8
PROFIL
 10
0.0
 20
0.0
 30
0.0
 70
   128
 71
   536
 72
   535
 73
   552
  0
VERTEX
  5
1DE7
  8
PROFIL
 10
0.0
 20
0.0
 30
0.0
 70
   128
 71
   553
 72
   554
 73
   555
  0
VERTEX
  5
1DE8
  8
PROFIL
 10
0.0
 20
0.0
 30
0.0
 70
   128
 71
   554
 72
   553
 73
   556
  0
VERTEX
  5
1DE9
  8
PROFIL
 10
0.0
 20
0.0
 30
0.0
 70
   128
 71
   557
 72
   558
 73
   559
  0
VERTEX
  5
1DEA
  8
PROFIL
 10
0.0
 20
0.0
 30
0.0
 70
   128
 71
   560
 72
   561
 73
   562
  0
VERTEX
  5
1DEB
  8
PROFIL
 10
0.0
 20
0.0
 30
0.0
 70
   128
 71
   560
 72
   563
 73
   561
  0
VERTEX
  5
1DEC
  8
PROFIL
 10
0.0
 20
0.0
 30
0.0
 70
   128
 71
   564
 72
   563
 73
   560
  0
VERTEX
  5
1DED
  8
PROFIL
 10
0.0
 20
0.0
 30
0.0
 70
   128
 71
   564
 72
   565
 73
   563
  0
VERTEX
  5
1DEE
  8
PROFIL
 10
0.0
 20
0.0
 30
0.0
 70
   128
 71
   566
 72
   565
 73
   564
  0
VERTEX
  5
1DEF
  8
PROFIL
 10
0.0
 20
0.0
 30
0.0
 70
   128
 71
   566
 72
   567
 73
   565
  0
VERTEX
  5
1DF0
  8
PROFIL
 10
0.0
 20
0.0
 30
0.0
 70
   128
 71
   568
 72
   567
 73
   566
  0
VERTEX
  5
1DF1
  8
PROFIL
 10
0.0
 20
0.0
 30
0.0
 70
   128
 71
   568
 72
   569
 73
   567
  0
VERTEX
  5
1DF2
  8
PROFIL
 10
0.0
 20
0.0
 30
0.0
 70
   128
 71
   570
 72
   569
 73
   568
  0
VERTEX
  5
1DF3
  8
PROFIL
 10
0.0
 20
0.0
 30
0.0
 70
   128
 71
   570
 72
   571
 73
   569
  0
VERTEX
  5
1DF4
  8
PROFIL
 10
0.0
 20
0.0
 30
0.0
 70
   128
 71
   572
 72
   571
 73
   570
  0
VERTEX
  5
1DF5
  8
PROFIL
 10
0.0
 20
0.0
 30
0.0
 70
   128
 71
   572
 72
   573
 73
   571
  0
VERTEX
  5
1DF6
  8
PROFIL
 10
0.0
 20
0.0
 30
0.0
 70
   128
 71
   574
 72
   573
 73
   572
  0
VERTEX
  5
1DF7
  8
PROFIL
 10
0.0
 20
0.0
 30
0.0
 70
   128
 71
   574
 72
   557
 73
   573
  0
VERTEX
  5
1DF8
  8
PROFIL
 10
0.0
 20
0.0
 30
0.0
 70
   128
 71
   558
 72
   557
 73
   574
  0
VERTEX
  5
1DF9
  8
PROFIL
 10
0.0
 20
0.0
 30
0.0
 70
   128
 71
   575
 72
   576
 73
   577
  0
VERTEX
  5
1DFA
  8
PROFIL
 10
0.0
 20
0.0
 30
0.0
 70
   128
 71
   576
 72
   575
 73
   578
  0
VERTEX
  5
1DFB
  8
PROFIL
 10
0.0
 20
0.0
 30
0.0
 70
   128
 71
   579
 72
   580
 73
   581
  0
VERTEX
  5
1DFC
  8
PROFIL
 10
0.0
 20
0.0
 30
0.0
 70
   128
 71
   582
 72
   583
 73
   584
  0
VERTEX
  5
1DFD
  8
PROFIL
 10
0.0
 20
0.0
 30
0.0
 70
   128
 71
   582
 72
   585
 73
   583
  0
VERTEX
  5
1DFE
  8
PROFIL
 10
0.0
 20
0.0
 30
0.0
 70
   128
 71
   586
 72
   585
 73
   582
  0
VERTEX
  5
1DFF
  8
PROFIL
 10
0.0
 20
0.0
 30
0.0
 70
   128
 71
   586
 72
   587
 73
   585
  0
VERTEX
  5
1E00
  8
PROFIL
 10
0.0
 20
0.0
 30
0.0
 70
   128
 71
   588
 72
   587
 73
   586
  0
VERTEX
  5
1E01
  8
PROFIL
 10
0.0
 20
0.0
 30
0.0
 70
   128
 71
   588
 72
   589
 73
   587
  0
VERTEX
  5
1E02
  8
PROFIL
 10
0.0
 20
0.0
 30
0.0
 70
   128
 71
   590
 72
   589
 73
   588
  0
VERTEX
  5
1E03
  8
PROFIL
 10
0.0
 20
0.0
 30
0.0
 70
   128
 71
   590
 72
   591
 73
   589
  0
VERTEX
  5
1E04
  8
PROFIL
 10
0.0
 20
0.0
 30
0.0
 70
   128
 71
   592
 72
   591
 73
   590
  0
VERTEX
  5
1E05
  8
PROFIL
 10
0.0
 20
0.0
 30
0.0
 70
   128
 71
   592
 72
   593
 73
   591
  0
VERTEX
  5
1E06
  8
PROFIL
 10
0.0
 20
0.0
 30
0.0
 70
   128
 71
   594
 72
   593
 73
   592
  0
VERTEX
  5
1E07
  8
PROFIL
 10
0.0
 20
0.0
 30
0.0
 70
   128
 71
   594
 72
   595
 73
   593
  0
VERTEX
  5
1E08
  8
PROFIL
 10
0.0
 20
0.0
 30
0.0
 70
   128
 71
   596
 72
   595
 73
   594
  0
VERTEX
  5
1E09
  8
PROFIL
 10
0.0
 20
0.0
 30
0.0
 70
   128
 71
   596
 72
   579
 73
   595
  0
VERTEX
  5
1E0A
  8
PROFIL
 10
0.0
 20
0.0
 30
0.0
 70
   128
 71
   580
 72
   579
 73
   596
  0
SEQEND
  5
1E0B
  8
PROFIL
  0
POLYLINE
  5
1E0D
  8
KORPUS
 66
     1
 10
0.0
 20
0.0
 30
0.0
 70
    64
 71
    24
 72
    12
1001
AVE_ENTITY_MATERIAL
1002
{
1000

1002
{
1071
        0
1070
     0
1070
     0
1002
{
1070
     0
1070
     0
1070
     0
1040
0.0
1002
}
1070
     0
1070
     0
1002
{
1002
}
1002
}
1002
{
1002
}
1002
{
1002
}
1011
0.0
1021
0.0
1031
0.0
1021
0.0
1031
0.0
1011
1.0
1021
0.0
1031
0.0
1021
0.0
1031
0.0
1011
0.0
1021
0.0
1031
0.0
1021
1.0
1031
0.0
1011
0.0
1021
0.0
1031
0.0
1021
0.0
1031
1.0
1002
}
  0
VERTEX
  5
1E0E
  8
KORPUS
 10
1182.0
 20
88.0
 30
270.0
 70
   192
  0
VERTEX
  5
1E0F
  8
KORPUS
 10
1182.0
 20
70.0
 30
350.0
 70
   192
  0
VERTEX
  5
1E10
  8
KORPUS
 10
1182.0
 20
70.0
 30
270.0
 70
   192
  0
VERTEX
  5
1E11
  8
KORPUS
 10
1182.0
 20
88.0
 30
350.0
 70
   192
  0
VERTEX
  5
1E12
  8
KORPUS
 10
18.0
 20
88.000099182128906
 30
270.0
 70
   192
  0
VERTEX
  5
1E13
  8
KORPUS
 10
1182.0
 20
70.0
 30
270.0
 70
   192
  0
VERTEX
  5
1E14
  8
KORPUS
 10
18.0
 20
70.000099182128906
 30
270.0
 70
   192
  0
VERTEX
  5
1E15
  8
KORPUS
 10
1182.0
 20
88.0
 30
270.0
 70
   192
  0
VERTEX
  5
1E16
  8
KORPUS
 10
18.0
 20
88.000106811523423
 30
350.0
 70
   192
  0
VERTEX
  5
1E17
  8
KORPUS
 10
18.0
 20
70.000099182128906
 30
270.0
 70
   192
  0
VERTEX
  5
1E18
  8
KORPUS
 10
18.0
 20
70.000106811523423
 30
350.0
 70
   192
  0
VERTEX
  5
1E19
  8
KORPUS
 10
18.0
 20
88.000099182128906
 30
270.0
 70
   192
  0
VERTEX
  5
1E1A
  8
KORPUS
 10
1182.0
 20
88.0
 30
350.0
 70
   192
  0
VERTEX
  5
1E1B
  8
KORPUS
 10
18.0
 20
70.000106811523423
 30
350.0
 70
   192
  0
VERTEX
  5
1E1C
  8
KORPUS
 10
1182.0
 20
70.0
 30
350.0
 70
   192
  0
VERTEX
  5
1E1D
  8
KORPUS
 10
18.0
 20
88.000106811523423
 30
350.0
 70
   192
  0
VERTEX
  5
1E1E
  8
KORPUS
 10
1182.0
 20
70.0
 30
350.0
 70
   192
  0
VERTEX
  5
1E1F
  8
KORPUS
 10
18.0
 20
70.000099182128906
 30
270.0
 70
   192
  0
VERTEX
  5
1E20
  8
KORPUS
 10
1182.0
 20
70.0
 30
270.0
 70
   192
  0
VERTEX
  5
1E21
  8
KORPUS
 10
18.0
 20
70.000106811523423
 30
350.0
 70
   192
  0
VERTEX
  5
1E22
  8
KORPUS
 10
1182.0
 20
88.0
 30
350.0
 70
   192
  0
VERTEX
  5
1E23
  8
KORPUS
 10
18.0
 20
88.000099182128906
 30
270.0
 70
   192
  0
VERTEX
  5
1E24
  8
KORPUS
 10
18.0
 20
88.000106811523423
 30
350.0
 70
   192
  0
VERTEX
  5
1E25
  8
KORPUS
 10
1182.0
 20
88.0
 30
270.0
 70
   192
  0
VERTEX
  5
1E26
  8
KORPUS
 10
0.0
 20
0.0
 30
0.0
 70
   128
 71
     1
 72
     2
 73
     3
  0
VERTEX
  5
1E27
  8
KORPUS
 10
0.0
 20
0.0
 30
0.0
 70
   128
 71
     2
 72
     1
 73
     4
  0
VERTEX
  5
1E28
  8
KORPUS
 10
0.0
 20
0.0
 30
0.0
 70
   128
 71
     5
 72
     6
 73
     7
  0
VERTEX
  5
1E29
  8
KORPUS
 10
0.0
 20
0.0
 30
0.0
 70
   128
 71
     6
 72
     5
 73
     8
  0
VERTEX
  5
1E2A
  8
KORPUS
 10
0.0
 20
0.0
 30
0.0
 70
   128
 71
     9
 72
    10
 73
    11
  0
VERTEX
  5
1E2B
  8
KORPUS
 10
0.0
 20
0.0
 30
0.0
 70
   128
 71
    10
 72
     9
 73
    12
  0
VERTEX
  5
1E2C
  8
KORPUS
 10
0.0
 20
0.0
 30
0.0
 70
   128
 71
    13
 72
    14
 73
    15
  0
VERTEX
  5
1E2D
  8
KORPUS
 10
0.0
 20
0.0
 30
0.0
 70
   128
 71
    14
 72
    13
 73
    16
  0
VERTEX
  5
1E2E
  8
KORPUS
 10
0.0
 20
0.0
 30
0.0
 70
   128
 71
    17
 72
    18
 73
    19
  0
VERTEX
  5
1E2F
  8
KORPUS
 10
0.0
 20
0.0
 30
0.0
 70
   128
 71
    18
 72
    17
 73
    20
  0
VERTEX
  5
1E30
  8
KORPUS
 10
0.0
 20
0.0
 30
0.0
 70
   128
 71
    21
 72
    22
 73
    23
  0
VERTEX
  5
1E31
  8
KORPUS
 10
0.0
 20
0.0
 30
0.0
 70
   128
 71
    22
 72
    21
 73
    24
  0
SEQEND
  5
1E32
  8
KORPUS
  0
POLYLINE
  5
1E34
  8
KORPUS
 66
     1
 10
0.0
 20
0.0
 30
0.0
 70
    64
 71
    24
 72
    12
1001
AVE_ENTITY_MATERIAL
1002
{
1000

1002
{
1071
        0
1070
     0
1070
     0
1002
{
1070
     0
1070
     0
1070
     0
1040
0.0
1002
}
1070
     0
1070
     0
1002
{
1002
}
1002
}
1002
{
1002
}
1002
{
1002
}
1011
0.0
1021
0.0
1031
0.0
1021
0.0
1031
0.0
1011
1.0
1021
0.0
1031
0.0
1021
0.0
1031
0.0
1011
0.0
1021
0.0
1031
0.0
1021
1.0
1031
0.0
1011
0.0
1021
0.0
1031
0.0
1021
0.0
1031
1.0
1002
}
  0
VERTEX
  5
1E35
  8
KORPUS
 10
1182.0
 20
474.0
 30
18.0
 70
   192
  0
VERTEX
  5
1E36
  8
KORPUS
 10
1182.0
 20
456.0
 30
98.0
 70
   192
  0
VERTEX
  5
1E37
  8
KORPUS
 10
1182.0
 20
456.0
 30
18.0
 70
   192
  0
VERTEX
  5
1E38
  8
KORPUS
 10
1182.0
 20
474.0
 30
98.0
 70
   192
  0
VERTEX
  5
1E39
  8
KORPUS
 10
18.0
 20
474.00009155273432
 30
18.0
 70
   192
  0
VERTEX
  5
1E3A
  8
KORPUS
 10
1182.0
 20
456.0
 30
18.0
 70
   192
  0
VERTEX
  5
1E3B
  8
KORPUS
 10
18.0
 20
456.00009155273438
 30
18.0
 70
   192
  0
VERTEX
  5
1E3C
  8
KORPUS
 10
1182.0
 20
474.0
 30
18.0
 70
   192
  0
VERTEX
  5
1E3D
  8
KORPUS
 10
18.0
 20
474.00009155273432
 30
98.0
 70
   192
  0
VERTEX
  5
1E3E
  8
KORPUS
 10
18.0
 20
456.00009155273438
 30
18.0
 70
   192
  0
VERTEX
  5
1E3F
  8
KORPUS
 10
18.0
 20
456.00009155273438
 30
98.0
 70
   192
  0
VERTEX
  5
1E40
  8
KORPUS
 10
18.0
 20
474.00009155273432
 30
18.0
 70
   192
  0
VERTEX
  5
1E41
  8
KORPUS
 10
1182.0
 20
474.0
 30
98.0
 70
   192
  0
VERTEX
  5
1E42
  8
KORPUS
 10
18.0
 20
456.00009155273438
 30
98.0
 70
   192
  0
VERTEX
  5
1E43
  8
KORPUS
 10
1182.0
 20
456.0
 30
98.0
 70
   192
  0
VERTEX
  5
1E44
  8
KORPUS
 10
18.0
 20
474.00009155273432
 30
98.0
 70
   192
  0
VERTEX
  5
1E45
  8
KORPUS
 10
1182.0
 20
456.0
 30
98.0
 70
   192
  0
VERTEX
  5
1E46
  8
KORPUS
 10
18.0
 20
456.00009155273438
 30
18.0
 70
   192
  0
VERTEX
  5
1E47
  8
KORPUS
 10
1182.0
 20
456.0
 30
18.0
 70
   192
  0
VERTEX
  5
1E48
  8
KORPUS
 10
18.0
 20
456.00009155273438
 30
98.0
 70
   192
  0
VERTEX
  5
1E49
  8
KORPUS
 10
1182.0
 20
474.0
 30
98.0
 70
   192
  0
VERTEX
  5
1E4A
  8
KORPUS
 10
18.0
 20
474.00009155273432
 30
18.0
 70
   192
  0
VERTEX
  5
1E4B
  8
KORPUS
 10
18.0
 20
474.00009155273432
 30
98.0
 70
   192
  0
VERTEX
  5
1E4C
  8
KORPUS
 10
1182.0
 20
474.0
 30
18.0
 70
   192
  0
VERTEX
  5
1E4D
  8
KORPUS
 10
0.0
 20
0.0
 30
0.0
 70
   128
 71
     1
 72
     2
 73
     3
  0
VERTEX
  5
1E4E
  8
KORPUS
 10
0.0
 20
0.0
 30
0.0
 70
   128
 71
     2
 72
     1
 73
     4
  0
VERTEX
  5
1E4F
  8
KORPUS
 10
0.0
 20
0.0
 30
0.0
 70
   128
 71
     5
 72
     6
 73
     7
  0
VERTEX
  5
1E50
  8
KORPUS
 10
0.0
 20
0.0
 30
0.0
 70
   128
 71
     6
 72
     5
 73
     8
  0
VERTEX
  5
1E51
  8
KORPUS
 10
0.0
 20
0.0
 30
0.0
 70
   128
 71
     9
 72
    10
 73
    11
  0
VERTEX
  5
1E52
  8
KORPUS
 10
0.0
 20
0.0
 30
0.0
 70
   128
 71
    10
 72
     9
 73
    12
  0
VERTEX
  5
1E53
  8
KORPUS
 10
0.0
 20
0.0
 30
0.0
 70
   128
 71
    13
 72
    14
 73
    15
  0
VERTEX
  5
1E54
  8
KORPUS
 10
0.0
 20
0.0
 30
0.0
 70
   128
 71
    14
 72
    13
 73
    16
  0
VERTEX
  5
1E55
  8
KORPUS
 10
0.0
 20
0.0
 30
0.0
 70
   128
 71
    17
 72
    18
 73
    19
  0
VERTEX
  5
1E56
  8
KORPUS
 10
0.0
 20
0.0
 30
0.0
 70
   128
 71
    18
 72
    17
 73
    20
  0
VERTEX
  5
1E57
  8
KORPUS
 10
0.0
 20
0.0
 30
0.0
 70
   128
 71
    21
 72
    22
 73
    23
  0
VERTEX
  5
1E58
  8
KORPUS
 10
0.0
 20
0.0
 30
0.0
 70
   128
 71
    22
 72
    21
 73
    24
  0
SEQEND
  5
1E59
  8
KORPUS
  0
POLYLINE
  5
1E5B
  8
KORPUS
 66
     1
 10
0.0
 20
0.0
 30
0.0
 70
    64
 71
    24
 72
    12
1001
AVE_ENTITY_MATERIAL
1002
{
1000

1002
{
1071
        0
1070
     0
1070
     0
1002
{
1070
     0
1070
     0
1070
     0
1040
0.0
1002
}
1070
     0
1070
     0
1002
{
1002
}
1002
}
1002
{
1002
}
1002
{
1002
}
1011
0.0
1021
0.0
1031
0.0
1021
0.0
1031
0.0
1011
1.0
1021
0.0
1031
0.0
1021
0.0
1031
0.0
1011
0.0
1021
0.0
1031
0.0
1021
1.0
1031
0.0
1011
0.0
1021
0.0
1031
0.0
1021
0.0
1031
1.0
1002
}
  0
VERTEX
  5
1E5C
  8
KORPUS
 10
18.0
 20
456.0
 30
270.0
 70
   192
  0
VERTEX
  5
1E5D
  8
KORPUS
 10
18.0
 20
474.0
 30
350.0
 70
   192
  0
VERTEX
  5
1E5E
  8
KORPUS
 10
18.0
 20
474.0
 30
270.0
 70
   192
  0
VERTEX
  5
1E5F
  8
KORPUS
 10
18.0
 20
456.0
 30
350.0
 70
   192
  0
VERTEX
  5
1E60
  8
KORPUS
 10
1182.0
 20
456.0
 30
270.0
 70
   192
  0
VERTEX
  5
1E61
  8
KORPUS
 10
18.0
 20
474.0
 30
270.0
 70
   192
  0
VERTEX
  5
1E62
  8
KORPUS
 10
1182.0
 20
474.0
 30
270.0
 70
   192
  0
VERTEX
  5
1E63
  8
KORPUS
 10
18.0
 20
456.0
 30
270.0
 70
   192
  0
VERTEX
  5
1E64
  8
KORPUS
 10
1182.0
 20
456.0
 30
350.0
 70
   192
  0
VERTEX
  5
1E65
  8
KORPUS
 10
1182.0
 20
474.0
 30
270.0
 70
   192
  0
VERTEX
  5
1E66
  8
KORPUS
 10
1182.0
 20
474.0
 30
350.0
 70
   192
  0
VERTEX
  5
1E67
  8
KORPUS
 10
1182.0
 20
456.0
 30
270.0
 70
   192
  0
VERTEX
  5
1E68
  8
KORPUS
 10
18.0
 20
456.0
 30
350.0
 70
   192
  0
VERTEX
  5
1E69
  8
KORPUS
 10
1182.0
 20
474.0
 30
350.0
 70
   192
  0
VERTEX
  5
1E6A
  8
KORPUS
 10
18.0
 20
474.0
 30
350.0
 70
   192
  0
VERTEX
  5
1E6B
  8
KORPUS
 10
1182.0
 20
456.0
 30
350.0
 70
   192
  0
VERTEX
  5
1E6C
  8
KORPUS
 10
18.0
 20
474.0
 30
350.0
 70
   192
  0
VERTEX
  5
1E6D
  8
KORPUS
 10
1182.0
 20
474.0
 30
270.0
 70
   192
  0
VERTEX
  5
1E6E
  8
KORPUS
 10
18.0
 20
474.0
 30
270.0
 70
   192
  0
VERTEX
  5
1E6F
  8
KORPUS
 10
1182.0
 20
474.0
 30
350.0
 70
   192
  0
VERTEX
  5
1E70
  8
KORPUS
 10
18.0
 20
456.0
 30
350.0
 70
   192
  0
VERTEX
  5
1E71
  8
KORPUS
 10
1182.0
 20
456.0
 30
270.0
 70
   192
  0
VERTEX
  5
1E72
  8
KORPUS
 10
1182.0
 20
456.0
 30
350.0
 70
   192
  0
VERTEX
  5
1E73
  8
KORPUS
 10
18.0
 20
456.0
 30
270.0
 70
   192
  0
VERTEX
  5
1E74
  8
KORPUS
 10
0.0
 20
0.0
 30
0.0
 70
   128
 71
     1
 72
     2
 73
     3
  0
VERTEX
  5
1E75
  8
KORPUS
 10
0.0
 20
0.0
 30
0.0
 70
   128
 71
     2
 72
     1
 73
     4
  0
VERTEX
  5
1E76
  8
KORPUS
 10
0.0
 20
0.0
 30
0.0
 70
   128
 71
     5
 72
     6
 73
     7
  0
VERTEX
  5
1E77
  8
KORPUS
 10
0.0
 20
0.0
 30
0.0
 70
   128
 71
     6
 72
     5
 73
     8
  0
VERTEX
  5
1E78
  8
KORPUS
 10
0.0
 20
0.0
 30
0.0
 70
   128
 71
     9
 72
    10
 73
    11
  0
VERTEX
  5
1E79
  8
KORPUS
 10
0.0
 20
0.0
 30
0.0
 70
   128
 71
    10
 72
     9
 73
    12
  0
VERTEX
  5
1E7A
  8
KORPUS
 10
0.0
 20
0.0
 30
0.0
 70
   128
 71
    13
 72
    14
 73
    15
  0
VERTEX
  5
1E7B
  8
KORPUS
 10
0.0
 20
0.0
 30
0.0
 70
   128
 71
    14
 72
    13
 73
    16
  0
VERTEX
  5
1E7C
  8
KORPUS
 10
0.0
 20
0.0
 30
0.0
 70
   128
 71
    17
 72
    18
 73
    19
  0
VERTEX
  5
1E7D
  8
KORPUS
 10
0.0
 20
0.0
 30
0.0
 70
   128
 71
    18
 72
    17
 73
    20
  0
VERTEX
  5
1E7E
  8
KORPUS
 10
0.0
 20
0.0
 30
0.0
 70
   128
 71
    21
 72
    22
 73
    23
  0
VERTEX
  5
1E7F
  8
KORPUS
 10
0.0
 20
0.0
 30
0.0
 70
   128
 71
    22
 72
    21
 73
    24
  0
SEQEND
  5
1E80
  8
KORPUS
  0
POLYLINE
  5
1E82
  8
SUPLIK
 66
     1
 10
0.0
 20
0.0
 30
0.0
 70
    64
 71
    24
 72
    12
1001
AVE_ENTITY_MATERIAL
1002
{
1000

1002
{
1071
        0
1070
     0
1070
     0
1002
{
1070
     0
1070
     0
1070
     0
1040
0.0
1002
}
1070
     0
1070
     0
1002
{
1002
}
1002
}
1002
{
1002
}
1002
{
1002
}
1011
0.0
1021
0.0
1031
0.0
1021
0.0
1031
0.0
1011
1.0
1021
0.0
1031
0.0
1021
0.0
1031
0.0
1011
0.0
1021
0.0
1031
0.0
1021
1.0
1031
0.0
1011
0.0
1021
0.0
1031
0.0
1021
0.0
1031
1.0
1002
}
  0
VERTEX
  5
1E83
  8
SUPLIK
 10
43.385002136230469
 20
18.0
 30
54.5
 70
   192
  0
VERTEX
  5
1E84
  8
SUPLIK
 10
43.385002136230469
 20
342.0
 30
38.5
 70
   192
  0
VERTEX
  5
1E85
  8
SUPLIK
 10
43.385002136230469
 20
18.0
 30
38.5
 70
   192
  0
VERTEX
  5
1E86
  8
SUPLIK
 10
43.385002136230469
 20
342.0
 30
54.5
 70
   192
  0
VERTEX
  5
1E87
  8
SUPLIK
 10
1156.614990234375
 20
18.0
 30
54.5
 70
   192
  0
VERTEX
  5
1E88
  8
SUPLIK
 10
43.385002136230469
 20
18.0
 30
38.5
 70
   192
  0
VERTEX
  5
1E89
  8
SUPLIK
 10
1156.614990234375
 20
18.0
 30
38.5
 70
   192
  0
VERTEX
  5
1E8A
  8
SUPLIK
 10
43.385002136230469
 20
18.0
 30
54.5
 70
   192
  0
VERTEX
  5
1E8B
  8
SUPLIK
 10
1156.614990234375
 20
342.0
 30
54.5
 70
   192
  0
VERTEX
  5
1E8C
  8
SUPLIK
 10
1156.614990234375
 20
18.0
 30
38.5
 70
   192
  0
VERTEX
  5
1E8D
  8
SUPLIK
 10
1156.614990234375
 20
342.0
 30
38.5
 70
   192
  0
VERTEX
  5
1E8E
  8
SUPLIK
 10
1156.614990234375
 20
18.0
 30
54.5
 70
   192
  0
VERTEX
  5
1E8F
  8
SUPLIK
 10
43.385002136230469
 20
342.0
 30
54.5
 70
   192
  0
VERTEX
  5
1E90
  8
SUPLIK
 10
1156.614990234375
 20
342.0
 30
38.5
 70
   192
  0
VERTEX
  5
1E91
  8
SUPLIK
 10
43.385002136230469
 20
342.0
 30
38.5
 70
   192
  0
VERTEX
  5
1E92
  8
SUPLIK
 10
1156.614990234375
 20
342.0
 30
54.5
 70
   192
  0
VERTEX
  5
1E93
  8
SUPLIK
 10
43.385002136230469
 20
342.0
 30
38.5
 70
   192
  0
VERTEX
  5
1E94
  8
SUPLIK
 10
1156.614990234375
 20
18.0
 30
38.5
 70
   192
  0
VERTEX
  5
1E95
  8
SUPLIK
 10
43.385002136230469
 20
18.0
 30
38.5
 70
   192
  0
VERTEX
  5
1E96
  8
SUPLIK
 10
1156.614990234375
 20
342.0
 30
38.5
 70
   192
  0
VERTEX
  5
1E97
  8
SUPLIK
 10
43.385002136230469
 20
342.0
 30
54.5
 70
   192
  0
VERTEX
  5
1E98
  8
SUPLIK
 10
1156.614990234375
 20
18.0
 30
54.5
 70
   192
  0
VERTEX
  5
1E99
  8
SUPLIK
 10
1156.614990234375
 20
342.0
 30
54.5
 70
   192
  0
VERTEX
  5
1E9A
  8
SUPLIK
 10
43.385002136230469
 20
18.0
 30
54.5
 70
   192
  0
VERTEX
  5
1E9B
  8
SUPLIK
 10
0.0
 20
0.0
 30
0.0
 70
   128
 71
     1
 72
     2
 73
     3
  0
VERTEX
  5
1E9C
  8
SUPLIK
 10
0.0
 20
0.0
 30
0.0
 70
   128
 71
     2
 72
     1
 73
     4
  0
VERTEX
  5
1E9D
  8
SUPLIK
 10
0.0
 20
0.0
 30
0.0
 70
   128
 71
     5
 72
     6
 73
     7
  0
VERTEX
  5
1E9E
  8
SUPLIK
 10
0.0
 20
0.0
 30
0.0
 70
   128
 71
     6
 72
     5
 73
     8
  0
VERTEX
  5
1E9F
  8
SUPLIK
 10
0.0
 20
0.0
 30
0.0
 70
   128
 71
     9
 72
    10
 73
    11
  0
VERTEX
  5
1EA0
  8
SUPLIK
 10
0.0
 20
0.0
 30
0.0
 70
   128
 71
    10
 72
     9
 73
    12
  0
VERTEX
  5
1EA1
  8
SUPLIK
 10
0.0
 20
0.0
 30
0.0
 70
   128
 71
    13
 72
    14
 73
    15
  0
VERTEX
  5
1EA2
  8
SUPLIK
 10
0.0
 20
0.0
 30
0.0
 70
   128
 71
    14
 72
    13
 73
    16
  0
VERTEX
  5
1EA3
  8
SUPLIK
 10
0.0
 20
0.0
 30
0.0
 70
   128
 71
    17
 72
    18
 73
    19
  0
VERTEX
  5
1EA4
  8
SUPLIK
 10
0.0
 20
0.0
 30
0.0
 70
   128
 71
    18
 72
    17
 73
    20
  0
VERTEX
  5
1EA5
  8
SUPLIK
 10
0.0
 20
0.0
 30
0.0
 70
   128
 71
    21
 72
    22
 73
    23
  0
VERTEX
  5
1EA6
  8
SUPLIK
 10
0.0
 20
0.0
 30
0.0
 70
   128
 71
    22
 72
    21
 73
    24
  0
SEQEND
  5
1EA7
  8
SUPLIK
  0
POLYLINE
  5
1EA9
  8
SUPLIK
 66
     1
 10
0.0
 20
0.0
 30
0.0
 70
    64
 71
    24
 72
    12
1001
AVE_ENTITY_MATERIAL
1002
{
1000

1002
{
1071
        0
1070
     0
1070
     0
1002
{
1070
     0
1070
     0
1070
     0
1040
0.0
1002
}
1070
     0
1070
     0
1002
{
1002
}
1002
}
1002
{
1002
}
1002
{
1002
}
1011
0.0
1021
0.0
1031
0.0
1021
0.0
1031
0.0
1011
1.0
1021
0.0
1031
0.0
1021
0.0
1031
0.0
1011
0.0
1021
0.0
1031
0.0
1021
1.0
1031
0.0
1011
0.0
1021
0.0
1031
0.0
1021
0.0
1031
1.0
1002
}
  0
VERTEX
  5
1EAA
  8
SUPLIK
 10
1156.614990234375
 20
358.0
 30
159.5
 70
   192
  0
VERTEX
  5
1EAB
  8
SUPLIK
 10
43.385002136230469
 20
342.0
 30
159.5
 70
   192
  0
VERTEX
  5
1EAC
  8
SUPLIK
 10
1156.614990234375
 20
342.0
 30
159.5
 70
   192
  0
VERTEX
  5
1EAD
  8
SUPLIK
 10
43.385002136230469
 20
358.0
 30
159.5
 70
   192
  0
VERTEX
  5
1EAE
  8
SUPLIK
 10
43.385002136230469
 20
358.0
 30
159.5
 70
   192
  0
VERTEX
  5
1EAF
  8
SUPLIK
 10
43.385002136230469
 20
342.0
 30
159.0
 70
   192
  0
VERTEX
  5
1EB0
  8
SUPLIK
 10
43.385002136230469
 20
342.0
 30
159.5
 70
   192
  0
VERTEX
  5
1EB1
  8
SUPLIK
 10
43.385002136230469
 20
358.0
 30
159.0
 70
   192
  0
VERTEX
  5
1EB2
  8
SUPLIK
 10
43.385002136230469
 20
358.0
 30
159.0
 70
   192
  0
VERTEX
  5
1EB3
  8
SUPLIK
 10
1156.614990234375
 20
342.0
 30
159.0
 70
   192
  0
VERTEX
  5
1EB4
  8
SUPLIK
 10
43.385002136230469
 20
342.0
 30
159.0
 70
   192
  0
VERTEX
  5
1EB5
  8
SUPLIK
 10
1156.614990234375
 20
358.0
 30
159.0
 70
   192
  0
VERTEX
  5
1EB6
  8
SUPLIK
 10
1156.614990234375
 20
358.0
 30
159.0
 70
   192
  0
VERTEX
  5
1EB7
  8
SUPLIK
 10
1156.614990234375
 20
342.0
 30
159.5
 70
   192
  0
VERTEX
  5
1EB8
  8
SUPLIK
 10
1156.614990234375
 20
342.0
 30
159.0
 70
   192
  0
VERTEX
  5
1EB9
  8
SUPLIK
 10
1156.614990234375
 20
358.0
 30
159.5
 70
   192
  0
VERTEX
  5
1EBA
  8
SUPLIK
 10
43.385002136230469
 20
342.0
 30
159.5
 70
   192
  0
VERTEX
  5
1EBB
  8
SUPLIK
 10
1156.614990234375
 20
342.0
 30
159.0
 70
   192
  0
VERTEX
  5
1EBC
  8
SUPLIK
 10
1156.614990234375
 20
342.0
 30
159.5
 70
   192
  0
VERTEX
  5
1EBD
  8
SUPLIK
 10
43.385002136230469
 20
342.0
 30
159.0
 70
   192
  0
VERTEX
  5
1EBE
  8
SUPLIK
 10
43.385002136230469
 20
358.0
 30
159.5
 70
   192
  0
VERTEX
  5
1EBF
  8
SUPLIK
 10
1156.614990234375
 20
358.0
 30
159.0
 70
   192
  0
VERTEX
  5
1EC0
  8
SUPLIK
 10
43.385002136230469
 20
358.0
 30
159.0
 70
   192
  0
VERTEX
  5
1EC1
  8
SUPLIK
 10
1156.614990234375
 20
358.0
 30
159.5
 70
   192
  0
VERTEX
  5
1EC2
  8
SUPLIK
 10
0.0
 20
0.0
 30
0.0
 70
   128
 71
     1
 72
     2
 73
     3
  0
VERTEX
  5
1EC3
  8
SUPLIK
 10
0.0
 20
0.0
 30
0.0
 70
   128
 71
     2
 72
     1
 73
     4
  0
VERTEX
  5
1EC4
  8
SUPLIK
 10
0.0
 20
0.0
 30
0.0
 70
   128
 71
     5
 72
     6
 73
     7
  0
VERTEX
  5
1EC5
  8
SUPLIK
 10
0.0
 20
0.0
 30
0.0
 70
   128
 71
     6
 72
     5
 73
     8
  0
VERTEX
  5
1EC6
  8
SUPLIK
 10
0.0
 20
0.0
 30
0.0
 70
   128
 71
     9
 72
    10
 73
    11
  0
VERTEX
  5
1EC7
  8
SUPLIK
 10
0.0
 20
0.0
 30
0.0
 70
   128
 71
    10
 72
     9
 73
    12
  0
VERTEX
  5
1EC8
  8
SUPLIK
 10
0.0
 20
0.0
 30
0.0
 70
   128
 71
    13
 72
    14
 73
    15
  0
VERTEX
  5
1EC9
  8
SUPLIK
 10
0.0
 20
0.0
 30
0.0
 70
   128
 71
    14
 72
    13
 73
    16
  0
VERTEX
  5
1ECA
  8
SUPLIK
 10
0.0
 20
0.0
 30
0.0
 70
   128
 71
    17
 72
    18
 73
    19
  0
VERTEX
  5
1ECB
  8
SUPLIK
 10
0.0
 20
0.0
 30
0.0
 70
   128
 71
    18
 72
    17
 73
    20
  0
VERTEX
  5
1ECC
  8
SUPLIK
 10
0.0
 20
0.0
 30
0.0
 70
   128
 71
    21
 72
    22
 73
    23
  0
VERTEX
  5
1ECD
  8
SUPLIK
 10
0.0
 20
0.0
 30
0.0
 70
   128
 71
    22
 72
    21
 73
    24
  0
SEQEND
  5
1ECE
  8
SUPLIK
  0
POLYLINE
  5
1ED0
  8
SUPLIK
 66
     1
 10
0.0
 20
0.0
 30
0.0
 70
    64
 71
    24
 72
    12
1001
AVE_ENTITY_MATERIAL
1002
{
1000

1002
{
1071
        0
1070
     0
1070
     0
1002
{
1070
     0
1070
     0
1070
     0
1040
0.0
1002
}
1070
     0
1070
     0
1002
{
1002
}
1002
}
1002
{
1002
}
1002
{
1002
}
1011
0.0
1021
0.0
1031
0.0
1021
0.0
1031
0.0
1011
1.0
1021
0.0
1031
0.0
1021
0.0
1031
0.0
1011
0.0
1021
0.0
1031
0.0
1021
1.0
1031
0.0
1011
0.0
1021
0.0
1031
0.0
1021
0.0
1031
1.0
1002
}
  0
VERTEX
  5
1ED1
  8
SUPLIK
 10
43.385002136230469
 20
358.0
 30
39.0
 70
   192
  0
VERTEX
  5
1ED2
  8
SUPLIK
 10
43.385002136230469
 20
342.0
 30
159.0
 70
   192
  0
VERTEX
  5
1ED3
  8
SUPLIK
 10
43.385002136230469
 20
358.0
 30
159.0
 70
   192
  0
VERTEX
  5
1ED4
  8
SUPLIK
 10
43.385002136230469
 20
342.0
 30
39.0
 70
   192
  0
VERTEX
  5
1ED5
  8
SUPLIK
 10
1156.614990234375
 20
342.0
 30
39.0
 70
   192
  0
VERTEX
  5
1ED6
  8
SUPLIK
 10
1156.614990234375
 20
358.0
 30
159.0
 70
   192
  0
VERTEX
  5
1ED7
  8
SUPLIK
 10
1156.614990234375
 20
342.0
 30
159.0
 70
   192
  0
VERTEX
  5
1ED8
  8
SUPLIK
 10
1156.614990234375
 20
358.0
 30
39.0
 70
   192
  0
VERTEX
  5
1ED9
  8
SUPLIK
 10
1156.614990234375
 20
358.0
 30
39.0
 70
   192
  0
VERTEX
  5
1EDA
  8
SUPLIK
 10
43.385002136230469
 20
358.0
 30
159.0
 70
   192
  0
VERTEX
  5
1EDB
  8
SUPLIK
 10
1156.614990234375
 20
358.0
 30
159.0
 70
   192
  0
VERTEX
  5
1EDC
  8
SUPLIK
 10
43.385002136230469
 20
358.0
 30
39.0
 70
   192
  0
VERTEX
  5
1EDD
  8
SUPLIK
 10
43.385002136230469
 20
342.0
 30
39.0
 70
   192
  0
VERTEX
  5
1EDE
  8
SUPLIK
 10
1156.614990234375
 20
342.0
 30
159.0
 70
   192
  0
VERTEX
  5
1EDF
  8
SUPLIK
 10
43.385002136230469
 20
342.0
 30
159.0
 70
   192
  0
VERTEX
  5
1EE0
  8
SUPLIK
 10
1156.614990234375
 20
342.0
 30
39.0
 70
   192
  0
VERTEX
  5
1EE1
  8
SUPLIK
 10
43.385002136230469
 20
342.0
 30
159.0
 70
   192
  0
VERTEX
  5
1EE2
  8
SUPLIK
 10
1156.614990234375
 20
358.0
 30
159.0
 70
   192
  0
VERTEX
  5
1EE3
  8
SUPLIK
 10
43.385002136230469
 20
358.0
 30
159.0
 70
   192
  0
VERTEX
  5
1EE4
  8
SUPLIK
 10
1156.614990234375
 20
342.0
 30
159.0
 70
   192
  0
VERTEX
  5
1EE5
  8
SUPLIK
 10
1156.614990234375
 20
342.0
 30
39.0
 70
   192
  0
VERTEX
  5
1EE6
  8
SUPLIK
 10
43.385002136230469
 20
358.0
 30
39.0
 70
   192
  0
VERTEX
  5
1EE7
  8
SUPLIK
 10
1156.614990234375
 20
358.0
 30
39.0
 70
   192
  0
VERTEX
  5
1EE8
  8
SUPLIK
 10
43.385002136230469
 20
342.0
 30
39.0
 70
   192
  0
VERTEX
  5
1EE9
  8
SUPLIK
 10
0.0
 20
0.0
 30
0.0
 70
   128
 71
     1
 72
     2
 73
     3
  0
VERTEX
  5
1EEA
  8
SUPLIK
 10
0.0
 20
0.0
 30
0.0
 70
   128
 71
     2
 72
     1
 73
     4
  0
VERTEX
  5
1EEB
  8
SUPLIK
 10
0.0
 20
0.0
 30
0.0
 70
   128
 71
     5
 72
     6
 73
     7
  0
VERTEX
  5
1EEC
  8
SUPLIK
 10
0.0
 20
0.0
 30
0.0
 70
   128
 71
     6
 72
     5
 73
     8
  0
VERTEX
  5
1EED
  8
SUPLIK
 10
0.0
 20
0.0
 30
0.0
 70
   128
 71
     9
 72
    10
 73
    11
  0
VERTEX
  5
1EEE
  8
SUPLIK
 10
0.0
 20
0.0
 30
0.0
 70
   128
 71
    10
 72
     9
 73
    12
  0
VERTEX
  5
1EEF
  8
SUPLIK
 10
0.0
 20
0.0
 30
0.0
 70
   128
 71
    13
 72
    14
 73
    15
  0
VERTEX
  5
1EF0
  8
SUPLIK
 10
0.0
 20
0.0
 30
0.0
 70
   128
 71
    14
 72
    13
 73
    16
  0
VERTEX
  5
1EF1
  8
SUPLIK
 10
0.0
 20
0.0
 30
0.0
 70
   128
 71
    17
 72
    18
 73
    19
  0
VERTEX
  5
1EF2
  8
SUPLIK
 10
0.0
 20
0.0
 30
0.0
 70
   128
 71
    18
 72
    17
 73
    20
  0
VERTEX
  5
1EF3
  8
SUPLIK
 10
0.0
 20
0.0
 30
0.0
 70
   128
 71
    21
 72
    22
 73
    23
  0
VERTEX
  5
1EF4
  8
SUPLIK
 10
0.0
 20
0.0
 30
0.0
 70
   128
 71
    22
 72
    21
 73
    24
  0
SEQEND
  5
1EF5
  8
SUPLIK
  0
POLYLINE
  5
1EF7
  8
SUPLIK
 66
     1
 10
0.0
 20
0.0
 30
0.0
 70
    64
 71
    24
 72
    12
1001
AVE_ENTITY_MATERIAL
1002
{
1000

1002
{
1071
        0
1070
     0
1070
     0
1002
{
1070
     0
1070
     0
1070
     0
1040
0.0
1002
}
1070
     0
1070
     0
1002
{
1002
}
1002
}
1002
{
1002
}
1002
{
1002
}
1011
0.0
1021
0.0
1031
0.0
1021
0.0
1031
0.0
1011
1.0
1021
0.0
1031
0.0
1021
0.0
1031
0.0
1011
0.0
1021
0.0
1031
0.0
1021
1.0
1031
0.0
1011
0.0
1021
0.0
1031
0.0
1021
0.0
1031
1.0
1002
}
  0
VERTEX
  5
1EF8
  8
SUPLIK
 10
43.385002136230469
 20
358.0
 30
38.5
 70
   192
  0
VERTEX
  5
1EF9
  8
SUPLIK
 10
1156.614990234375
 20
342.0
 30
38.5
 70
   192
  0
VERTEX
  5
1EFA
  8
SUPLIK
 10
43.385002136230469
 20
342.0
 30
38.5
 70
   192
  0
VERTEX
  5
1EFB
  8
SUPLIK
 10
1156.614990234375
 20
358.0
 30
38.5
 70
   192
  0
VERTEX
  5
1EFC
  8
SUPLIK
 10
1156.614990234375
 20
358.0
 30
38.5
 70
   192
  0
VERTEX
  5
1EFD
  8
SUPLIK
 10
1156.614990234375
 20
342.0
 30
39.0
 70
   192
  0
VERTEX
  5
1EFE
  8
SUPLIK
 10
1156.614990234375
 20
342.0
 30
38.5
 70
   192
  0
VERTEX
  5
1EFF
  8
SUPLIK
 10
1156.614990234375
 20
358.0
 30
39.0
 70
   192
  0
VERTEX
  5
1F00
  8
SUPLIK
 10
1156.614990234375
 20
358.0
 30
39.0
 70
   192
  0
VERTEX
  5
1F01
  8
SUPLIK
 10
43.385002136230469
 20
342.0
 30
39.0
 70
   192
  0
VERTEX
  5
1F02
  8
SUPLIK
 10
1156.614990234375
 20
342.0
 30
39.0
 70
   192
  0
VERTEX
  5
1F03
  8
SUPLIK
 10
43.385002136230469
 20
358.0
 30
39.0
 70
   192
  0
VERTEX
  5
1F04
  8
SUPLIK
 10
43.385002136230469
 20
358.0
 30
39.0
 70
   192
  0
VERTEX
  5
1F05
  8
SUPLIK
 10
43.385002136230469
 20
342.0
 30
38.5
 70
   192
  0
VERTEX
  5
1F06
  8
SUPLIK
 10
43.385002136230469
 20
342.0
 30
39.0
 70
   192
  0
VERTEX
  5
1F07
  8
SUPLIK
 10
43.385002136230469
 20
358.0
 30
38.5
 70
   192
  0
VERTEX
  5
1F08
  8
SUPLIK
 10
1156.614990234375
 20
342.0
 30
38.5
 70
   192
  0
VERTEX
  5
1F09
  8
SUPLIK
 10
43.385002136230469
 20
342.0
 30
39.0
 70
   192
  0
VERTEX
  5
1F0A
  8
SUPLIK
 10
43.385002136230469
 20
342.0
 30
38.5
 70
   192
  0
VERTEX
  5
1F0B
  8
SUPLIK
 10
1156.614990234375
 20
342.0
 30
39.0
 70
   192
  0
VERTEX
  5
1F0C
  8
SUPLIK
 10
1156.614990234375
 20
358.0
 30
38.5
 70
   192
  0
VERTEX
  5
1F0D
  8
SUPLIK
 10
43.385002136230469
 20
358.0
 30
39.0
 70
   192
  0
VERTEX
  5
1F0E
  8
SUPLIK
 10
1156.614990234375
 20
358.0
 30
39.0
 70
   192
  0
VERTEX
  5
1F0F
  8
SUPLIK
 10
43.385002136230469
 20
358.0
 30
38.5
 70
   192
  0
VERTEX
  5
1F10
  8
SUPLIK
 10
0.0
 20
0.0
 30
0.0
 70
   128
 71
     1
 72
     2
 73
     3
  0
VERTEX
  5
1F11
  8
SUPLIK
 10
0.0
 20
0.0
 30
0.0
 70
   128
 71
     2
 72
     1
 73
     4
  0
VERTEX
  5
1F12
  8
SUPLIK
 10
0.0
 20
0.0
 30
0.0
 70
   128
 71
     5
 72
     6
 73
     7
  0
VERTEX
  5
1F13
  8
SUPLIK
 10
0.0
 20
0.0
 30
0.0
 70
   128
 71
     6
 72
     5
 73
     8
  0
VERTEX
  5
1F14
  8
SUPLIK
 10
0.0
 20
0.0
 30
0.0
 70
   128
 71
     9
 72
    10
 73
    11
  0
VERTEX
  5
1F15
  8
SUPLIK
 10
0.0
 20
0.0
 30
0.0
 70
   128
 71
    10
 72
     9
 73
    12
  0
VERTEX
  5
1F16
  8
SUPLIK
 10
0.0
 20
0.0
 30
0.0
 70
   128
 71
    13
 72
    14
 73
    15
  0
VERTEX
  5
1F17
  8
SUPLIK
 10
0.0
 20
0.0
 30
0.0
 70
   128
 71
    14
 72
    13
 73
    16
  0
VERTEX
  5
1F18
  8
SUPLIK
 10
0.0
 20
0.0
 30
0.0
 70
   128
 71
    17
 72
    18
 73
    19
  0
VERTEX
  5
1F19
  8
SUPLIK
 10
0.0
 20
0.0
 30
0.0
 70
   128
 71
    18
 72
    17
 73
    20
  0
VERTEX
  5
1F1A
  8
SUPLIK
 10
0.0
 20
0.0
 30
0.0
 70
   128
 71
    21
 72
    22
 73
    23
  0
VERTEX
  5
1F1B
  8
SUPLIK
 10
0.0
 20
0.0
 30
0.0
 70
   128
 71
    22
 72
    21
 73
    24
  0
SEQEND
  5
1F1C
  8
SUPLIK
  0
POLYLINE
  5
1F1E
  8
CELO
 66
     1
 10
0.0
 20
0.0
 30
0.0
 70
    64
 71
   585
 72
   601
1001
AVE_ENTITY_MATERIAL
1002
{
1000

1002
{
1071
        0
1070
     0
1070
     0
1002
{
1070
     0
1070
     0
1070
     0
1040
0.0
1002
}
1070
     0
1070
     0
1002
{
1002
}
1002
}
1002
{
1002
}
1002
{
1002
}
1011
0.0
1021
0.0
1031
0.0
1021
0.0
1031
0.0
1011
1.0
1021
0.0
1031
0.0
1021
0.0
1031
0.0
1011
0.0
1021
0.0
1031
0.0
1021
1.0
1031
0.0
1011
0.0
1021
0.0
1031
0.0
1021
0.0
1031
1.0
1002
}
  0
VERTEX
  5
1F1F
  8
CELO
 10
123.7080383300781
 20
5.999985694885253
 30
322.31427001953131
 70
   192
  0
VERTEX
  5
1F20
  8
CELO
 10
126.76247406005859
 20
-0.0000133514404297
 30
322.0
 70
   192
  0
VERTEX
  5
1F21
  8
CELO
 10
126.76247406005859
 20
5.999985694885253
 30
322.0
 70
   192
  0
VERTEX
  5
1F22
  8
CELO
 10
112.0807571411132
 20
-0.0000152587890625
 30
333.92636108398437
 70
   192
  0
VERTEX
  5
1F23
  8
CELO
 10
111.76247406005859
 20
15.99998474121093
 30
337.0
 70
   192
  0
VERTEX
  5
1F24
  8
CELO
 10
111.76247406005859
 20
-0.0000152587890625
 30
337.0
 70
   192
  0
VERTEX
  5
1F25
  8
CELO
 10
112.02317810058589
 20
15.99998569488525
 30
334.215576171875
 70
   192
  0
VERTEX
  5
1F26
  8
CELO
 10
112.7962112426758
 20
15.99998569488525
 30
331.52792358398437
 70
   192
  0
VERTEX
  5
1F27
  8
CELO
 10
112.9963455200195
 20
-0.0000152587890625
 30
331.04232788085937
 70
   192
  0
VERTEX
  5
1F28
  8
CELO
 10
114.2392272949219
 20
14.36457443237304
 30
328.74359130859369
 70
   192
  0
VERTEX
  5
1F29
  8
CELO
 10
114.40293884277339
 20
-0.0000152587890625
 30
328.50048828125
 70
   192
  0
VERTEX
  5
1F2A
  8
CELO
 10
115.19089508056641
 20
13.286012649536129
 30
327.4554443359375
 70
   192
  0
VERTEX
  5
1F2B
  8
CELO
 10
116.155876159668
 20
-0.0000133514404297
 30
326.39340209960937
 70
   192
  0
VERTEX
  5
1F2C
  8
CELO
 10
116.2810974121093
 20
12.05045127868652
 30
326.26962280273437
 70
   192
  0
VERTEX
  5
1F2D
  8
CELO
 10
117.49217224121089
 20
10.677901268005369
 30
325.20758056640631
 70
   192
  0
VERTEX
  5
1F2E
  8
CELO
 10
118.26295471191401
 20
-0.0000133514404297
 30
324.64047241210937
 70
   192
  0
VERTEX
  5
1F2F
  8
CELO
 10
118.80230712890619
 20
9.1930789947509766
 30
324.28640747070312
 70
   192
  0
VERTEX
  5
1F30
  8
CELO
 10
120.804817199707
 20
-0.0000133514404297
 30
323.23388671875
 70
   192
  0
VERTEX
  5
1F31
  8
CELO
 10
121.6197433471679
 20
5.999985694885253
 30
322.90914916992187
 70
   192
  0
VERTEX
  5
1F32
  8
CELO
 10
123.6888351440429
 20
-0.0000133514404297
 30
322.31829833984381
 70
   192
  0
VERTEX
  5
1F33
  8
CELO
 10
1073.237548828125
 20
-0.0000133514404297
 30
322.0
 70
   192
  0
VERTEX
  5
1F34
  8
CELO
 10
1075.848754882812
 20
5.999985694885253
 30
322.22903442382812
 70
   192
  0
VERTEX
  5
1F35
  8
CELO
 10
1073.237548828125
 20
5.999985694885253
 30
322.0
 70
   192
  0
VERTEX
  5
1F36
  8
CELO
 10
1088.237548828125
 20
15.99998474121093
 30
337.0
 70
   192
  0
VERTEX
  5
1F37
  8
CELO
 10
1087.919189453125
 20
-0.0000152587890625
 30
333.92636108398437
 70
   192
  0
VERTEX
  5
1F38
  8
CELO
 10
1088.237548828125
 20
-0.0000152587890625
 30
337.0
 70
   192
  0
VERTEX
  5
1F39
  8
CELO
 10
1087.924194335937
 20
15.99998569488525
 30
333.95022583007812
 70
   192
  0
VERTEX
  5
1F3A
  8
CELO
 10
1087.203735351562
 20
15.99998569488525
 30
331.52792358398437
 70
   192
  0
VERTEX
  5
1F3B
  8
CELO
 10
1087.003662109375
 20
-0.0000152587890625
 30
331.04232788085937
 70
   192
  0
VERTEX
  5
1F3C
  8
CELO
 10
1085.7607421875
 20
14.36457443237304
 30
328.74359130859369
 70
   192
  0
VERTEX
  5
1F3D
  8
CELO
 10
1085.597045898437
 20
-0.0000152587890625
 30
328.50048828125
 70
   192
  0
VERTEX
  5
1F3E
  8
CELO
 10
1084.80908203125
 20
13.286012649536129
 30
327.4554443359375
 70
   192
  0
VERTEX
  5
1F3F
  8
CELO
 10
1083.844116210937
 20
-0.0000133514404297
 30
326.39340209960937
 70
   192
  0
VERTEX
  5
1F40
  8
CELO
 10
1083.718872070312
 20
12.05045127868652
 30
326.26962280273437
 70
   192
  0
VERTEX
  5
1F41
  8
CELO
 10
1082.5078125
 20
10.677901268005369
 30
325.20758056640631
 70
   192
  0
VERTEX
  5
1F42
  8
CELO
 10
1081.737060546875
 20
-0.0000133514404297
 30
324.64047241210937
 70
   192
  0
VERTEX
  5
1F43
  8
CELO
 10
1081.197631835937
 20
9.1930789947509766
 30
324.28640747070312
 70
   192
  0
VERTEX
  5
1F44
  8
CELO
 10
1079.195190429687
 20
-0.0000133514404297
 30
323.23388671875
 70
   192
  0
VERTEX
  5
1F45
  8
CELO
 10
1078.380249023437
 20
5.999985694885253
 30
322.90914916992187
 70
   192
  0
VERTEX
  5
1F46
  8
CELO
 10
1076.311157226562
 20
-0.0000133514404297
 30
322.31829833984381
 70
   192
  0
VERTEX
  5
1F47
  8
CELO
 10
1073.237548828125
 20
-0.0000133514404297
 30
322.0
 70
   192
  0
VERTEX
  5
1F48
  8
CELO
 10
126.76247406005859
 20
5.999985694885253
 30
322.0
 70
   192
  0
VERTEX
  5
1F49
  8
CELO
 10
126.76247406005859
 20
-0.0000133514404297
 30
322.0
 70
   192
  0
VERTEX
  5
1F4A
  8
CELO
 10
1073.237548828125
 20
5.999985694885253
 30
322.0
 70
   192
  0
VERTEX
  5
1F4B
  8
CELO
 10
1181.906616210937
 20
17.999984741210941
 30
347.0
 70
   192
  0
VERTEX
  5
1F4C
  8
CELO
 10
1175.27685546875
 20
3.032176971435546
 30
347.0
 70
   192
  0
VERTEX
  5
1F4D
  8
CELO
 10
1182.244750976562
 20
6.7558794021606436
 30
347.0
 70
   192
  0
VERTEX
  5
1F4E
  8
CELO
 10
1188.237548828125
 20
11.669044494628899
 30
347.0
 70
   192
  0
VERTEX
  5
1F4F
  8
CELO
 10
1160.0
 20
-0.0000152587890625
 30
347.0
 70
   192
  0
VERTEX
  5
1F50
  8
CELO
 10
1090.237548828125
 20
17.999984741210941
 30
347.0
 70
   192
  0
VERTEX
  5
1F51
  8
CELO
 10
1090.237548828125
 20
-0.0000152587890625
 30
347.0
 70
   192
  0
VERTEX
  5
1F52
  8
CELO
 10
1167.712890625
 20
0.7506389617919922
 30
347.0
 70
   192
  0
VERTEX
  5
1F53
  8
CELO
 10
1175.27685546875
 20
3.0321922302246089
 30
-0.0000006542636584
 70
   192
  0
VERTEX
  5
1F54
  8
CELO
 10
1181.906616210937
 20
18.0
 30
0.0
 70
   192
  0
VERTEX
  5
1F55
  8
CELO
 10
1182.244750976562
 20
6.755894660949707
 30
-0.0000004914954275
 70
   192
  0
VERTEX
  5
1F56
  8
CELO
 10
1188.237548828125
 20
11.669059753417971
 30
-0.0000002767341698
 70
   192
  0
VERTEX
  5
1F57
  8
CELO
 10
18.093414306640621
 20
18.0
 30
0.0
 70
   192
  0
VERTEX
  5
1F58
  8
CELO
 10
17.7552375793457
 20
6.755894660949707
 30
-0.0000004914954275
 70
   192
  0
VERTEX
  5
1F59
  8
CELO
 10
11.76247406005859
 20
11.669059753417971
 30
-0.0000002767341698
 70
   192
  0
VERTEX
  5
1F5A
  8
CELO
 10
24.723180770874031
 20
3.0321922302246089
 30
-0.0000006542636584
 70
   192
  0
VERTEX
  5
1F5B
  8
CELO
 10
32.287094116210937
 20
0.7506542205810547
 30
-0.0000007539928788
 70
   192
  0
VERTEX
  5
1F5C
  8
CELO
 10
40.0
 20
0.0
 30
-0.0000007868050034
 70
   192
  0
VERTEX
  5
1F5D
  8
CELO
 10
1160.0
 20
0.0
 30
-0.0000007868050034
 70
   192
  0
VERTEX
  5
1F5E
  8
CELO
 10
1167.712890625
 20
0.7506542205810547
 30
-0.0000007539928788
 70
   192
  0
VERTEX
  5
1F5F
  8
CELO
 10
24.723180770874031
 20
3.032176971435546
 30
347.0
 70
   192
  0
VERTEX
  5
1F60
  8
CELO
 10
18.093414306640621
 20
17.999984741210941
 30
347.0
 70
   192
  0
VERTEX
  5
1F61
  8
CELO
 10
17.7552375793457
 20
6.7558794021606436
 30
347.0
 70
   192
  0
VERTEX
  5
1F62
  8
CELO
 10
11.76247406005859
 20
11.669044494628899
 30
347.0
 70
   192
  0
VERTEX
  5
1F63
  8
CELO
 10
109.76247406005859
 20
17.999984741210941
 30
347.0
 70
   192
  0
VERTEX
  5
1F64
  8
CELO
 10
40.0
 20
-0.0000152587890625
 30
347.0
 70
   192
  0
VERTEX
  5
1F65
  8
CELO
 10
109.76247406005859
 20
-0.0000152587890625
 30
347.0
 70
   192
  0
VERTEX
  5
1F66
  8
CELO
 10
32.287094116210937
 20
0.7506389617919922
 30
347.0
 70
   192
  0
VERTEX
  5
1F67
  8
CELO
 10
1181.906616210937
 20
18.0
 30
0.0
 70
   192
  0
VERTEX
  5
1F68
  8
CELO
 10
1075.966918945312
 20
17.99998664855957
 30
292.25042724609369
 70
   192
  0
VERTEX
  5
1F69
  8
CELO
 10
1078.758911132812
 20
17.99998664855957
 30
293.05316162109381
 70
   192
  0
VERTEX
  5
1F6A
  8
CELO
 10
1181.906616210937
 20
17.999984741210941
 30
347.0
 70
   192
  0
VERTEX
  5
1F6B
  8
CELO
 10
1090.237548828125
 20
17.999984741210941
 30
337.0
 70
   192
  0
VERTEX
  5
1F6C
  8
CELO
 10
1090.237548828125
 20
17.999984741210941
 30
347.0
 70
   192
  0
VERTEX
  5
1F6D
  8
CELO
 10
1089.72998046875
 20
17.999984741210941
 30
332.87689208984381
 70
   192
  0
VERTEX
  5
1F6E
  8
CELO
 10
1088.237548828125
 20
17.999984741210941
 30
329.0
 70
   192
  0
VERTEX
  5
1F6F
  8
CELO
 10
1088.237548828125
 20
17.99998664855957
 30
307.0
 70
   192
  0
VERTEX
  5
1F70
  8
CELO
 10
1087.987060546875
 20
17.99998664855957
 30
304.27056884765631
 70
   192
  0
VERTEX
  5
1F71
  8
CELO
 10
1087.184326171875
 20
17.99998664855957
 30
301.47857666015619
 70
   192
  0
VERTEX
  5
1F72
  8
CELO
 10
1085.79248046875
 20
17.99998664855957
 30
298.79183959960937
 70
   192
  0
VERTEX
  5
1F73
  8
CELO
 10
1083.844116210937
 20
17.99998664855957
 30
296.39340209960937
 70
   192
  0
VERTEX
  5
1F74
  8
CELO
 10
1081.445678710937
 20
17.99998664855957
 30
294.445068359375
 70
   192
  0
VERTEX
  5
1F75
  8
CELO
 10
109.76247406005859
 20
17.999984741210941
 30
337.0
 70
   192
  0
VERTEX
  5
1F76
  8
CELO
 10
18.093414306640621
 20
17.999984741210941
 30
347.0
 70
   192
  0
VERTEX
  5
1F77
  8
CELO
 10
109.76247406005859
 20
17.999984741210941
 30
347.0
 70
   192
  0
VERTEX
  5
1F78
  8
CELO
 10
18.093414306640621
 20
18.0
 30
0.0
 70
   192
  0
VERTEX
  5
1F79
  8
CELO
 10
110.2700500488281
 20
17.999984741210941
 30
332.87689208984381
 70
   192
  0
VERTEX
  5
1F7A
  8
CELO
 10
111.76247406005859
 20
17.999984741210941
 30
329.0
 70
   192
  0
VERTEX
  5
1F7B
  8
CELO
 10
111.76247406005859
 20
17.99998664855957
 30
307.0
 70
   192
  0
VERTEX
  5
1F7C
  8
CELO
 10
112.0128936767578
 20
17.99998664855957
 30
304.27056884765631
 70
   192
  0
VERTEX
  5
1F7D
  8
CELO
 10
112.81565093994141
 20
17.99998664855957
 30
301.47857666015619
 70
   192
  0
VERTEX
  5
1F7E
  8
CELO
 10
114.20754241943359
 20
17.99998664855957
 30
298.79183959960937
 70
   192
  0
VERTEX
  5
1F7F
  8
CELO
 10
116.155876159668
 20
17.99998664855957
 30
296.39340209960937
 70
   192
  0
VERTEX
  5
1F80
  8
CELO
 10
118.554328918457
 20
17.99998664855957
 30
294.445068359375
 70
   192
  0
VERTEX
  5
1F81
  8
CELO
 10
121.2410507202148
 20
17.99998664855957
 30
293.05316162109381
 70
   192
  0
VERTEX
  5
1F82
  8
CELO
 10
124.0330276489258
 20
17.99998664855957
 30
292.25042724609369
 70
   192
  0
VERTEX
  5
1F83
  8
CELO
 10
126.76247406005859
 20
17.99998664855957
 30
292.0
 70
   192
  0
VERTEX
  5
1F84
  8
CELO
 10
1073.237548828125
 20
17.99998664855957
 30
292.0
 70
   192
  0
VERTEX
  5
1F85
  8
CELO
 10
121.2410507202148
 20
-0.0000133514404297
 30
323.05316162109369
 70
   192
  0
VERTEX
  5
1F86
  8
CELO
 10
1160.0
 20
0.0
 30
-0.0000007868050034
 70
   192
  0
VERTEX
  5
1F87
  8
CELO
 10
124.0330276489258
 20
-0.0000133514404297
 30
322.25042724609381
 70
   192
  0
VERTEX
  5
1F88
  8
CELO
 10
40.0
 20
-0.0000152587890625
 30
347.0
 70
   192
  0
VERTEX
  5
1F89
  8
CELO
 10
40.0
 20
0.0
 30
-0.0000007868050034
 70
   192
  0
VERTEX
  5
1F8A
  8
CELO
 10
1090.237548828125
 20
-0.0000152587890625
 30
347.0
 70
   192
  0
VERTEX
  5
1F8B
  8
CELO
 10
1160.0
 20
-0.0000152587890625
 30
347.0
 70
   192
  0
VERTEX
  5
1F8C
  8
CELO
 10
1089.873657226562
 20
-0.0000152587890625
 30
346.96661376953131
 70
   192
  0
VERTEX
  5
1F8D
  8
CELO
 10
1089.501342773437
 20
-0.0000152587890625
 30
346.85958862304687
 70
   192
  0
VERTEX
  5
1F8E
  8
CELO
 10
1089.14306640625
 20
-0.0000152587890625
 30
346.67398071289062
 70
   192
  0
VERTEX
  5
1F8F
  8
CELO
 10
1088.823364257812
 20
-0.0000152587890625
 30
346.41421508789062
 70
   192
  0
VERTEX
  5
1F90
  8
CELO
 10
1088.5634765625
 20
-0.0000152587890625
 30
346.09442138671869
 70
   192
  0
VERTEX
  5
1F91
  8
CELO
 10
1088.3779296875
 20
-0.0000152587890625
 30
345.73617553710937
 70
   192
  0
VERTEX
  5
1F92
  8
CELO
 10
1088.270874023437
 20
-0.0000152587890625
 30
345.36392211914062
 70
   192
  0
VERTEX
  5
1F93
  8
CELO
 10
1088.237548828125
 20
-0.0000152587890625
 30
345.0
 70
   192
  0
VERTEX
  5
1F94
  8
CELO
 10
1088.237548828125
 20
-0.0000152587890625
 30
337.0
 70
   192
  0
VERTEX
  5
1F95
  8
CELO
 10
1087.987060546875
 20
-0.0000152587890625
 30
334.27056884765619
 70
   192
  0
VERTEX
  5
1F96
  8
CELO
 10
1087.184326171875
 20
-0.0000152587890625
 30
331.47857666015631
 70
   192
  0
VERTEX
  5
1F97
  8
CELO
 10
1085.79248046875
 20
-0.0000152587890625
 30
328.79183959960937
 70
   192
  0
VERTEX
  5
1F98
  8
CELO
 10
1083.844116210937
 20
-0.0000133514404297
 30
326.39340209960937
 70
   192
  0
VERTEX
  5
1F99
  8
CELO
 10
1081.445678710937
 20
-0.0000133514404297
 30
324.445068359375
 70
   192
  0
VERTEX
  5
1F9A
  8
CELO
 10
1078.758911132812
 20
-0.0000133514404297
 30
323.05316162109369
 70
   192
  0
VERTEX
  5
1F9B
  8
CELO
 10
1075.966918945312
 20
-0.0000133514404297
 30
322.25042724609381
 70
   192
  0
VERTEX
  5
1F9C
  8
CELO
 10
1073.237548828125
 20
-0.0000133514404297
 30
322.0
 70
   192
  0
VERTEX
  5
1F9D
  8
CELO
 10
126.76247406005859
 20
-0.0000133514404297
 30
322.0
 70
   192
  0
VERTEX
  5
1F9E
  8
CELO
 10
110.12640380859369
 20
-0.0000152587890625
 30
346.96661376953131
 70
   192
  0
VERTEX
  5
1F9F
  8
CELO
 10
110.8568954467773
 20
-0.0000152587890625
 30
346.67398071289062
 70
   192
  0
VERTEX
  5
1FA0
  8
CELO
 10
110.498664855957
 20
-0.0000152587890625
 30
346.85958862304687
 70
   192
  0
VERTEX
  5
1FA1
  8
CELO
 10
111.1766891479492
 20
-0.0000152587890625
 30
346.41421508789062
 70
   192
  0
VERTEX
  5
1FA2
  8
CELO
 10
111.43646240234369
 20
-0.0000152587890625
 30
346.09442138671869
 70
   192
  0
VERTEX
  5
1FA3
  8
CELO
 10
109.76247406005859
 20
-0.0000152587890625
 30
347.0
 70
   192
  0
VERTEX
  5
1FA4
  8
CELO
 10
111.62204742431641
 20
-0.0000152587890625
 30
345.73617553710937
 70
   192
  0
VERTEX
  5
1FA5
  8
CELO
 10
111.7290878295898
 20
-0.0000152587890625
 30
345.36392211914062
 70
   192
  0
VERTEX
  5
1FA6
  8
CELO
 10
111.76247406005859
 20
-0.0000152587890625
 30
345.0
 70
   192
  0
VERTEX
  5
1FA7
  8
CELO
 10
111.76247406005859
 20
-0.0000152587890625
 30
337.0
 70
   192
  0
VERTEX
  5
1FA8
  8
CELO
 10
112.0128936767578
 20
-0.0000152587890625
 30
334.27056884765619
 70
   192
  0
VERTEX
  5
1FA9
  8
CELO
 10
112.81565093994141
 20
-0.0000152587890625
 30
331.47857666015631
 70
   192
  0
VERTEX
  5
1FAA
  8
CELO
 10
114.20754241943359
 20
-0.0000152587890625
 30
328.79183959960937
 70
   192
  0
VERTEX
  5
1FAB
  8
CELO
 10
116.155876159668
 20
-0.0000133514404297
 30
326.39340209960937
 70
   192
  0
VERTEX
  5
1FAC
  8
CELO
 10
118.554328918457
 20
-0.0000133514404297
 30
324.445068359375
 70
   192
  0
VERTEX
  5
1FAD
  8
CELO
 10
1187.811889648437
 20
11.25106620788574
 30
347.0
 70
   192
  0
VERTEX
  5
1FAE
  8
CELO
 10
1188.237548828125
 20
11.669059753417971
 30
-0.0000002767341698
 70
   192
  0
VERTEX
  5
1FAF
  8
CELO
 10
1188.237548828125
 20
11.669044494628899
 30
347.0
 70
   192
  0
VERTEX
  5
1FB0
  8
CELO
 10
1160.0
 20
0.0
 30
-0.0000007868050034
 70
   192
  0
VERTEX
  5
1FB1
  8
CELO
 10
1160.596557617187
 20
0.0044326782226563
 30
347.0
 70
   192
  0
VERTEX
  5
1FB2
  8
CELO
 10
1160.0
 20
-0.0000152587890625
 30
347.0
 70
   192
  0
VERTEX
  5
1FB3
  8
CELO
 10
1160.596557617187
 20
0.0044479370117188
 30
-0.000000786610542
 70
   192
  0
VERTEX
  5
1FB4
  8
CELO
 10
1168.295043945312
 20
0.8695240020751953
 30
347.0
 70
   192
  0
VERTEX
  5
1FB5
  8
CELO
 10
1168.295043945312
 20
0.8695392608642578
 30
-0.0000007487961966
 70
   192
  0
VERTEX
  5
1FB6
  8
CELO
 10
1175.27685546875
 20
3.0321922302246089
 30
-0.0000006542636584
 70
   192
  0
VERTEX
  5
1FB7
  8
CELO
 10
1175.27685546875
 20
3.032176971435546
 30
347.0
 70
   192
  0
VERTEX
  5
1FB8
  8
CELO
 10
1181.74853515625
 20
6.4291725158691397
 30
-0.0000005057769386
 70
   192
  0
VERTEX
  5
1FB9
  8
CELO
 10
1181.74853515625
 20
6.4291572570800781
 30
347.0
 70
   192
  0
VERTEX
  5
1FBA
  8
CELO
 10
1187.811889648437
 20
11.251081466674799
 30
-0.000000295004611
 70
   192
  0
VERTEX
  5
1FBB
  8
CELO
 10
40.0
 20
-0.0000152587890625
 30
347.0
 70
   192
  0
VERTEX
  5
1FBC
  8
CELO
 10
39.403446197509773
 20
0.0044479370117188
 30
-0.000000786610542
 70
   192
  0
VERTEX
  5
1FBD
  8
CELO
 10
40.0
 20
0.0
 30
-0.0000007868050034
 70
   192
  0
VERTEX
  5
1FBE
  8
CELO
 10
11.76247406005859
 20
11.669059753417971
 30
-0.0000002767341698
 70
   192
  0
VERTEX
  5
1FBF
  8
CELO
 10
12.18813800811767
 20
11.25106620788574
 30
347.0
 70
   192
  0
VERTEX
  5
1FC0
  8
CELO
 10
11.76247406005859
 20
11.669044494628899
 30
347.0
 70
   192
  0
VERTEX
  5
1FC1
  8
CELO
 10
12.18813800811767
 20
11.251081466674799
 30
-0.000000295004611
 70
   192
  0
VERTEX
  5
1FC2
  8
CELO
 10
18.251447677612301
 20
6.4291725158691397
 30
-0.0000005057769386
 70
   192
  0
VERTEX
  5
1FC3
  8
CELO
 10
18.251447677612301
 20
6.4291572570800781
 30
347.0
 70
   192
  0
VERTEX
  5
1FC4
  8
CELO
 10
24.723180770874031
 20
3.0321922302246089
 30
-0.0000006542636584
 70
   192
  0
VERTEX
  5
1FC5
  8
CELO
 10
24.723180770874031
 20
3.032176971435546
 30
347.0
 70
   192
  0
VERTEX
  5
1FC6
  8
CELO
 10
31.704996109008789
 20
0.8695392608642578
 30
-0.0000007487961966
 70
   192
  0
VERTEX
  5
1FC7
  8
CELO
 10
31.704996109008789
 20
0.8695240020751953
 30
347.0
 70
   192
  0
VERTEX
  5
1FC8
  8
CELO
 10
39.403446197509773
 20
0.0044326782226563
 30
347.0
 70
   192
  0
VERTEX
  5
1FC9
  8
CELO
 10
1188.237548828125
 20
11.669059753417971
 30
-0.0000002767341698
 70
   192
  0
VERTEX
  5
1FCA
  8
CELO
 10
1181.906616210937
 20
17.999984741210941
 30
347.0
 70
   192
  0
VERTEX
  5
1FCB
  8
CELO
 10
1188.237548828125
 20
11.669044494628899
 30
347.0
 70
   192
  0
VERTEX
  5
1FCC
  8
CELO
 10
1181.906616210937
 20
18.0
 30
0.0
 70
   192
  0
VERTEX
  5
1FCD
  8
CELO
 10
18.093414306640621
 20
17.999984741210941
 30
347.0
 70
   192
  0
VERTEX
  5
1FCE
  8
CELO
 10
11.76247406005859
 20
11.669059753417971
 30
-0.0000002767341698
 70
   192
  0
VERTEX
  5
1FCF
  8
CELO
 10
11.76247406005859
 20
11.669044494628899
 30
347.0
 70
   192
  0
VERTEX
  5
1FD0
  8
CELO
 10
18.093414306640621
 20
18.0
 30
0.0
 70
   192
  0
VERTEX
  5
1FD1
  8
CELO
 10
111.76247406005859
 20
-0.0000152587890625
 30
337.0
 70
   192
  0
VERTEX
  5
1FD2
  8
CELO
 10
111.76247406005859
 20
15.99998474121093
 30
345.0
 70
   192
  0
VERTEX
  5
1FD3
  8
CELO
 10
111.76247406005859
 20
-0.0000152587890625
 30
345.0
 70
   192
  0
VERTEX
  5
1FD4
  8
CELO
 10
111.76247406005859
 20
15.99998474121093
 30
337.0
 70
   192
  0
VERTEX
  5
1FD5
  8
CELO
 10
1088.237548828125
 20
15.99998474121093
 30
345.0
 70
   192
  0
VERTEX
  5
1FD6
  8
CELO
 10
1088.237548828125
 20
-0.0000152587890625
 30
337.0
 70
   192
  0
VERTEX
  5
1FD7
  8
CELO
 10
1088.237548828125
 20
-0.0000152587890625
 30
345.0
 70
   192
  0
VERTEX
  5
1FD8
  8
CELO
 10
1088.237548828125
 20
15.99998474121093
 30
337.0
 70
   192
  0
VERTEX
  5
1FD9
  8
CELO
 10
1073.237548828125
 20
7.9999866485595703
 30
302.0
 70
   192
  0
VERTEX
  5
1FDA
  8
CELO
 10
1075.078002929687
 20
7.9999866485595703
 30
302.35104370117187
 70
   192
  0
VERTEX
  5
1FDB
  8
CELO
 10
1074.147338867187
 20
7.9999866485595703
 30
302.08346557617187
 70
   192
  0
VERTEX
  5
1FDC
  8
CELO
 10
1078.237548828125
 20
7.9999866485595703
 30
307.0
 70
   192
  0
VERTEX
  5
1FDD
  8
CELO
 10
1073.237548828125
 20
7.999985694885253
 30
320.0
 70
   192
  0
VERTEX
  5
1FDE
  8
CELO
 10
1078.237548828125
 20
7.999985694885253
 30
320.75192260742187
 70
   192
  0
VERTEX
  5
1FDF
  8
CELO
 10
126.76247406005859
 20
7.999985694885253
 30
320.0
 70
   192
  0
VERTEX
  5
1FE0
  8
CELO
 10
121.76247406005859
 20
7.9999866485595703
 30
307.0
 70
   192
  0
VERTEX
  5
1FE1
  8
CELO
 10
121.76247406005859
 20
7.999985694885253
 30
320.75192260742187
 70
   192
  0
VERTEX
  5
1FE2
  8
CELO
 10
121.845947265625
 20
7.9999866485595703
 30
306.09017944335937
 70
   192
  0
VERTEX
  5
1FE3
  8
CELO
 10
122.1135330200195
 20
7.9999866485595703
 30
305.15951538085937
 70
   192
  0
VERTEX
  5
1FE4
  8
CELO
 10
122.57749938964839
 20
7.9999866485595703
 30
304.26394653320312
 70
   192
  0
VERTEX
  5
1FE5
  8
CELO
 10
123.22694396972651
 20
7.9999866485595703
 30
303.4644775390625
 70
   192
  0
VERTEX
  5
1FE6
  8
CELO
 10
124.02642822265619
 20
7.9999866485595703
 30
302.81503295898437
 70
   192
  0
VERTEX
  5
1FE7
  8
CELO
 10
124.9219970703125
 20
7.9999866485595703
 30
302.35104370117187
 70
   192
  0
VERTEX
  5
1FE8
  8
CELO
 10
125.8526611328125
 20
7.9999866485595703
 30
302.08346557617187
 70
   192
  0
VERTEX
  5
1FE9
  8
CELO
 10
126.76247406005859
 20
7.9999866485595703
 30
302.0
 70
   192
  0
VERTEX
  5
1FEA
  8
CELO
 10
1078.154052734375
 20
7.9999866485595703
 30
306.09017944335937
 70
   192
  0
VERTEX
  5
1FEB
  8
CELO
 10
1077.886474609375
 20
7.9999866485595703
 30
305.15951538085937
 70
   192
  0
VERTEX
  5
1FEC
  8
CELO
 10
1077.422485351562
 20
7.9999866485595703
 30
304.26394653320312
 70
   192
  0
VERTEX
  5
1FED
  8
CELO
 10
1076.773071289062
 20
7.9999866485595703
 30
303.4644775390625
 70
   192
  0
VERTEX
  5
1FEE
  8
CELO
 10
1075.9736328125
 20
7.9999866485595703
 30
302.81503295898437
 70
   192
  0
VERTEX
  5
1FEF
  8
CELO
 10
1081.256958007812
 20
11.019449234008791
 30
322.857666015625
 70
   192
  0
VERTEX
  5
1FF0
  8
CELO
 10
1078.237548828125
 20
7.999985694885253
 30
320.75192260742187
 70
   192
  0
VERTEX
  5
1FF1
  8
CELO
 10
1078.179931640625
 20
7.9423551559448242
 30
321.233154296875
 70
   192
  0
VERTEX
  5
1FF2
  8
CELO
 10
1078.237548828125
 20
7.9999866485595703
 30
307.0
 70
   192
  0
VERTEX
  5
1FF3
  8
CELO
 10
1088.237548828125
 20
17.999984741210941
 30
329.0
 70
   192
  0
VERTEX
  5
1FF4
  8
CELO
 10
1088.237548828125
 20
17.99998664855957
 30
307.0
 70
   192
  0
VERTEX
  5
1FF5
  8
CELO
 10
1087.829956054687
 20
17.59242057800293
 30
330.96786499023437
 70
   192
  0
VERTEX
  5
1FF6
  8
CELO
 10
1086.195434570312
 20
15.95795059204101
 30
327.92031860351562
 70
   192
  0
VERTEX
  5
1FF7
  8
CELO
 10
1087.7431640625
 20
17.505578994750969
 30
331.03680419921869
 70
   192
  0
VERTEX
  5
1FF8
  8
CELO
 10
1087.904296875
 20
17.666788101196289
 30
330.87423706054687
 70
   192
  0
VERTEX
  5
1FF9
  8
CELO
 10
1088.018188476562
 20
17.780708312988281
 30
330.64373779296869
 70
   192
  0
VERTEX
  5
1FFA
  8
CELO
 10
1088.154174804687
 20
17.916690826416009
 30
330.115966796875
 70
   192
  0
VERTEX
  5
1FFB
  8
CELO
 10
1083.992431640625
 20
13.754885673522949
 30
325.12933349609381
 70
   192
  0
VERTEX
  5
1FFC
  8
CELO
 10
1073.237548828125
 20
7.9999866485595703
 30
302.0
 70
   192
  0
VERTEX
  5
1FFD
  8
CELO
 10
1075.966918945312
 20
17.99998664855957
 30
292.25042724609369
 70
   192
  0
VERTEX
  5
1FFE
  8
CELO
 10
1073.237548828125
 20
17.99998664855957
 30
292.0
 70
   192
  0
VERTEX
  5
1FFF
  8
CELO
 10
1088.237548828125
 20
17.99998664855957
 30
307.0
 70
   192
  0
VERTEX
  5
2000
  8
CELO
 10
1078.131469726562
 20
7.9999866485595703
 30
305.9754638671875
 70
   192
  0
VERTEX
  5
2001
  8
CELO
 10
1078.237548828125
 20
7.9999866485595703
 30
307.0
 70
   192
  0
VERTEX
  5
2002
  8
CELO
 10
1087.987060546875
 20
17.99998664855957
 30
304.27056884765631
 70
   192
  0
VERTEX
  5
2003
  8
CELO
 10
1087.184326171875
 20
17.99998664855957
 30
301.47857666015619
 70
   192
  0
VERTEX
  5
2004
  8
CELO
 10
1077.826293945312
 20
7.9999866485595703
 30
305.01409912109381
 70
   192
  0
VERTEX
  5
2005
  8
CELO
 10
1085.79248046875
 20
17.99998664855957
 30
298.79183959960937
 70
   192
  0
VERTEX
  5
2006
  8
CELO
 10
1077.357421875
 20
7.9999866485595703
 30
304.16683959960937
 70
   192
  0
VERTEX
  5
2007
  8
CELO
 10
1084.8828125
 20
17.99998664855957
 30
297.5455322265625
 70
   192
  0
VERTEX
  5
2008
  8
CELO
 10
1076.773071289062
 20
7.9999866485595703
 30
303.4644775390625
 70
   192
  0
VERTEX
  5
2009
  8
CELO
 10
1083.844116210937
 20
17.99998664855957
 30
296.39340209960937
 70
   192
  0
VERTEX
  5
200A
  8
CELO
 10
1076.070678710937
 20
7.9999866485595703
 30
302.88015747070312
 70
   192
  0
VERTEX
  5
200B
  8
CELO
 10
1082.692016601562
 20
17.99998664855957
 30
295.35470581054687
 70
   192
  0
VERTEX
  5
200C
  8
CELO
 10
1081.445678710937
 20
17.99998664855957
 30
294.445068359375
 70
   192
  0
VERTEX
  5
200D
  8
CELO
 10
1075.223388671875
 20
7.9999866485595703
 30
302.41128540039062
 70
   192
  0
VERTEX
  5
200E
  8
CELO
 10
1078.758911132812
 20
17.99998664855957
 30
293.05316162109381
 70
   192
  0
VERTEX
  5
200F
  8
CELO
 10
1074.262084960937
 20
7.9999866485595703
 30
302.10610961914062
 70
   192
  0
VERTEX
  5
2010
  8
CELO
 10
1073.237548828125
 20
7.9999866485595703
 30
302.0
 70
   192
  0
VERTEX
  5
2011
  8
CELO
 10
126.76247406005859
 20
17.99998664855957
 30
292.0
 70
   192
  0
VERTEX
  5
2012
  8
CELO
 10
126.76247406005859
 20
7.9999866485595703
 30
302.0
 70
   192
  0
VERTEX
  5
2013
  8
CELO
 10
1073.237548828125
 20
17.99998664855957
 30
292.0
 70
   192
  0
VERTEX
  5
2014
  8
CELO
 10
121.76247406005859
 20
7.9999866485595703
 30
307.0
 70
   192
  0
VERTEX
  5
2015
  8
CELO
 10
112.0128936767578
 20
17.99998664855957
 30
304.27056884765631
 70
   192
  0
VERTEX
  5
2016
  8
CELO
 10
111.76247406005859
 20
17.99998664855957
 30
307.0
 70
   192
  0
VERTEX
  5
2017
  8
CELO
 10
126.76247406005859
 20
17.99998664855957
 30
292.0
 70
   192
  0
VERTEX
  5
2018
  8
CELO
 10
125.73793029785151
 20
7.9999866485595703
 30
302.10610961914062
 70
   192
  0
VERTEX
  5
2019
  8
CELO
 10
126.76247406005859
 20
7.9999866485595703
 30
302.0
 70
   192
  0
VERTEX
  5
201A
  8
CELO
 10
124.0330276489258
 20
17.99998664855957
 30
292.25042724609369
 70
   192
  0
VERTEX
  5
201B
  8
CELO
 10
121.2410507202148
 20
17.99998664855957
 30
293.05316162109381
 70
   192
  0
VERTEX
  5
201C
  8
CELO
 10
124.77658843994141
 20
7.9999866485595703
 30
302.41128540039062
 70
   192
  0
VERTEX
  5
201D
  8
CELO
 10
118.554328918457
 20
17.99998664855957
 30
294.445068359375
 70
   192
  0
VERTEX
  5
201E
  8
CELO
 10
123.92929840087891
 20
7.9999866485595703
 30
302.88015747070312
 70
   192
  0
VERTEX
  5
201F
  8
CELO
 10
117.30799865722651
 20
17.99998664855957
 30
295.35470581054687
 70
   192
  0
VERTEX
  5
2020
  8
CELO
 10
123.22694396972651
 20
7.9999866485595703
 30
303.4644775390625
 70
   192
  0
VERTEX
  5
2021
  8
CELO
 10
116.155876159668
 20
17.99998664855957
 30
296.39340209960937
 70
   192
  0
VERTEX
  5
2022
  8
CELO
 10
122.6426315307617
 20
7.9999866485595703
 30
304.16683959960937
 70
   192
  0
VERTEX
  5
2023
  8
CELO
 10
115.1171798706055
 20
17.99998664855957
 30
297.5455322265625
 70
   192
  0
VERTEX
  5
2024
  8
CELO
 10
114.20754241943359
 20
17.99998664855957
 30
298.79183959960937
 70
   192
  0
VERTEX
  5
2025
  8
CELO
 10
122.17376708984369
 20
7.9999866485595703
 30
305.01409912109381
 70
   192
  0
VERTEX
  5
2026
  8
CELO
 10
112.81565093994141
 20
17.99998664855957
 30
301.47857666015619
 70
   192
  0
VERTEX
  5
2027
  8
CELO
 10
121.8685684204101
 20
7.9999866485595703
 30
305.9754638671875
 70
   192
  0
VERTEX
  5
2028
  8
CELO
 10
121.76247406005859
 20
7.999985694885253
 30
320.75192260742187
 70
   192
  0
VERTEX
  5
2029
  8
CELO
 10
118.7430114746093
 20
11.019449234008791
 30
322.857666015625
 70
   192
  0
VERTEX
  5
202A
  8
CELO
 10
121.8201065063476
 20
7.9423551559448242
 30
321.233154296875
 70
   192
  0
VERTEX
  5
202B
  8
CELO
 10
111.76247406005859
 20
17.999984741210941
 30
329.0
 70
   192
  0
VERTEX
  5
202C
  8
CELO
 10
121.76247406005859
 20
7.9999866485595703
 30
307.0
 70
   192
  0
VERTEX
  5
202D
  8
CELO
 10
111.76247406005859
 20
17.99998664855957
 30
307.0
 70
   192
  0
VERTEX
  5
202E
  8
CELO
 10
113.8045120239258
 20
15.95795059204101
 30
327.92031860351562
 70
   192
  0
VERTEX
  5
202F
  8
CELO
 10
112.1702880859375
 20
17.592168807983398
 30
330.96823120117187
 70
   192
  0
VERTEX
  5
2030
  8
CELO
 10
112.2568817138672
 20
17.505578994750969
 30
331.03680419921869
 70
   192
  0
VERTEX
  5
2031
  8
CELO
 10
112.095947265625
 20
17.6665153503418
 30
330.8746337890625
 70
   192
  0
VERTEX
  5
2032
  8
CELO
 10
111.98178863525391
 20
17.780668258666989
 30
330.64407348632812
 70
   192
  0
VERTEX
  5
2033
  8
CELO
 10
111.8460235595703
 20
17.916435241699219
 30
330.11688232421869
 70
   192
  0
VERTEX
  5
2034
  8
CELO
 10
116.0075759887695
 20
13.754885673522949
 30
325.12933349609381
 70
   192
  0
VERTEX
  5
2035
  8
CELO
 10
1088.237548828125
 20
-0.0000152587890625
 30
345.0
 70
   192
  0
VERTEX
  5
2036
  8
CELO
 10
1088.270874023437
 20
16.363910675048832
 30
345.36392211914062
 70
   192
  0
VERTEX
  5
2037
  8
CELO
 10
1088.237548828125
 20
15.99998474121093
 30
345.0
 70
   192
  0
VERTEX
  5
2038
  8
CELO
 10
1089.873657226562
 20
17.966594696044918
 30
346.96661376953131
 70
   192
  0
VERTEX
  5
2039
  8
CELO
 10
1090.237548828125
 20
-0.0000152587890625
 30
347.0
 70
   192
  0
VERTEX
  5
203A
  8
CELO
 10
1090.237548828125
 20
17.999984741210941
 30
347.0
 70
   192
  0
VERTEX
  5
203B
  8
CELO
 10
1089.873657226562
 20
-0.0000152587890625
 30
346.96661376953131
 70
   192
  0
VERTEX
  5
203C
  8
CELO
 10
1089.501342773437
 20
17.859561920166009
 30
346.85958862304687
 70
   192
  0
VERTEX
  5
203D
  8
CELO
 10
1089.501342773437
 20
-0.0000152587890625
 30
346.85958862304687
 70
   192
  0
VERTEX
  5
203E
  8
CELO
 10
1089.14306640625
 20
17.67397499084473
 30
346.67398071289062
 70
   192
  0
VERTEX
  5
203F
  8
CELO
 10
1089.14306640625
 20
-0.0000152587890625
 30
346.67398071289062
 70
   192
  0
VERTEX
  5
2040
  8
CELO
 10
1088.976928710937
 20
17.552690505981442
 30
346.55270385742187
 70
   192
  0
VERTEX
  5
2041
  8
CELO
 10
1088.823364257812
 20
-0.0000152587890625
 30
346.41421508789062
 70
   192
  0
VERTEX
  5
2042
  8
CELO
 10
1088.823364257812
 20
17.41419792175293
 30
346.41421508789062
 70
   192
  0
VERTEX
  5
2043
  8
CELO
 10
1088.684814453125
 20
17.26058197021484
 30
346.26058959960937
 70
   192
  0
VERTEX
  5
2044
  8
CELO
 10
1088.5634765625
 20
-0.0000152587890625
 30
346.09442138671869
 70
   192
  0
VERTEX
  5
2045
  8
CELO
 10
1088.5634765625
 20
17.094404220581051
 30
346.09442138671869
 70
   192
  0
VERTEX
  5
2046
  8
CELO
 10
1088.3779296875
 20
-0.0000152587890625
 30
345.73617553710937
 70
   192
  0
VERTEX
  5
2047
  8
CELO
 10
1088.3779296875
 20
16.736173629760739
 30
345.73617553710937
 70
   192
  0
VERTEX
  5
2048
  8
CELO
 10
1088.270874023437
 20
-0.0000152587890625
 30
345.36392211914062
 70
   192
  0
VERTEX
  5
2049
  8
CELO
 10
1088.270874023437
 20
16.363910675048832
 30
345.36392211914062
 70
   192
  0
VERTEX
  5
204A
  8
CELO
 10
1088.237548828125
 20
15.99998474121093
 30
337.0
 70
   192
  0
VERTEX
  5
204B
  8
CELO
 10
1088.237548828125
 20
15.99998474121093
 30
345.0
 70
   192
  0
VERTEX
  5
204C
  8
CELO
 10
1090.237548828125
 20
17.999984741210941
 30
337.0
 70
   192
  0
VERTEX
  5
204D
  8
CELO
 10
1089.873657226562
 20
17.966594696044918
 30
346.96661376953131
 70
   192
  0
VERTEX
  5
204E
  8
CELO
 10
1090.237548828125
 20
17.999984741210941
 30
347.0
 70
   192
  0
VERTEX
  5
204F
  8
CELO
 10
1089.873657226562
 20
17.966596603393551
 30
337.0
 70
   192
  0
VERTEX
  5
2050
  8
CELO
 10
1089.501342773437
 20
17.859561920166009
 30
346.85958862304687
 70
   192
  0
VERTEX
  5
2051
  8
CELO
 10
1089.501342773437
 20
17.859561920166009
 30
337.0
 70
   192
  0
VERTEX
  5
2052
  8
CELO
 10
1089.14306640625
 20
17.67397499084473
 30
346.67398071289062
 70
   192
  0
VERTEX
  5
2053
  8
CELO
 10
1089.14306640625
 20
17.673976898193359
 30
337.0
 70
   192
  0
VERTEX
  5
2054
  8
CELO
 10
1088.976928710937
 20
17.552690505981442
 30
346.55270385742187
 70
   192
  0
VERTEX
  5
2055
  8
CELO
 10
1088.823364257812
 20
17.41419792175293
 30
337.0
 70
   192
  0
VERTEX
  5
2056
  8
CELO
 10
1088.823364257812
 20
17.41419792175293
 30
346.41421508789062
 70
   192
  0
VERTEX
  5
2057
  8
CELO
 10
1088.684814453125
 20
17.26058197021484
 30
346.26058959960937
 70
   192
  0
VERTEX
  5
2058
  8
CELO
 10
1088.5634765625
 20
17.094404220581051
 30
337.0
 70
   192
  0
VERTEX
  5
2059
  8
CELO
 10
1088.5634765625
 20
17.094404220581051
 30
346.09442138671869
 70
   192
  0
VERTEX
  5
205A
  8
CELO
 10
1088.3779296875
 20
16.736175537109371
 30
337.0
 70
   192
  0
VERTEX
  5
205B
  8
CELO
 10
1088.3779296875
 20
16.736173629760739
 30
345.73617553710937
 70
   192
  0
VERTEX
  5
205C
  8
CELO
 10
1088.270874023437
 20
16.363910675048832
 30
337.0
 70
   192
  0
VERTEX
  5
205D
  8
CELO
 10
1088.882446289062
 20
17.970525741577148
 30
331.27935791015619
 70
   192
  0
VERTEX
  5
205E
  8
CELO
 10
1088.154174804687
 20
17.916690826416009
 30
330.115966796875
 70
   192
  0
VERTEX
  5
205F
  8
CELO
 10
1089.334716796875
 20
17.957548141479489
 30
332.98565673828131
 70
   192
  0
VERTEX
  5
2060
  8
CELO
 10
1088.218994140625
 20
17.981441497802731
 30
329.56173706054687
 70
   192
  0
VERTEX
  5
2061
  8
CELO
 10
1088.692260742187
 20
17.999984741210941
 30
329.91815185546869
 70
   192
  0
VERTEX
  5
2062
  8
CELO
 10
1088.237548828125
 20
17.999984741210941
 30
329.0
 70
   192
  0
VERTEX
  5
2063
  8
CELO
 10
1088.251586914062
 20
16.409805297851559
 30
336.0767822265625
 70
   192
  0
VERTEX
  5
2064
  8
CELO
 10
1088.237548828125
 20
15.99998474121093
 30
337.0
 70
   192
  0
VERTEX
  5
2065
  8
CELO
 10
1088.270874023437
 20
16.363910675048832
 30
337.0
 70
   192
  0
VERTEX
  5
2066
  8
CELO
 10
1088.21142578125
 20
15.99998474121093
 30
336.11627197265619
 70
   192
  0
VERTEX
  5
2067
  8
CELO
 10
1090.207763671875
 20
17.999984741210941
 30
335.99484252929687
 70
   192
  0
VERTEX
  5
2068
  8
CELO
 10
1089.873657226562
 20
17.966596603393551
 30
337.0
 70
   192
  0
VERTEX
  5
2069
  8
CELO
 10
1090.237548828125
 20
17.999984741210941
 30
337.0
 70
   192
  0
VERTEX
  5
206A
  8
CELO
 10
1087.8330078125
 20
16.409805297851559
 30
333.36016845703131
 70
   192
  0
VERTEX
  5
206B
  8
CELO
 10
1087.797241210937
 20
15.99998569488525
 30
333.3924560546875
 70
   192
  0
VERTEX
  5
206C
  8
CELO
 10
1087.203735351562
 20
15.99998569488525
 30
331.52792358398437
 70
   192
  0
VERTEX
  5
206D
  8
CELO
 10
1087.218383789062
 20
16.420209884643551
 30
331.44320678710937
 70
   192
  0
VERTEX
  5
206E
  8
CELO
 10
1087.951416015625
 20
16.794340133666989
 30
333.33062744140619
 70
   192
  0
VERTEX
  5
206F
  8
CELO
 10
1087.31640625
 20
16.82417106628418
 30
331.32958984375
 70
   192
  0
VERTEX
  5
2070
  8
CELO
 10
1088.133422851562
 20
17.133255004882809
 30
333.28524780273437
 70
   192
  0
VERTEX
  5
2071
  8
CELO
 10
1087.493530273437
 20
17.191059112548832
 30
331.1923828125
 70
   192
  0
VERTEX
  5
2072
  8
CELO
 10
1088.360107421875
 20
17.414199829101559
 30
333.22869873046881
 70
   192
  0
VERTEX
  5
2073
  8
CELO
 10
1087.610107421875
 20
17.356184005737301
 30
331.1163330078125
 70
   192
  0
VERTEX
  5
2074
  8
CELO
 10
1087.7431640625
 20
17.505578994750969
 30
331.03680419921869
 70
   192
  0
VERTEX
  5
2075
  8
CELO
 10
1088.6328125
 20
17.64792442321777
 30
333.16073608398437
 70
   192
  0
VERTEX
  5
2076
  8
CELO
 10
1087.829956054687
 20
17.59242057800293
 30
330.96786499023437
 70
   192
  0
VERTEX
  5
2077
  8
CELO
 10
1087.904296875
 20
17.666788101196289
 30
330.87423706054687
 70
   192
  0
VERTEX
  5
2078
  8
CELO
 10
1088.961547851562
 20
17.835468292236332
 30
333.07870483398438
 70
   192
  0
VERTEX
  5
2079
  8
CELO
 10
1088.018188476562
 20
17.780708312988281
 30
330.64373779296869
 70
   192
  0
VERTEX
  5
207A
  8
CELO
 10
1088.3779296875
 20
16.736175537109371
 30
337.0
 70
   192
  0
VERTEX
  5
207B
  8
CELO
 10
1088.373413085937
 20
16.794340133666989
 30
336.06927490234381
 70
   192
  0
VERTEX
  5
207C
  8
CELO
 10
1088.5634765625
 20
17.094404220581051
 30
337.0
 70
   192
  0
VERTEX
  5
207D
  8
CELO
 10
1088.560668945312
 20
17.133255004882809
 30
336.05776977539062
 70
   192
  0
VERTEX
  5
207E
  8
CELO
 10
1088.823364257812
 20
17.41419792175293
 30
337.0
 70
   192
  0
VERTEX
  5
207F
  8
CELO
 10
1088.7939453125
 20
17.414199829101559
 30
336.04342651367187
 70
   192
  0
VERTEX
  5
2080
  8
CELO
 10
1089.14306640625
 20
17.673976898193359
 30
337.0
 70
   192
  0
VERTEX
  5
2081
  8
CELO
 10
1089.074340820312
 20
17.64792442321777
 30
336.02618408203119
 70
   192
  0
VERTEX
  5
2082
  8
CELO
 10
1089.501342773437
 20
17.859561920166009
 30
337.0
 70
   192
  0
VERTEX
  5
2083
  8
CELO
 10
1089.41259765625
 20
17.835468292236332
 30
336.00537109375
 70
   192
  0
VERTEX
  5
2084
  8
CELO
 10
1089.79638671875
 20
17.957546234130859
 30
335.98178100585937
 70
   192
  0
VERTEX
  5
2085
  8
CELO
 10
1089.732299804687
 20
17.999984741210941
 30
332.88616943359369
 70
   192
  0
VERTEX
  5
2086
  8
CELO
 10
1078.111328125
 20
7.8317089080810538
 30
321.5531005859375
 70
   192
  0
VERTEX
  5
2087
  8
CELO
 10
1080.900390625
 20
10.66279125213623
 30
322.62612915039062
 70
   192
  0
VERTEX
  5
2088
  8
CELO
 10
1078.179931640625
 20
7.9423551559448242
 30
321.233154296875
 70
   192
  0
VERTEX
  5
2089
  8
CELO
 10
1080.826049804687
 20
10.465900421142569
 30
323.17852783203119
 70
   192
  0
VERTEX
  5
208A
  8
CELO
 10
1078.070678710937
 20
7.6687984466552734
 30
321.85479736328131
 70
   192
  0
VERTEX
  5
208B
  8
CELO
 10
1081.197631835937
 20
9.1930789947509766
 30
324.28640747070312
 70
   192
  0
VERTEX
  5
208C
  8
CELO
 10
1078.182983398437
 20
6.6353111267089844
 30
322.72897338867188
 70
   192
  0
VERTEX
  5
208D
  8
CELO
 10
1078.380249023437
 20
5.999985694885253
 30
322.90914916992187
 70
   192
  0
VERTEX
  5
208E
  8
CELO
 10
1080.850708007812
 20
10.133241653442379
 30
323.66387939453131
 70
   192
  0
VERTEX
  5
208F
  8
CELO
 10
1078.074584960937
 20
7.2122926712036133
 30
322.3695068359375
 70
   192
  0
VERTEX
  5
2090
  8
CELO
 10
1081.005004882812
 20
9.726750373840332
 30
324.06106567382812
 70
   192
  0
VERTEX
  5
2091
  8
CELO
 10
1083.718872070312
 20
12.05045127868652
 30
326.26962280273437
 70
   192
  0
VERTEX
  5
2092
  8
CELO
 10
1083.634155273437
 20
12.56448078155517
 30
326.08856201171869
 70
   192
  0
VERTEX
  5
2093
  8
CELO
 10
1085.7607421875
 20
14.36457443237304
 30
328.74359130859369
 70
   192
  0
VERTEX
  5
2094
  8
CELO
 10
1085.759155273437
 20
14.85407829284668
 30
328.63973999023437
 70
   192
  0
VERTEX
  5
2095
  8
CELO
 10
1087.203735351562
 20
15.99998569488525
 30
331.52792358398437
 70
   192
  0
VERTEX
  5
2096
  8
CELO
 10
1087.218383789062
 20
16.420209884643551
 30
331.44320678710937
 70
   192
  0
VERTEX
  5
2097
  8
CELO
 10
1086.119140625
 20
15.88160991668701
 30
327.80059814453119
 70
   192
  0
VERTEX
  5
2098
  8
CELO
 10
1087.493530273437
 20
17.191059112548832
 30
331.1923828125
 70
   192
  0
VERTEX
  5
2099
  8
CELO
 10
1087.7431640625
 20
17.505578994750969
 30
331.03680419921869
 70
   192
  0
VERTEX
  5
209A
  8
CELO
 10
1087.31640625
 20
16.82417106628418
 30
331.32958984375
 70
   192
  0
VERTEX
  5
209B
  8
CELO
 10
1085.780151367187
 20
15.239059448242189
 30
328.377197265625
 70
   192
  0
VERTEX
  5
209C
  8
CELO
 10
1085.895385742187
 20
15.58095455169677
 30
328.08154296875
 70
   192
  0
VERTEX
  5
209D
  8
CELO
 10
1083.630981445312
 20
13.29664993286133
 30
325.35330200195312
 70
   192
  0
VERTEX
  5
209E
  8
CELO
 10
1083.790283203125
 20
13.552755355834959
 30
324.92559814453119
 70
   192
  0
VERTEX
  5
209F
  8
CELO
 10
1083.576782226562
 20
12.958534240722649
 30
325.74899291992187
 70
   192
  0
VERTEX
  5
20A0
  8
CELO
 10
1073.237548828125
 20
7.9665966033935538
 30
320.36392211914062
 70
   192
  0
VERTEX
  5
20A1
  8
CELO
 10
1075.731567382812
 20
7.8952112197875968
 30
320.83004760742188
 70
   192
  0
VERTEX
  5
20A2
  8
CELO
 10
1075.761352539062
 20
7.950230598449707
 30
320.63681030273437
 70
   192
  0
VERTEX
  5
20A3
  8
CELO
 10
1078.271728515625
 20
6.3209333419799796
 30
322.84231567382812
 70
   192
  0
VERTEX
  5
20A4
  8
CELO
 10
1075.843994140625
 20
5.999985694885253
 30
322.22817993164062
 70
   192
  0
VERTEX
  5
20A5
  8
CELO
 10
1078.380249023437
 20
5.999985694885253
 30
322.90914916992187
 70
   192
  0
VERTEX
  5
20A6
  8
CELO
 10
1073.237548828125
 20
6.3639116287231436
 30
321.96661376953131
 70
   192
  0
VERTEX
  5
20A7
  8
CELO
 10
1073.237548828125
 20
5.999985694885253
 30
322.0
 70
   192
  0
VERTEX
  5
20A8
  8
CELO
 10
1075.765625
 20
7.999985694885253
 30
320.18902587890631
 70
   192
  0
VERTEX
  5
20A9
  8
CELO
 10
1073.237548828125
 20
7.999985694885253
 30
320.0
 70
   192
  0
VERTEX
  5
20AA
  8
CELO
 10
1078.223266601562
 20
7.9856891632080069
 30
320.99609375
 70
   192
  0
VERTEX
  5
20AB
  8
CELO
 10
1078.237548828125
 20
7.999985694885253
 30
320.75192260742187
 70
   192
  0
VERTEX
  5
20AC
  8
CELO
 10
1075.796508789062
 20
6.3655214309692383
 30
322.18569946289062
 70
   192
  0
VERTEX
  5
20AD
  8
CELO
 10
1075.746215820312
 20
6.5238943099975577
 30
322.14044189453119
 70
   192
  0
VERTEX
  5
20AE
  8
CELO
 10
1073.237548828125
 20
6.736175537109375
 30
321.85958862304687
 70
   192
  0
VERTEX
  5
20AF
  8
CELO
 10
1075.756591796875
 20
6.7157907485961914
 30
322.07867431640631
 70
   192
  0
VERTEX
  5
20B0
  8
CELO
 10
1078.11669921875
 20
6.9345006942749023
 30
322.57070922851562
 70
   192
  0
VERTEX
  5
20B1
  8
CELO
 10
1075.713989257812
 20
6.8654146194457999
 30
322.00619506835937
 70
   192
  0
VERTEX
  5
20B2
  8
CELO
 10
1075.72900390625
 20
7.0364608764648429
 30
321.91485595703119
 70
   192
  0
VERTEX
  5
20B3
  8
CELO
 10
1078.074584960937
 20
7.2122926712036133
 30
322.3695068359375
 70
   192
  0
VERTEX
  5
20B4
  8
CELO
 10
1075.694946289062
 20
7.1732845306396484
 30
321.8172607421875
 70
   192
  0
VERTEX
  5
20B5
  8
CELO
 10
1075.713256835937
 20
7.3174848556518546
 30
321.70379638671881
 70
   192
  0
VERTEX
  5
20B6
  8
CELO
 10
1073.237548828125
 20
7.0944051742553711
 30
321.67398071289062
 70
   192
  0
VERTEX
  5
20B7
  8
CELO
 10
1078.058837890625
 20
7.4594078063964844
 30
322.12933349609369
 70
   192
  0
VERTEX
  5
20B8
  8
CELO
 10
1075.68896484375
 20
7.4369783401489249
 30
321.58477783203131
 70
   192
  0
VERTEX
  5
20B9
  8
CELO
 10
1075.710327148437
 20
7.5568761825561523
 30
321.4508056640625
 70
   192
  0
VERTEX
  5
20BA
  8
CELO
 10
1073.237548828125
 20
7.4141988754272461
 30
321.41421508789063
 70
   192
  0
VERTEX
  5
20BB
  8
CELO
 10
1078.070678710937
 20
7.6687984466552734
 30
321.85479736328131
 70
   192
  0
VERTEX
  5
20BC
  8
CELO
 10
1075.697265625
 20
7.658421516418457
 30
321.30947875976562
 70
   192
  0
VERTEX
  5
20BD
  8
CELO
 10
1075.72265625
 20
7.7579603195190421
 30
321.14730834960937
 70
   192
  0
VERTEX
  5
20BE
  8
CELO
 10
1073.237548828125
 20
7.6739768981933594
 30
321.09442138671869
 70
   192
  0
VERTEX
  5
20BF
  8
CELO
 10
1078.111328125
 20
7.8317089080810538
 30
321.5531005859375
 70
   192
  0
VERTEX
  5
20C0
  8
CELO
 10
1075.721557617187
 20
7.8336915969848633
 30
320.99002075195312
 70
   192
  0
VERTEX
  5
20C1
  8
CELO
 10
1075.765502929687
 20
7.973547935485839
 30
320.516845703125
 70
   192
  0
VERTEX
  5
20C2
  8
CELO
 10
1078.179931640625
 20
7.9423551559448242
 30
321.233154296875
 70
   192
  0
VERTEX
  5
20C3
  8
CELO
 10
1078.182983398437
 20
6.6353111267089844
 30
322.72897338867188
 70
   192
  0
VERTEX
  5
20C4
  8
CELO
 10
1073.237548828125
 20
7.8595619201660147
 30
320.73617553710937
 70
   192
  0
VERTEX
  5
20C5
  8
CELO
 10
126.76247406005859
 20
7.999985694885253
 30
320.0
 70
   192
  0
VERTEX
  5
20C6
  8
CELO
 10
1073.237548828125
 20
7.9665966033935538
 30
320.36392211914062
 70
   192
  0
VERTEX
  5
20C7
  8
CELO
 10
1073.237548828125
 20
7.999985694885253
 30
320.0
 70
   192
  0
VERTEX
  5
20C8
  8
CELO
 10
1073.237548828125
 20
5.999985694885253
 30
322.0
 70
   192
  0
VERTEX
  5
20C9
  8
CELO
 10
126.76247406005859
 20
6.3639116287231436
 30
321.96661376953131
 70
   192
  0
VERTEX
  5
20CA
  8
CELO
 10
126.76247406005859
 20
5.999985694885253
 30
322.0
 70
   192
  0
VERTEX
  5
20CB
  8
CELO
 10
1073.237548828125
 20
6.3639116287231436
 30
321.96661376953131
 70
   192
  0
VERTEX
  5
20CC
  8
CELO
 10
126.76247406005859
 20
6.736175537109375
 30
321.85958862304687
 70
   192
  0
VERTEX
  5
20CD
  8
CELO
 10
1073.237548828125
 20
6.736175537109375
 30
321.85958862304687
 70
   192
  0
VERTEX
  5
20CE
  8
CELO
 10
126.76247406005859
 20
7.0944051742553711
 30
321.67398071289062
 70
   192
  0
VERTEX
  5
20CF
  8
CELO
 10
1073.237548828125
 20
7.0944051742553711
 30
321.67398071289062
 70
   192
  0
VERTEX
  5
20D0
  8
CELO
 10
126.76247406005859
 20
7.4141988754272461
 30
321.41421508789063
 70
   192
  0
VERTEX
  5
20D1
  8
CELO
 10
1073.237548828125
 20
7.4141988754272461
 30
321.41421508789063
 70
   192
  0
VERTEX
  5
20D2
  8
CELO
 10
126.76247406005859
 20
7.6739768981933594
 30
321.09442138671869
 70
   192
  0
VERTEX
  5
20D3
  8
CELO
 10
1073.237548828125
 20
7.6739768981933594
 30
321.09442138671869
 70
   192
  0
VERTEX
  5
20D4
  8
CELO
 10
126.76247406005859
 20
7.8595619201660147
 30
320.73617553710937
 70
   192
  0
VERTEX
  5
20D5
  8
CELO
 10
1073.237548828125
 20
7.8595619201660147
 30
320.73617553710937
 70
   192
  0
VERTEX
  5
20D6
  8
CELO
 10
126.76247406005859
 20
7.9665966033935538
 30
320.36392211914062
 70
   192
  0
VERTEX
  5
20D7
  8
CELO
 10
124.2344589233398
 20
7.973547935485839
 30
320.516845703125
 70
   192
  0
VERTEX
  5
20D8
  8
CELO
 10
121.8201065063476
 20
7.9423551559448242
 30
321.233154296875
 70
   192
  0
VERTEX
  5
20D9
  8
CELO
 10
124.23866271972651
 20
7.950230598449707
 30
320.63681030273437
 70
   192
  0
VERTEX
  5
20DA
  8
CELO
 10
124.15602111816401
 20
5.999985694885253
 30
322.22817993164062
 70
   192
  0
VERTEX
  5
20DB
  8
CELO
 10
121.7282333374023
 20
6.3209333419799796
 30
322.84231567382812
 70
   192
  0
VERTEX
  5
20DC
  8
CELO
 10
121.6197433471679
 20
5.999985694885253
 30
322.90914916992187
 70
   192
  0
VERTEX
  5
20DD
  8
CELO
 10
126.76247406005859
 20
6.4098043441772461
 30
321.95755004882812
 70
   192
  0
VERTEX
  5
20DE
  8
CELO
 10
126.76247406005859
 20
5.999985694885253
 30
322.0
 70
   192
  0
VERTEX
  5
20DF
  8
CELO
 10
124.23435974121089
 20
7.999985694885253
 30
320.18902587890631
 70
   192
  0
VERTEX
  5
20E0
  8
CELO
 10
126.76247406005859
 20
7.9575471878051749
 30
320.40982055664062
 70
   192
  0
VERTEX
  5
20E1
  8
CELO
 10
126.76247406005859
 20
7.999985694885253
 30
320.0
 70
   192
  0
VERTEX
  5
20E2
  8
CELO
 10
121.7767715454101
 20
7.9856891632080069
 30
320.99609375
 70
   192
  0
VERTEX
  5
20E3
  8
CELO
 10
121.76247406005859
 20
7.999985694885253
 30
320.75192260742187
 70
   192
  0
VERTEX
  5
20E4
  8
CELO
 10
124.203498840332
 20
6.3655214309692383
 30
322.18569946289062
 70
   192
  0
VERTEX
  5
20E5
  8
CELO
 10
124.25380706787109
 20
6.5238943099975577
 30
322.14044189453119
 70
   192
  0
VERTEX
  5
20E6
  8
CELO
 10
126.76247406005859
 20
6.7943401336669922
 30
321.83547973632812
 70
   192
  0
VERTEX
  5
20E7
  8
CELO
 10
124.24338531494141
 20
6.7157907485961914
 30
322.07867431640631
 70
   192
  0
VERTEX
  5
20E8
  8
CELO
 10
121.88331604003901
 20
6.9345006942749023
 30
322.57070922851562
 70
   192
  0
VERTEX
  5
20E9
  8
CELO
 10
124.2860412597656
 20
6.8654146194457999
 30
322.00619506835937
 70
   192
  0
VERTEX
  5
20EA
  8
CELO
 10
124.2709503173828
 20
7.0364608764648429
 30
321.91485595703119
 70
   192
  0
VERTEX
  5
20EB
  8
CELO
 10
121.92547607421869
 20
7.2122926712036133
 30
322.3695068359375
 70
   192
  0
VERTEX
  5
20EC
  8
CELO
 10
124.305061340332
 20
7.1732845306396484
 30
321.8172607421875
 70
   192
  0
VERTEX
  5
20ED
  8
CELO
 10
126.76247406005859
 20
7.1332550048828116
 30
321.64794921875
 70
   192
  0
VERTEX
  5
20EE
  8
CELO
 10
124.2866973876953
 20
7.3174848556518546
 30
321.70379638671881
 70
   192
  0
VERTEX
  5
20EF
  8
CELO
 10
121.94118499755859
 20
7.4594078063964844
 30
322.12933349609369
 70
   192
  0
VERTEX
  5
20F0
  8
CELO
 10
124.3110275268554
 20
7.4369783401489249
 30
321.58477783203131
 70
   192
  0
VERTEX
  5
20F1
  8
CELO
 10
126.76247406005859
 20
7.4141988754272461
 30
321.41421508789063
 70
   192
  0
VERTEX
  5
20F2
  8
CELO
 10
124.2897262573242
 20
7.5568761825561523
 30
321.4508056640625
 70
   192
  0
VERTEX
  5
20F3
  8
CELO
 10
121.9292678833008
 20
7.6687984466552734
 30
321.85479736328131
 70
   192
  0
VERTEX
  5
20F4
  8
CELO
 10
124.30274963378901
 20
7.658421516418457
 30
321.30947875976562
 70
   192
  0
VERTEX
  5
20F5
  8
CELO
 10
126.76247406005859
 20
7.6479244232177734
 30
321.13327026367187
 70
   192
  0
VERTEX
  5
20F6
  8
CELO
 10
124.27732849121089
 20
7.7579603195190421
 30
321.14730834960937
 70
   192
  0
VERTEX
  5
20F7
  8
CELO
 10
121.8886795043945
 20
7.8317089080810538
 30
321.5531005859375
 70
   192
  0
VERTEX
  5
20F8
  8
CELO
 10
124.27842712402339
 20
7.8336915969848633
 30
320.99002075195312
 70
   192
  0
VERTEX
  5
20F9
  8
CELO
 10
124.2684707641601
 20
7.8952112197875968
 30
320.83004760742188
 70
   192
  0
VERTEX
  5
20FA
  8
CELO
 10
121.8170166015625
 20
6.6353111267089844
 30
322.72897338867188
 70
   192
  0
VERTEX
  5
20FB
  8
CELO
 10
126.76247406005859
 20
7.8354692459106436
 30
320.79434204101562
 70
   192
  0
VERTEX
  5
20FC
  8
CELO
 10
118.7430114746093
 20
11.019449234008791
 30
322.857666015625
 70
   192
  0
VERTEX
  5
20FD
  8
CELO
 10
121.8886795043945
 20
7.8317089080810538
 30
321.5531005859375
 70
   192
  0
VERTEX
  5
20FE
  8
CELO
 10
121.8201065063476
 20
7.9423551559448242
 30
321.233154296875
 70
   192
  0
VERTEX
  5
20FF
  8
CELO
 10
119.1739196777344
 20
10.465900421142569
 30
323.17852783203119
 70
   192
  0
VERTEX
  5
2100
  8
CELO
 10
121.9292678833008
 20
7.6687984466552734
 30
321.85479736328131
 70
   192
  0
VERTEX
  5
2101
  8
CELO
 10
119.1493301391601
 20
10.133241653442379
 30
323.66387939453131
 70
   192
  0
VERTEX
  5
2102
  8
CELO
 10
121.92547607421869
 20
7.2122926712036133
 30
322.3695068359375
 70
   192
  0
VERTEX
  5
2103
  8
CELO
 10
118.9949417114258
 20
9.726750373840332
 30
324.06106567382812
 70
   192
  0
VERTEX
  5
2104
  8
CELO
 10
121.8170166015625
 20
6.6353111267089844
 30
322.72897338867188
 70
   192
  0
VERTEX
  5
2105
  8
CELO
 10
118.80230712890619
 20
9.1930789947509766
 30
324.28640747070312
 70
   192
  0
VERTEX
  5
2106
  8
CELO
 10
121.6197433471679
 20
5.999985694885253
 30
322.90914916992187
 70
   192
  0
VERTEX
  5
2107
  8
CELO
 10
116.2810974121093
 20
12.05045127868652
 30
326.26962280273437
 70
   192
  0
VERTEX
  5
2108
  8
CELO
 10
116.3658752441406
 20
12.56448078155517
 30
326.08856201171869
 70
   192
  0
VERTEX
  5
2109
  8
CELO
 10
114.2392272949219
 20
14.36457443237304
 30
328.74359130859369
 70
   192
  0
VERTEX
  5
210A
  8
CELO
 10
114.24090576171869
 20
14.85407829284668
 30
328.63973999023437
 70
   192
  0
VERTEX
  5
210B
  8
CELO
 10
112.7962112426758
 20
15.99998569488525
 30
331.52792358398437
 70
   192
  0
VERTEX
  5
210C
  8
CELO
 10
112.781623840332
 20
16.420198440551761
 30
331.44320678710937
 70
   192
  0
VERTEX
  5
210D
  8
CELO
 10
112.5064697265625
 20
17.191057205200192
 30
331.1923828125
 70
   192
  0
VERTEX
  5
210E
  8
CELO
 10
113.8045120239258
 20
15.95795059204101
 30
327.92031860351562
 70
   192
  0
VERTEX
  5
210F
  8
CELO
 10
112.2568817138672
 20
17.505578994750969
 30
331.03680419921869
 70
   192
  0
VERTEX
  5
2110
  8
CELO
 10
114.21986389160151
 20
15.239059448242189
 30
328.377197265625
 70
   192
  0
VERTEX
  5
2111
  8
CELO
 10
112.6836471557617
 20
16.824172973632809
 30
331.32958984375
 70
   192
  0
VERTEX
  5
2112
  8
CELO
 10
114.1045761108398
 20
15.58095455169677
 30
328.08154296875
 70
   192
  0
VERTEX
  5
2113
  8
CELO
 10
116.0075759887695
 20
13.754885673522949
 30
325.12933349609381
 70
   192
  0
VERTEX
  5
2114
  8
CELO
 10
116.3689804077148
 20
13.29664993286133
 30
325.35330200195312
 70
   192
  0
VERTEX
  5
2115
  8
CELO
 10
116.4232482910156
 20
12.958534240722649
 30
325.74899291992187
 70
   192
  0
VERTEX
  5
2116
  8
CELO
 10
111.7290878295898
 20
16.363910675048832
 30
345.36392211914062
 70
   192
  0
VERTEX
  5
2117
  8
CELO
 10
111.76247406005859
 20
9.7040262222290021
 30
345.0
 70
   192
  0
VERTEX
  5
2118
  8
CELO
 10
111.76247406005859
 20
15.99998474121093
 30
345.0
 70
   192
  0
VERTEX
  5
2119
  8
CELO
 10
109.76247406005859
 20
-0.0000152587890625
 30
347.0
 70
   192
  0
VERTEX
  5
211A
  8
CELO
 10
110.12640380859369
 20
17.966594696044918
 30
346.96661376953131
 70
   192
  0
VERTEX
  5
211B
  8
CELO
 10
109.76247406005859
 20
17.999984741210941
 30
347.0
 70
   192
  0
VERTEX
  5
211C
  8
CELO
 10
110.1722946166992
 20
-0.0000152587890625
 30
346.95755004882812
 70
   192
  0
VERTEX
  5
211D
  8
CELO
 10
110.498664855957
 20
17.859561920166009
 30
346.85958862304687
 70
   192
  0
VERTEX
  5
211E
  8
CELO
 10
110.5568313598633
 20
-0.0000152587890625
 30
346.83547973632812
 70
   192
  0
VERTEX
  5
211F
  8
CELO
 10
110.8568954467773
 20
17.67397499084473
 30
346.67398071289062
 70
   192
  0
VERTEX
  5
2120
  8
CELO
 10
110.8957443237304
 20
-0.0000152587890625
 30
346.64794921875
 70
   192
  0
VERTEX
  5
2121
  8
CELO
 10
111.0230712890625
 20
17.552690505981442
 30
346.55270385742187
 70
   192
  0
VERTEX
  5
2122
  8
CELO
 10
111.1766891479492
 20
-0.0000152587890625
 30
346.41421508789062
 70
   192
  0
VERTEX
  5
2123
  8
CELO
 10
111.1766891479492
 20
17.41419792175293
 30
346.41421508789062
 70
   192
  0
VERTEX
  5
2124
  8
CELO
 10
111.3151779174804
 20
17.26058197021484
 30
346.26058959960937
 70
   192
  0
VERTEX
  5
2125
  8
CELO
 10
111.41041564941401
 20
-0.0000152587890625
 30
346.13327026367187
 70
   192
  0
VERTEX
  5
2126
  8
CELO
 10
111.43646240234369
 20
17.094404220581051
 30
346.09442138671869
 70
   192
  0
VERTEX
  5
2127
  8
CELO
 10
111.59796142578119
 20
-0.0000152587890625
 30
345.79434204101562
 70
   192
  0
VERTEX
  5
2128
  8
CELO
 10
111.62204742431641
 20
16.736173629760739
 30
345.73617553710937
 70
   192
  0
VERTEX
  5
2129
  8
CELO
 10
111.7200393676758
 20
-0.0000152587890625
 30
345.40982055664062
 70
   192
  0
VERTEX
  5
212A
  8
CELO
 10
111.76247406005859
 20
-0.0000152587890625
 30
345.0
 70
   192
  0
VERTEX
  5
212B
  8
CELO
 10
111.1177444458008
 20
17.97049522399902
 30
331.2794189453125
 70
   192
  0
VERTEX
  5
212C
  8
CELO
 10
111.8460235595703
 20
17.916435241699219
 30
330.11688232421869
 70
   192
  0
VERTEX
  5
212D
  8
CELO
 10
111.7813262939453
 20
17.981134414672852
 30
329.56185913085937
 70
   192
  0
VERTEX
  5
212E
  8
CELO
 10
110.9002151489258
 20
17.999984741210941
 30
330.8853759765625
 70
   192
  0
VERTEX
  5
212F
  8
CELO
 10
111.76247406005859
 20
17.999984741210941
 30
329.0
 70
   192
  0
VERTEX
  5
2130
  8
CELO
 10
110.2035675048828
 20
17.957546234130859
 30
335.98178100585937
 70
   192
  0
VERTEX
  5
2131
  8
CELO
 10
109.76247406005859
 20
17.999984741210941
 30
337.0
 70
   192
  0
VERTEX
  5
2132
  8
CELO
 10
110.1722946166992
 20
17.957546234130859
 30
337.0
 70
   192
  0
VERTEX
  5
2133
  8
CELO
 10
109.88889312744141
 20
17.999984741210941
 30
334.9306640625
 70
   192
  0
VERTEX
  5
2134
  8
CELO
 10
110.6652908325195
 20
17.957548141479489
 30
332.98568725585937
 70
   192
  0
VERTEX
  5
2135
  8
CELO
 10
110.2700500488281
 20
17.999984741210941
 30
332.87689208984381
 70
   192
  0
VERTEX
  5
2136
  8
CELO
 10
111.79074859619141
 20
15.99998474121093
 30
336.07937622070312
 70
   192
  0
VERTEX
  5
2137
  8
CELO
 10
111.7200393676758
 20
16.40980339050293
 30
337.0
 70
   192
  0
VERTEX
  5
2138
  8
CELO
 10
111.76247406005859
 20
15.99998474121093
 30
337.0
 70
   192
  0
VERTEX
  5
2139
  8
CELO
 10
110.58737945556641
 20
17.835468292236332
 30
336.00537109375
 70
   192
  0
VERTEX
  5
213A
  8
CELO
 10
110.5568313598633
 20
17.835468292236332
 30
337.0
 70
   192
  0
VERTEX
  5
213B
  8
CELO
 10
110.8957443237304
 20
17.64792442321777
 30
337.0
 70
   192
  0
VERTEX
  5
213C
  8
CELO
 10
110.9256591796875
 20
17.64792442321777
 30
336.02618408203119
 70
   192
  0
VERTEX
  5
213D
  8
CELO
 10
111.20606994628901
 20
17.414199829101559
 30
336.04342651367187
 70
   192
  0
VERTEX
  5
213E
  8
CELO
 10
111.1766891479492
 20
17.41419792175293
 30
337.0
 70
   192
  0
VERTEX
  5
213F
  8
CELO
 10
111.43935394287109
 20
17.133255004882809
 30
336.05776977539062
 70
   192
  0
VERTEX
  5
2140
  8
CELO
 10
111.41041564941401
 20
17.133255004882809
 30
337.0
 70
   192
  0
VERTEX
  5
2141
  8
CELO
 10
111.59796142578119
 20
16.794340133666989
 30
337.0
 70
   192
  0
VERTEX
  5
2142
  8
CELO
 10
111.6265487670898
 20
16.794340133666989
 30
336.06927490234381
 70
   192
  0
VERTEX
  5
2143
  8
CELO
 10
111.74839782714839
 20
16.409805297851559
 30
336.0767822265625
 70
   192
  0
VERTEX
  5
2144
  8
CELO
 10
112.20827484130859
 20
15.99998569488525
 30
333.37020874023438
 70
   192
  0
VERTEX
  5
2145
  8
CELO
 10
112.1670379638672
 20
16.409805297851559
 30
333.36016845703131
 70
   192
  0
VERTEX
  5
2146
  8
CELO
 10
112.7962112426758
 20
15.99998569488525
 30
331.52792358398437
 70
   192
  0
VERTEX
  5
2147
  8
CELO
 10
112.781623840332
 20
16.420198440551761
 30
331.44320678710937
 70
   192
  0
VERTEX
  5
2148
  8
CELO
 10
112.0485916137695
 20
16.794340133666989
 30
333.33062744140619
 70
   192
  0
VERTEX
  5
2149
  8
CELO
 10
112.6836471557617
 20
16.824172973632809
 30
331.32958984375
 70
   192
  0
VERTEX
  5
214A
  8
CELO
 10
111.8666152954101
 20
17.133255004882809
 30
333.28524780273437
 70
   192
  0
VERTEX
  5
214B
  8
CELO
 10
112.5064697265625
 20
17.191057205200192
 30
331.1923828125
 70
   192
  0
VERTEX
  5
214C
  8
CELO
 10
111.6398391723633
 20
17.414199829101559
 30
333.22869873046881
 70
   192
  0
VERTEX
  5
214D
  8
CELO
 10
112.38986968994141
 20
17.356184005737301
 30
331.1163330078125
 70
   192
  0
VERTEX
  5
214E
  8
CELO
 10
112.2568817138672
 20
17.505578994750969
 30
331.03680419921869
 70
   192
  0
VERTEX
  5
214F
  8
CELO
 10
111.3672409057617
 20
17.64792442321777
 30
333.16073608398437
 70
   192
  0
VERTEX
  5
2150
  8
CELO
 10
112.1702880859375
 20
17.592168807983398
 30
330.96823120117187
 70
   192
  0
VERTEX
  5
2151
  8
CELO
 10
112.095947265625
 20
17.6665153503418
 30
330.8746337890625
 70
   192
  0
VERTEX
  5
2152
  8
CELO
 10
111.0383987426758
 20
17.835468292236332
 30
333.07870483398438
 70
   192
  0
VERTEX
  5
2153
  8
CELO
 10
111.98178863525391
 20
17.780668258666989
 30
330.64407348632812
 70
   192
  0
VERTEX
  5
2154
  8
CELO
 10
111.76247406005859
 20
15.99998474121093
 30
337.0
 70
   192
  0
VERTEX
  5
2155
  8
CELO
 10
111.7290878295898
 20
16.363910675048832
 30
345.36392211914062
 70
   192
  0
VERTEX
  5
2156
  8
CELO
 10
111.76247406005859
 20
15.99998474121093
 30
345.0
 70
   192
  0
VERTEX
  5
2157
  8
CELO
 10
109.76247406005859
 20
17.999984741210941
 30
347.0
 70
   192
  0
VERTEX
  5
2158
  8
CELO
 10
110.1722946166992
 20
17.957546234130859
 30
337.0
 70
   192
  0
VERTEX
  5
2159
  8
CELO
 10
109.76247406005859
 20
17.999984741210941
 30
337.0
 70
   192
  0
VERTEX
  5
215A
  8
CELO
 10
110.12640380859369
 20
17.966594696044918
 30
346.96661376953131
 70
   192
  0
VERTEX
  5
215B
  8
CELO
 10
110.498664855957
 20
17.859561920166009
 30
346.85958862304687
 70
   192
  0
VERTEX
  5
215C
  8
CELO
 10
110.5568313598633
 20
17.835468292236332
 30
337.0
 70
   192
  0
VERTEX
  5
215D
  8
CELO
 10
110.8568954467773
 20
17.67397499084473
 30
346.67398071289062
 70
   192
  0
VERTEX
  5
215E
  8
CELO
 10
110.8957443237304
 20
17.64792442321777
 30
337.0
 70
   192
  0
VERTEX
  5
215F
  8
CELO
 10
111.0230712890625
 20
17.552690505981442
 30
346.55270385742187
 70
   192
  0
VERTEX
  5
2160
  8
CELO
 10
111.1766891479492
 20
17.41419792175293
 30
337.0
 70
   192
  0
VERTEX
  5
2161
  8
CELO
 10
111.1766891479492
 20
17.41419792175293
 30
346.41421508789062
 70
   192
  0
VERTEX
  5
2162
  8
CELO
 10
111.3151779174804
 20
17.26058197021484
 30
346.26058959960937
 70
   192
  0
VERTEX
  5
2163
  8
CELO
 10
111.41041564941401
 20
17.133255004882809
 30
337.0
 70
   192
  0
VERTEX
  5
2164
  8
CELO
 10
111.43646240234369
 20
17.094404220581051
 30
346.09442138671869
 70
   192
  0
VERTEX
  5
2165
  8
CELO
 10
111.59796142578119
 20
16.794340133666989
 30
337.0
 70
   192
  0
VERTEX
  5
2166
  8
CELO
 10
111.62204742431641
 20
16.736173629760739
 30
345.73617553710937
 70
   192
  0
VERTEX
  5
2167
  8
CELO
 10
111.7200393676758
 20
16.40980339050293
 30
337.0
 70
   192
  0
VERTEX
  5
2168
  8
CELO
 10
0.0
 20
0.0
 30
0.0
 70
   128
 71
     1
 72
     2
 73
     3
  0
VERTEX
  5
2169
  8
CELO
 10
0.0
 20
0.0
 30
0.0
 70
   128
 71
     4
 72
     5
 73
     6
  0
VERTEX
  5
216A
  8
CELO
 10
0.0
 20
0.0
 30
0.0
 70
   128
 71
     4
 72
     7
 73
     5
  0
VERTEX
  5
216B
  8
CELO
 10
0.0
 20
0.0
 30
0.0
 70
   128
 71
     4
 72
     8
 73
     7
  0
VERTEX
  5
216C
  8
CELO
 10
0.0
 20
0.0
 30
0.0
 70
   128
 71
     9
 72
     8
 73
     4
  0
VERTEX
  5
216D
  8
CELO
 10
0.0
 20
0.0
 30
0.0
 70
   128
 71
     9
 72
    10
 73
     8
  0
VERTEX
  5
216E
  8
CELO
 10
0.0
 20
0.0
 30
0.0
 70
   128
 71
    11
 72
    10
 73
     9
  0
VERTEX
  5
216F
  8
CELO
 10
0.0
 20
0.0
 30
0.0
 70
   128
 71
    11
 72
    12
 73
    10
  0
VERTEX
  5
2170
  8
CELO
 10
0.0
 20
0.0
 30
0.0
 70
   128
 71
    13
 72
    12
 73
    11
  0
VERTEX
  5
2171
  8
CELO
 10
0.0
 20
0.0
 30
0.0
 70
   128
 71
    13
 72
    14
 73
    12
  0
VERTEX
  5
2172
  8
CELO
 10
0.0
 20
0.0
 30
0.0
 70
   128
 71
    13
 72
    15
 73
    14
  0
VERTEX
  5
2173
  8
CELO
 10
0.0
 20
0.0
 30
0.0
 70
   128
 71
    16
 72
    15
 73
    13
  0
VERTEX
  5
2174
  8
CELO
 10
0.0
 20
0.0
 30
0.0
 70
   128
 71
    16
 72
    17
 73
    15
  0
VERTEX
  5
2175
  8
CELO
 10
0.0
 20
0.0
 30
0.0
 70
   128
 71
    18
 72
    17
 73
    16
  0
VERTEX
  5
2176
  8
CELO
 10
0.0
 20
0.0
 30
0.0
 70
   128
 71
    18
 72
    19
 73
    17
  0
VERTEX
  5
2177
  8
CELO
 10
0.0
 20
0.0
 30
0.0
 70
   128
 71
    20
 72
    19
 73
    18
  0
VERTEX
  5
2178
  8
CELO
 10
0.0
 20
0.0
 30
0.0
 70
   128
 71
    20
 72
     1
 73
    19
  0
VERTEX
  5
2179
  8
CELO
 10
0.0
 20
0.0
 30
0.0
 70
   128
 71
     2
 72
     1
 73
    20
  0
VERTEX
  5
217A
  8
CELO
 10
0.0
 20
0.0
 30
0.0
 70
   128
 71
    21
 72
    22
 73
    23
  0
VERTEX
  5
217B
  8
CELO
 10
0.0
 20
0.0
 30
0.0
 70
   128
 71
    24
 72
    25
 73
    26
  0
VERTEX
  5
217C
  8
CELO
 10
0.0
 20
0.0
 30
0.0
 70
   128
 71
    27
 72
    25
 73
    24
  0
VERTEX
  5
217D
  8
CELO
 10
0.0
 20
0.0
 30
0.0
 70
   128
 71
    28
 72
    25
 73
    27
  0
VERTEX
  5
217E
  8
CELO
 10
0.0
 20
0.0
 30
0.0
 70
   128
 71
    28
 72
    29
 73
    25
  0
VERTEX
  5
217F
  8
CELO
 10
0.0
 20
0.0
 30
0.0
 70
   128
 71
    30
 72
    29
 73
    28
  0
VERTEX
  5
2180
  8
CELO
 10
0.0
 20
0.0
 30
0.0
 70
   128
 71
    30
 72
    31
 73
    29
  0
VERTEX
  5
2181
  8
CELO
 10
0.0
 20
0.0
 30
0.0
 70
   128
 71
    32
 72
    31
 73
    30
  0
VERTEX
  5
2182
  8
CELO
 10
0.0
 20
0.0
 30
0.0
 70
   128
 71
    32
 72
    33
 73
    31
  0
VERTEX
  5
2183
  8
CELO
 10
0.0
 20
0.0
 30
0.0
 70
   128
 71
    34
 72
    33
 73
    32
  0
VERTEX
  5
2184
  8
CELO
 10
0.0
 20
0.0
 30
0.0
 70
   128
 71
    35
 72
    33
 73
    34
  0
VERTEX
  5
2185
  8
CELO
 10
0.0
 20
0.0
 30
0.0
 70
   128
 71
    35
 72
    36
 73
    33
  0
VERTEX
  5
2186
  8
CELO
 10
0.0
 20
0.0
 30
0.0
 70
   128
 71
    37
 72
    36
 73
    35
  0
VERTEX
  5
2187
  8
CELO
 10
0.0
 20
0.0
 30
0.0
 70
   128
 71
    37
 72
    38
 73
    36
  0
VERTEX
  5
2188
  8
CELO
 10
0.0
 20
0.0
 30
0.0
 70
   128
 71
    39
 72
    38
 73
    37
  0
VERTEX
  5
2189
  8
CELO
 10
0.0
 20
0.0
 30
0.0
 70
   128
 71
    39
 72
    40
 73
    38
  0
VERTEX
  5
218A
  8
CELO
 10
0.0
 20
0.0
 30
0.0
 70
   128
 71
    22
 72
    40
 73
    39
  0
VERTEX
  5
218B
  8
CELO
 10
0.0
 20
0.0
 30
0.0
 70
   128
 71
    22
 72
    21
 73
    40
  0
VERTEX
  5
218C
  8
CELO
 10
0.0
 20
0.0
 30
0.0
 70
   128
 71
    41
 72
    42
 73
    43
  0
VERTEX
  5
218D
  8
CELO
 10
0.0
 20
0.0
 30
0.0
 70
   128
 71
    42
 72
    41
 73
    44
  0
VERTEX
  5
218E
  8
CELO
 10
0.0
 20
0.0
 30
0.0
 70
   128
 71
    45
 72
    46
 73
    47
  0
VERTEX
  5
218F
  8
CELO
 10
0.0
 20
0.0
 30
0.0
 70
   128
 71
    45
 72
    47
 73
    48
  0
VERTEX
  5
2190
  8
CELO
 10
0.0
 20
0.0
 30
0.0
 70
   128
 71
    49
 72
    50
 73
    51
  0
VERTEX
  5
2191
  8
CELO
 10
0.0
 20
0.0
 30
0.0
 70
   128
 71
    49
 72
    45
 73
    50
  0
VERTEX
  5
2192
  8
CELO
 10
0.0
 20
0.0
 30
0.0
 70
   128
 71
    52
 72
    45
 73
    49
  0
VERTEX
  5
2193
  8
CELO
 10
0.0
 20
0.0
 30
0.0
 70
   128
 71
    46
 72
    45
 73
    52
  0
VERTEX
  5
2194
  8
CELO
 10
0.0
 20
0.0
 30
0.0
 70
   128
 71
    53
 72
    54
 73
    55
  0
VERTEX
  5
2195
  8
CELO
 10
0.0
 20
0.0
 30
0.0
 70
   128
 71
    55
 72
    54
 73
    56
  0
VERTEX
  5
2196
  8
CELO
 10
0.0
 20
0.0
 30
0.0
 70
   128
 71
    57
 72
    58
 73
    59
  0
VERTEX
  5
2197
  8
CELO
 10
0.0
 20
0.0
 30
0.0
 70
   128
 71
    54
 72
    58
 73
    57
  0
VERTEX
  5
2198
  8
CELO
 10
0.0
 20
0.0
 30
0.0
 70
   128
 71
    54
 72
    60
 73
    58
  0
VERTEX
  5
2199
  8
CELO
 10
0.0
 20
0.0
 30
0.0
 70
   128
 71
    54
 72
    61
 73
    60
  0
VERTEX
  5
219A
  8
CELO
 10
0.0
 20
0.0
 30
0.0
 70
   128
 71
    54
 72
    62
 73
    61
  0
VERTEX
  5
219B
  8
CELO
 10
0.0
 20
0.0
 30
0.0
 70
   128
 71
    54
 72
    63
 73
    62
  0
VERTEX
  5
219C
  8
CELO
 10
0.0
 20
0.0
 30
0.0
 70
   128
 71
    54
 72
    64
 73
    63
  0
VERTEX
  5
219D
  8
CELO
 10
0.0
 20
0.0
 30
0.0
 70
   128
 71
    54
 72
    53
 73
    64
  0
VERTEX
  5
219E
  8
CELO
 10
0.0
 20
0.0
 30
0.0
 70
   128
 71
    65
 72
    66
 73
    67
  0
VERTEX
  5
219F
  8
CELO
 10
0.0
 20
0.0
 30
0.0
 70
   128
 71
    67
 72
    66
 73
    68
  0
VERTEX
  5
21A0
  8
CELO
 10
0.0
 20
0.0
 30
0.0
 70
   128
 71
    69
 72
    70
 73
    71
  0
VERTEX
  5
21A1
  8
CELO
 10
0.0
 20
0.0
 30
0.0
 70
   128
 71
    66
 72
    70
 73
    69
  0
VERTEX
  5
21A2
  8
CELO
 10
0.0
 20
0.0
 30
0.0
 70
   128
 71
    66
 72
    72
 73
    70
  0
VERTEX
  5
21A3
  8
CELO
 10
0.0
 20
0.0
 30
0.0
 70
   128
 71
    66
 72
    65
 73
    72
  0
VERTEX
  5
21A4
  8
CELO
 10
0.0
 20
0.0
 30
0.0
 70
   128
 71
    73
 72
    74
 73
    75
  0
VERTEX
  5
21A5
  8
CELO
 10
0.0
 20
0.0
 30
0.0
 70
   128
 71
    76
 72
    77
 73
    78
  0
VERTEX
  5
21A6
  8
CELO
 10
0.0
 20
0.0
 30
0.0
 70
   128
 71
    73
 72
    77
 73
    76
  0
VERTEX
  5
21A7
  8
CELO
 10
0.0
 20
0.0
 30
0.0
 70
   128
 71
    73
 72
    79
 73
    77
  0
VERTEX
  5
21A8
  8
CELO
 10
0.0
 20
0.0
 30
0.0
 70
   128
 71
    73
 72
    80
 73
    79
  0
VERTEX
  5
21A9
  8
CELO
 10
0.0
 20
0.0
 30
0.0
 70
   128
 71
    73
 72
    81
 73
    80
  0
VERTEX
  5
21AA
  8
CELO
 10
0.0
 20
0.0
 30
0.0
 70
   128
 71
    73
 72
    82
 73
    81
  0
VERTEX
  5
21AB
  8
CELO
 10
0.0
 20
0.0
 30
0.0
 70
   128
 71
    73
 72
    83
 73
    82
  0
VERTEX
  5
21AC
  8
CELO
 10
0.0
 20
0.0
 30
0.0
 70
   128
 71
    73
 72
    84
 73
    83
  0
VERTEX
  5
21AD
  8
CELO
 10
0.0
 20
0.0
 30
0.0
 70
   128
 71
    73
 72
    85
 73
    84
  0
VERTEX
  5
21AE
  8
CELO
 10
0.0
 20
0.0
 30
0.0
 70
   128
 71
    73
 72
    86
 73
    85
  0
VERTEX
  5
21AF
  8
CELO
 10
0.0
 20
0.0
 30
0.0
 70
   128
 71
    73
 72
    75
 73
    86
  0
VERTEX
  5
21B0
  8
CELO
 10
0.0
 20
0.0
 30
0.0
 70
   128
 71
    87
 72
    88
 73
    89
  0
VERTEX
  5
21B1
  8
CELO
 10
0.0
 20
0.0
 30
0.0
 70
   128
 71
    87
 72
    90
 73
    88
  0
VERTEX
  5
21B2
  8
CELO
 10
0.0
 20
0.0
 30
0.0
 70
   128
 71
    91
 72
    90
 73
    87
  0
VERTEX
  5
21B3
  8
CELO
 10
0.0
 20
0.0
 30
0.0
 70
   128
 71
    92
 72
    90
 73
    91
  0
VERTEX
  5
21B4
  8
CELO
 10
0.0
 20
0.0
 30
0.0
 70
   128
 71
    93
 72
    90
 73
    92
  0
VERTEX
  5
21B5
  8
CELO
 10
0.0
 20
0.0
 30
0.0
 70
   128
 71
    94
 72
    90
 73
    93
  0
VERTEX
  5
21B6
  8
CELO
 10
0.0
 20
0.0
 30
0.0
 70
   128
 71
    95
 72
    90
 73
    94
  0
VERTEX
  5
21B7
  8
CELO
 10
0.0
 20
0.0
 30
0.0
 70
   128
 71
    96
 72
    90
 73
    95
  0
VERTEX
  5
21B8
  8
CELO
 10
0.0
 20
0.0
 30
0.0
 70
   128
 71
    97
 72
    90
 73
    96
  0
VERTEX
  5
21B9
  8
CELO
 10
0.0
 20
0.0
 30
0.0
 70
   128
 71
    98
 72
    90
 73
    97
  0
VERTEX
  5
21BA
  8
CELO
 10
0.0
 20
0.0
 30
0.0
 70
   128
 71
    99
 72
    90
 73
    98
  0
VERTEX
  5
21BB
  8
CELO
 10
0.0
 20
0.0
 30
0.0
 70
   128
 71
   100
 72
    90
 73
    99
  0
VERTEX
  5
21BC
  8
CELO
 10
0.0
 20
0.0
 30
0.0
 70
   128
 71
   100
 72
    73
 73
    90
  0
VERTEX
  5
21BD
  8
CELO
 10
0.0
 20
0.0
 30
0.0
 70
   128
 71
   101
 72
    73
 73
   100
  0
VERTEX
  5
21BE
  8
CELO
 10
0.0
 20
0.0
 30
0.0
 70
   128
 71
   102
 72
    73
 73
   101
  0
VERTEX
  5
21BF
  8
CELO
 10
0.0
 20
0.0
 30
0.0
 70
   128
 71
    74
 72
    73
 73
   102
  0
VERTEX
  5
21C0
  8
CELO
 10
0.0
 20
0.0
 30
0.0
 70
   128
 71
   103
 72
   104
 73
   105
  0
VERTEX
  5
21C1
  8
CELO
 10
0.0
 20
0.0
 30
0.0
 70
   128
 71
   104
 72
   106
 73
   107
  0
VERTEX
  5
21C2
  8
CELO
 10
0.0
 20
0.0
 30
0.0
 70
   128
 71
   108
 72
   104
 73
   109
  0
VERTEX
  5
21C3
  8
CELO
 10
0.0
 20
0.0
 30
0.0
 70
   128
 71
   110
 72
   104
 73
   108
  0
VERTEX
  5
21C4
  8
CELO
 10
0.0
 20
0.0
 30
0.0
 70
   128
 71
   111
 72
   104
 73
   110
  0
VERTEX
  5
21C5
  8
CELO
 10
0.0
 20
0.0
 30
0.0
 70
   128
 71
   112
 72
   104
 73
   111
  0
VERTEX
  5
21C6
  8
CELO
 10
0.0
 20
0.0
 30
0.0
 70
   128
 71
   113
 72
   104
 73
   112
  0
VERTEX
  5
21C7
  8
CELO
 10
0.0
 20
0.0
 30
0.0
 70
   128
 71
   114
 72
   104
 73
   113
  0
VERTEX
  5
21C8
  8
CELO
 10
0.0
 20
0.0
 30
0.0
 70
   128
 71
   115
 72
   104
 73
   114
  0
VERTEX
  5
21C9
  8
CELO
 10
0.0
 20
0.0
 30
0.0
 70
   128
 71
   116
 72
   104
 73
   115
  0
VERTEX
  5
21CA
  8
CELO
 10
0.0
 20
0.0
 30
0.0
 70
   128
 71
   117
 72
   104
 73
   116
  0
VERTEX
  5
21CB
  8
CELO
 10
0.0
 20
0.0
 30
0.0
 70
   128
 71
   118
 72
   104
 73
   117
  0
VERTEX
  5
21CC
  8
CELO
 10
0.0
 20
0.0
 30
0.0
 70
   128
 71
   119
 72
   104
 73
   118
  0
VERTEX
  5
21CD
  8
CELO
 10
0.0
 20
0.0
 30
0.0
 70
   128
 71
   120
 72
   104
 73
   119
  0
VERTEX
  5
21CE
  8
CELO
 10
0.0
 20
0.0
 30
0.0
 70
   128
 71
   121
 72
   104
 73
   120
  0
VERTEX
  5
21CF
  8
CELO
 10
0.0
 20
0.0
 30
0.0
 70
   128
 71
   122
 72
   104
 73
   121
  0
VERTEX
  5
21D0
  8
CELO
 10
0.0
 20
0.0
 30
0.0
 70
   128
 71
   123
 72
   104
 73
   122
  0
VERTEX
  5
21D1
  8
CELO
 10
0.0
 20
0.0
 30
0.0
 70
   128
 71
   124
 72
   104
 73
   123
  0
VERTEX
  5
21D2
  8
CELO
 10
0.0
 20
0.0
 30
0.0
 70
   128
 71
   125
 72
   104
 73
   124
  0
VERTEX
  5
21D3
  8
CELO
 10
0.0
 20
0.0
 30
0.0
 70
   128
 71
   126
 72
   104
 73
   125
  0
VERTEX
  5
21D4
  8
CELO
 10
0.0
 20
0.0
 30
0.0
 70
   128
 71
   127
 72
   104
 73
   126
  0
VERTEX
  5
21D5
  8
CELO
 10
0.0
 20
0.0
 30
0.0
 70
   128
 71
   105
 72
   104
 73
   127
  0
VERTEX
  5
21D6
  8
CELO
 10
0.0
 20
0.0
 30
0.0
 70
   128
 71
   128
 72
   129
 73
   130
  0
VERTEX
  5
21D7
  8
CELO
 10
0.0
 20
0.0
 30
0.0
 70
   128
 71
   128
 72
   131
 73
   129
  0
VERTEX
  5
21D8
  8
CELO
 10
0.0
 20
0.0
 30
0.0
 70
   128
 71
   128
 72
   132
 73
   131
  0
VERTEX
  5
21D9
  8
CELO
 10
0.0
 20
0.0
 30
0.0
 70
   128
 71
   133
 72
   132
 73
   128
  0
VERTEX
  5
21DA
  8
CELO
 10
0.0
 20
0.0
 30
0.0
 70
   128
 71
   133
 72
   134
 73
   132
  0
VERTEX
  5
21DB
  8
CELO
 10
0.0
 20
0.0
 30
0.0
 70
   128
 71
   133
 72
   135
 73
   134
  0
VERTEX
  5
21DC
  8
CELO
 10
0.0
 20
0.0
 30
0.0
 70
   128
 71
   133
 72
   136
 73
   135
  0
VERTEX
  5
21DD
  8
CELO
 10
0.0
 20
0.0
 30
0.0
 70
   128
 71
   133
 72
   137
 73
   136
  0
VERTEX
  5
21DE
  8
CELO
 10
0.0
 20
0.0
 30
0.0
 70
   128
 71
   106
 72
   137
 73
   133
  0
VERTEX
  5
21DF
  8
CELO
 10
0.0
 20
0.0
 30
0.0
 70
   128
 71
   106
 72
   138
 73
   137
  0
VERTEX
  5
21E0
  8
CELO
 10
0.0
 20
0.0
 30
0.0
 70
   128
 71
   106
 72
   139
 73
   138
  0
VERTEX
  5
21E1
  8
CELO
 10
0.0
 20
0.0
 30
0.0
 70
   128
 71
   106
 72
   140
 73
   139
  0
VERTEX
  5
21E2
  8
CELO
 10
0.0
 20
0.0
 30
0.0
 70
   128
 71
   106
 72
   141
 73
   140
  0
VERTEX
  5
21E3
  8
CELO
 10
0.0
 20
0.0
 30
0.0
 70
   128
 71
   106
 72
   142
 73
   141
  0
VERTEX
  5
21E4
  8
CELO
 10
0.0
 20
0.0
 30
0.0
 70
   128
 71
   106
 72
   103
 73
   142
  0
VERTEX
  5
21E5
  8
CELO
 10
0.0
 20
0.0
 30
0.0
 70
   128
 71
   104
 72
   103
 73
   106
  0
VERTEX
  5
21E6
  8
CELO
 10
0.0
 20
0.0
 30
0.0
 70
   128
 71
   143
 72
   144
 73
   145
  0
VERTEX
  5
21E7
  8
CELO
 10
0.0
 20
0.0
 30
0.0
 70
   128
 71
   146
 72
   147
 73
   148
  0
VERTEX
  5
21E8
  8
CELO
 10
0.0
 20
0.0
 30
0.0
 70
   128
 71
   149
 72
   147
 73
   146
  0
VERTEX
  5
21E9
  8
CELO
 10
0.0
 20
0.0
 30
0.0
 70
   128
 71
   149
 72
   150
 73
   147
  0
VERTEX
  5
21EA
  8
CELO
 10
0.0
 20
0.0
 30
0.0
 70
   128
 71
   151
 72
   150
 73
   149
  0
VERTEX
  5
21EB
  8
CELO
 10
0.0
 20
0.0
 30
0.0
 70
   128
 71
   152
 72
   150
 73
   151
  0
VERTEX
  5
21EC
  8
CELO
 10
0.0
 20
0.0
 30
0.0
 70
   128
 71
   152
 72
   153
 73
   150
  0
VERTEX
  5
21ED
  8
CELO
 10
0.0
 20
0.0
 30
0.0
 70
   128
 71
   154
 72
   153
 73
   152
  0
VERTEX
  5
21EE
  8
CELO
 10
0.0
 20
0.0
 30
0.0
 70
   128
 71
   154
 72
   155
 73
   153
  0
VERTEX
  5
21EF
  8
CELO
 10
0.0
 20
0.0
 30
0.0
 70
   128
 71
   156
 72
   155
 73
   154
  0
VERTEX
  5
21F0
  8
CELO
 10
0.0
 20
0.0
 30
0.0
 70
   128
 71
   156
 72
   143
 73
   155
  0
VERTEX
  5
21F1
  8
CELO
 10
0.0
 20
0.0
 30
0.0
 70
   128
 71
   144
 72
   143
 73
   156
  0
VERTEX
  5
21F2
  8
CELO
 10
0.0
 20
0.0
 30
0.0
 70
   128
 71
   157
 72
   158
 73
   159
  0
VERTEX
  5
21F3
  8
CELO
 10
0.0
 20
0.0
 30
0.0
 70
   128
 71
   160
 72
   161
 73
   162
  0
VERTEX
  5
21F4
  8
CELO
 10
0.0
 20
0.0
 30
0.0
 70
   128
 71
   163
 72
   161
 73
   160
  0
VERTEX
  5
21F5
  8
CELO
 10
0.0
 20
0.0
 30
0.0
 70
   128
 71
   164
 72
   161
 73
   163
  0
VERTEX
  5
21F6
  8
CELO
 10
0.0
 20
0.0
 30
0.0
 70
   128
 71
   164
 72
   165
 73
   161
  0
VERTEX
  5
21F7
  8
CELO
 10
0.0
 20
0.0
 30
0.0
 70
   128
 71
   166
 72
   165
 73
   164
  0
VERTEX
  5
21F8
  8
CELO
 10
0.0
 20
0.0
 30
0.0
 70
   128
 71
   166
 72
   167
 73
   165
  0
VERTEX
  5
21F9
  8
CELO
 10
0.0
 20
0.0
 30
0.0
 70
   128
 71
   168
 72
   167
 73
   166
  0
VERTEX
  5
21FA
  8
CELO
 10
0.0
 20
0.0
 30
0.0
 70
   128
 71
   168
 72
   169
 73
   167
  0
VERTEX
  5
21FB
  8
CELO
 10
0.0
 20
0.0
 30
0.0
 70
   128
 71
   158
 72
   169
 73
   168
  0
VERTEX
  5
21FC
  8
CELO
 10
0.0
 20
0.0
 30
0.0
 70
   128
 71
   158
 72
   170
 73
   169
  0
VERTEX
  5
21FD
  8
CELO
 10
0.0
 20
0.0
 30
0.0
 70
   128
 71
   158
 72
   157
 73
   170
  0
VERTEX
  5
21FE
  8
CELO
 10
0.0
 20
0.0
 30
0.0
 70
   128
 71
   171
 72
   172
 73
   173
  0
VERTEX
  5
21FF
  8
CELO
 10
0.0
 20
0.0
 30
0.0
 70
   128
 71
   172
 72
   171
 73
   174
  0
VERTEX
  5
2200
  8
CELO
 10
0.0
 20
0.0
 30
0.0
 70
   128
 71
   175
 72
   176
 73
   177
  0
VERTEX
  5
2201
  8
CELO
 10
0.0
 20
0.0
 30
0.0
 70
   128
 71
   176
 72
   175
 73
   178
  0
VERTEX
  5
2202
  8
CELO
 10
0.0
 20
0.0
 30
0.0
 70
   128
 71
   179
 72
   180
 73
   181
  0
VERTEX
  5
2203
  8
CELO
 10
0.0
 20
0.0
 30
0.0
 70
   128
 71
   180
 72
   179
 73
   182
  0
VERTEX
  5
2204
  8
CELO
 10
0.0
 20
0.0
 30
0.0
 70
   128
 71
   183
 72
   184
 73
   185
  0
VERTEX
  5
2205
  8
CELO
 10
0.0
 20
0.0
 30
0.0
 70
   128
 71
   184
 72
   183
 73
   186
  0
VERTEX
  5
2206
  8
CELO
 10
0.0
 20
0.0
 30
0.0
 70
   128
 71
   187
 72
   188
 73
   189
  0
VERTEX
  5
2207
  8
CELO
 10
0.0
 20
0.0
 30
0.0
 70
   128
 71
   190
 72
   191
 73
   192
  0
VERTEX
  5
2208
  8
CELO
 10
0.0
 20
0.0
 30
0.0
 70
   128
 71
   193
 72
   194
 73
   195
  0
VERTEX
  5
2209
  8
CELO
 10
0.0
 20
0.0
 30
0.0
 70
   128
 71
   191
 72
   194
 73
   193
  0
VERTEX
  5
220A
  8
CELO
 10
0.0
 20
0.0
 30
0.0
 70
   128
 71
   191
 72
   196
 73
   194
  0
VERTEX
  5
220B
  8
CELO
 10
0.0
 20
0.0
 30
0.0
 70
   128
 71
   191
 72
   197
 73
   196
  0
VERTEX
  5
220C
  8
CELO
 10
0.0
 20
0.0
 30
0.0
 70
   128
 71
   191
 72
   198
 73
   197
  0
VERTEX
  5
220D
  8
CELO
 10
0.0
 20
0.0
 30
0.0
 70
   128
 71
   191
 72
   199
 73
   198
  0
VERTEX
  5
220E
  8
CELO
 10
0.0
 20
0.0
 30
0.0
 70
   128
 71
   191
 72
   200
 73
   199
  0
VERTEX
  5
220F
  8
CELO
 10
0.0
 20
0.0
 30
0.0
 70
   128
 71
   191
 72
   201
 73
   200
  0
VERTEX
  5
2210
  8
CELO
 10
0.0
 20
0.0
 30
0.0
 70
   128
 71
   191
 72
   202
 73
   201
  0
VERTEX
  5
2211
  8
CELO
 10
0.0
 20
0.0
 30
0.0
 70
   128
 71
   191
 72
   203
 73
   202
  0
VERTEX
  5
2212
  8
CELO
 10
0.0
 20
0.0
 30
0.0
 70
   128
 71
   191
 72
   187
 73
   203
  0
VERTEX
  5
2213
  8
CELO
 10
0.0
 20
0.0
 30
0.0
 70
   128
 71
   190
 72
   187
 73
   191
  0
VERTEX
  5
2214
  8
CELO
 10
0.0
 20
0.0
 30
0.0
 70
   128
 71
   204
 72
   187
 73
   190
  0
VERTEX
  5
2215
  8
CELO
 10
0.0
 20
0.0
 30
0.0
 70
   128
 71
   205
 72
   187
 73
   204
  0
VERTEX
  5
2216
  8
CELO
 10
0.0
 20
0.0
 30
0.0
 70
   128
 71
   206
 72
   187
 73
   205
  0
VERTEX
  5
2217
  8
CELO
 10
0.0
 20
0.0
 30
0.0
 70
   128
 71
   207
 72
   187
 73
   206
  0
VERTEX
  5
2218
  8
CELO
 10
0.0
 20
0.0
 30
0.0
 70
   128
 71
   208
 72
   187
 73
   207
  0
VERTEX
  5
2219
  8
CELO
 10
0.0
 20
0.0
 30
0.0
 70
   128
 71
   188
 72
   187
 73
   208
  0
VERTEX
  5
221A
  8
CELO
 10
0.0
 20
0.0
 30
0.0
 70
   128
 71
   209
 72
   210
 73
   211
  0
VERTEX
  5
221B
  8
CELO
 10
0.0
 20
0.0
 30
0.0
 70
   128
 71
   212
 72
   213
 73
   214
  0
VERTEX
  5
221C
  8
CELO
 10
0.0
 20
0.0
 30
0.0
 70
   128
 71
   215
 72
   216
 73
   217
  0
VERTEX
  5
221D
  8
CELO
 10
0.0
 20
0.0
 30
0.0
 70
   128
 71
   218
 72
   216
 73
   215
  0
VERTEX
  5
221E
  8
CELO
 10
0.0
 20
0.0
 30
0.0
 70
   128
 71
   219
 72
   216
 73
   218
  0
VERTEX
  5
221F
  8
CELO
 10
0.0
 20
0.0
 30
0.0
 70
   128
 71
   220
 72
   216
 73
   219
  0
VERTEX
  5
2220
  8
CELO
 10
0.0
 20
0.0
 30
0.0
 70
   128
 71
   213
 72
   216
 73
   220
  0
VERTEX
  5
2221
  8
CELO
 10
0.0
 20
0.0
 30
0.0
 70
   128
 71
   212
 72
   216
 73
   213
  0
VERTEX
  5
2222
  8
CELO
 10
0.0
 20
0.0
 30
0.0
 70
   128
 71
   212
 72
   221
 73
   216
  0
VERTEX
  5
2223
  8
CELO
 10
0.0
 20
0.0
 30
0.0
 70
   128
 71
   212
 72
   209
 73
   221
  0
VERTEX
  5
2224
  8
CELO
 10
0.0
 20
0.0
 30
0.0
 70
   128
 71
   210
 72
   209
 73
   212
  0
VERTEX
  5
2225
  8
CELO
 10
0.0
 20
0.0
 30
0.0
 70
   128
 71
   222
 72
   223
 73
   224
  0
VERTEX
  5
2226
  8
CELO
 10
0.0
 20
0.0
 30
0.0
 70
   128
 71
   225
 72
   226
 73
   227
  0
VERTEX
  5
2227
  8
CELO
 10
0.0
 20
0.0
 30
0.0
 70
   128
 71
   228
 72
   226
 73
   225
  0
VERTEX
  5
2228
  8
CELO
 10
0.0
 20
0.0
 30
0.0
 70
   128
 71
   229
 72
   226
 73
   228
  0
VERTEX
  5
2229
  8
CELO
 10
0.0
 20
0.0
 30
0.0
 70
   128
 71
   229
 72
   230
 73
   226
  0
VERTEX
  5
222A
  8
CELO
 10
0.0
 20
0.0
 30
0.0
 70
   128
 71
   231
 72
   230
 73
   229
  0
VERTEX
  5
222B
  8
CELO
 10
0.0
 20
0.0
 30
0.0
 70
   128
 71
   231
 72
   232
 73
   230
  0
VERTEX
  5
222C
  8
CELO
 10
0.0
 20
0.0
 30
0.0
 70
   128
 71
   233
 72
   232
 73
   231
  0
VERTEX
  5
222D
  8
CELO
 10
0.0
 20
0.0
 30
0.0
 70
   128
 71
   233
 72
   234
 73
   232
  0
VERTEX
  5
222E
  8
CELO
 10
0.0
 20
0.0
 30
0.0
 70
   128
 71
   235
 72
   234
 73
   233
  0
VERTEX
  5
222F
  8
CELO
 10
0.0
 20
0.0
 30
0.0
 70
   128
 71
   235
 72
   236
 73
   234
  0
VERTEX
  5
2230
  8
CELO
 10
0.0
 20
0.0
 30
0.0
 70
   128
 71
   237
 72
   236
 73
   235
  0
VERTEX
  5
2231
  8
CELO
 10
0.0
 20
0.0
 30
0.0
 70
   128
 71
   238
 72
   236
 73
   237
  0
VERTEX
  5
2232
  8
CELO
 10
0.0
 20
0.0
 30
0.0
 70
   128
 71
   238
 72
   239
 73
   236
  0
VERTEX
  5
2233
  8
CELO
 10
0.0
 20
0.0
 30
0.0
 70
   128
 71
   240
 72
   239
 73
   238
  0
VERTEX
  5
2234
  8
CELO
 10
0.0
 20
0.0
 30
0.0
 70
   128
 71
   240
 72
   241
 73
   239
  0
VERTEX
  5
2235
  8
CELO
 10
0.0
 20
0.0
 30
0.0
 70
   128
 71
   223
 72
   241
 73
   240
  0
VERTEX
  5
2236
  8
CELO
 10
0.0
 20
0.0
 30
0.0
 70
   128
 71
   223
 72
   222
 73
   241
  0
VERTEX
  5
2237
  8
CELO
 10
0.0
 20
0.0
 30
0.0
 70
   128
 71
   242
 72
   243
 73
   244
  0
VERTEX
  5
2238
  8
CELO
 10
0.0
 20
0.0
 30
0.0
 70
   128
 71
   243
 72
   242
 73
   245
  0
VERTEX
  5
2239
  8
CELO
 10
0.0
 20
0.0
 30
0.0
 70
   128
 71
   246
 72
   247
 73
   248
  0
VERTEX
  5
223A
  8
CELO
 10
0.0
 20
0.0
 30
0.0
 70
   128
 71
   249
 72
   250
 73
   251
  0
VERTEX
  5
223B
  8
CELO
 10
0.0
 20
0.0
 30
0.0
 70
   128
 71
   252
 72
   250
 73
   249
  0
VERTEX
  5
223C
  8
CELO
 10
0.0
 20
0.0
 30
0.0
 70
   128
 71
   253
 72
   250
 73
   252
  0
VERTEX
  5
223D
  8
CELO
 10
0.0
 20
0.0
 30
0.0
 70
   128
 71
   253
 72
   254
 73
   250
  0
VERTEX
  5
223E
  8
CELO
 10
0.0
 20
0.0
 30
0.0
 70
   128
 71
   255
 72
   254
 73
   253
  0
VERTEX
  5
223F
  8
CELO
 10
0.0
 20
0.0
 30
0.0
 70
   128
 71
   255
 72
   256
 73
   254
  0
VERTEX
  5
2240
  8
CELO
 10
0.0
 20
0.0
 30
0.0
 70
   128
 71
   257
 72
   256
 73
   255
  0
VERTEX
  5
2241
  8
CELO
 10
0.0
 20
0.0
 30
0.0
 70
   128
 71
   257
 72
   258
 73
   256
  0
VERTEX
  5
2242
  8
CELO
 10
0.0
 20
0.0
 30
0.0
 70
   128
 71
   259
 72
   258
 73
   257
  0
VERTEX
  5
2243
  8
CELO
 10
0.0
 20
0.0
 30
0.0
 70
   128
 71
   259
 72
   260
 73
   258
  0
VERTEX
  5
2244
  8
CELO
 10
0.0
 20
0.0
 30
0.0
 70
   128
 71
   261
 72
   260
 73
   259
  0
VERTEX
  5
2245
  8
CELO
 10
0.0
 20
0.0
 30
0.0
 70
   128
 71
   262
 72
   260
 73
   261
  0
VERTEX
  5
2246
  8
CELO
 10
0.0
 20
0.0
 30
0.0
 70
   128
 71
   262
 72
   263
 73
   260
  0
VERTEX
  5
2247
  8
CELO
 10
0.0
 20
0.0
 30
0.0
 70
   128
 71
   264
 72
   263
 73
   262
  0
VERTEX
  5
2248
  8
CELO
 10
0.0
 20
0.0
 30
0.0
 70
   128
 71
   264
 72
   265
 73
   263
  0
VERTEX
  5
2249
  8
CELO
 10
0.0
 20
0.0
 30
0.0
 70
   128
 71
   247
 72
   265
 73
   264
  0
VERTEX
  5
224A
  8
CELO
 10
0.0
 20
0.0
 30
0.0
 70
   128
 71
   247
 72
   246
 73
   265
  0
VERTEX
  5
224B
  8
CELO
 10
0.0
 20
0.0
 30
0.0
 70
   128
 71
   266
 72
   267
 73
   268
  0
VERTEX
  5
224C
  8
CELO
 10
0.0
 20
0.0
 30
0.0
 70
   128
 71
   269
 72
   270
 73
   271
  0
VERTEX
  5
224D
  8
CELO
 10
0.0
 20
0.0
 30
0.0
 70
   128
 71
   272
 72
   273
 73
   274
  0
VERTEX
  5
224E
  8
CELO
 10
0.0
 20
0.0
 30
0.0
 70
   128
 71
   272
 72
   275
 73
   273
  0
VERTEX
  5
224F
  8
CELO
 10
0.0
 20
0.0
 30
0.0
 70
   128
 71
   272
 72
   276
 73
   275
  0
VERTEX
  5
2250
  8
CELO
 10
0.0
 20
0.0
 30
0.0
 70
   128
 71
   272
 72
   277
 73
   276
  0
VERTEX
  5
2251
  8
CELO
 10
0.0
 20
0.0
 30
0.0
 70
   128
 71
   272
 72
   269
 73
   277
  0
VERTEX
  5
2252
  8
CELO
 10
0.0
 20
0.0
 30
0.0
 70
   128
 71
   272
 72
   270
 73
   269
  0
VERTEX
  5
2253
  8
CELO
 10
0.0
 20
0.0
 30
0.0
 70
   128
 71
   278
 72
   270
 73
   272
  0
VERTEX
  5
2254
  8
CELO
 10
0.0
 20
0.0
 30
0.0
 70
   128
 71
   267
 72
   270
 73
   278
  0
VERTEX
  5
2255
  8
CELO
 10
0.0
 20
0.0
 30
0.0
 70
   128
 71
   267
 72
   266
 73
   270
  0
VERTEX
  5
2256
  8
CELO
 10
0.0
 20
0.0
 30
0.0
 70
   128
 71
   279
 72
   280
 73
   281
  0
VERTEX
  5
2257
  8
CELO
 10
0.0
 20
0.0
 30
0.0
 70
   128
 71
   282
 72
   283
 73
   284
  0
VERTEX
  5
2258
  8
CELO
 10
0.0
 20
0.0
 30
0.0
 70
   128
 71
   282
 72
   285
 73
   283
  0
VERTEX
  5
2259
  8
CELO
 10
0.0
 20
0.0
 30
0.0
 70
   128
 71
   286
 72
   285
 73
   282
  0
VERTEX
  5
225A
  8
CELO
 10
0.0
 20
0.0
 30
0.0
 70
   128
 71
   286
 72
   287
 73
   285
  0
VERTEX
  5
225B
  8
CELO
 10
0.0
 20
0.0
 30
0.0
 70
   128
 71
   288
 72
   287
 73
   286
  0
VERTEX
  5
225C
  8
CELO
 10
0.0
 20
0.0
 30
0.0
 70
   128
 71
   288
 72
   289
 73
   287
  0
VERTEX
  5
225D
  8
CELO
 10
0.0
 20
0.0
 30
0.0
 70
   128
 71
   290
 72
   289
 73
   288
  0
VERTEX
  5
225E
  8
CELO
 10
0.0
 20
0.0
 30
0.0
 70
   128
 71
   290
 72
   291
 73
   289
  0
VERTEX
  5
225F
  8
CELO
 10
0.0
 20
0.0
 30
0.0
 70
   128
 71
   292
 72
   291
 73
   290
  0
VERTEX
  5
2260
  8
CELO
 10
0.0
 20
0.0
 30
0.0
 70
   128
 71
   293
 72
   291
 73
   292
  0
VERTEX
  5
2261
  8
CELO
 10
0.0
 20
0.0
 30
0.0
 70
   128
 71
   293
 72
   294
 73
   291
  0
VERTEX
  5
2262
  8
CELO
 10
0.0
 20
0.0
 30
0.0
 70
   128
 71
   295
 72
   294
 73
   293
  0
VERTEX
  5
2263
  8
CELO
 10
0.0
 20
0.0
 30
0.0
 70
   128
 71
   295
 72
   296
 73
   294
  0
VERTEX
  5
2264
  8
CELO
 10
0.0
 20
0.0
 30
0.0
 70
   128
 71
   297
 72
   296
 73
   295
  0
VERTEX
  5
2265
  8
CELO
 10
0.0
 20
0.0
 30
0.0
 70
   128
 71
   297
 72
   298
 73
   296
  0
VERTEX
  5
2266
  8
CELO
 10
0.0
 20
0.0
 30
0.0
 70
   128
 71
   280
 72
   298
 73
   297
  0
VERTEX
  5
2267
  8
CELO
 10
0.0
 20
0.0
 30
0.0
 70
   128
 71
   280
 72
   279
 73
   298
  0
VERTEX
  5
2268
  8
CELO
 10
0.0
 20
0.0
 30
0.0
 70
   128
 71
   299
 72
   300
 73
   301
  0
VERTEX
  5
2269
  8
CELO
 10
0.0
 20
0.0
 30
0.0
 70
   128
 71
   302
 72
   303
 73
   304
  0
VERTEX
  5
226A
  8
CELO
 10
0.0
 20
0.0
 30
0.0
 70
   128
 71
   305
 72
   303
 73
   302
  0
VERTEX
  5
226B
  8
CELO
 10
0.0
 20
0.0
 30
0.0
 70
   128
 71
   305
 72
   306
 73
   303
  0
VERTEX
  5
226C
  8
CELO
 10
0.0
 20
0.0
 30
0.0
 70
   128
 71
   307
 72
   306
 73
   305
  0
VERTEX
  5
226D
  8
CELO
 10
0.0
 20
0.0
 30
0.0
 70
   128
 71
   307
 72
   308
 73
   306
  0
VERTEX
  5
226E
  8
CELO
 10
0.0
 20
0.0
 30
0.0
 70
   128
 71
   309
 72
   308
 73
   307
  0
VERTEX
  5
226F
  8
CELO
 10
0.0
 20
0.0
 30
0.0
 70
   128
 71
   309
 72
   310
 73
   308
  0
VERTEX
  5
2270
  8
CELO
 10
0.0
 20
0.0
 30
0.0
 70
   128
 71
   311
 72
   310
 73
   309
  0
VERTEX
  5
2271
  8
CELO
 10
0.0
 20
0.0
 30
0.0
 70
   128
 71
   311
 72
   312
 73
   310
  0
VERTEX
  5
2272
  8
CELO
 10
0.0
 20
0.0
 30
0.0
 70
   128
 71
   311
 72
   313
 73
   312
  0
VERTEX
  5
2273
  8
CELO
 10
0.0
 20
0.0
 30
0.0
 70
   128
 71
   314
 72
   313
 73
   311
  0
VERTEX
  5
2274
  8
CELO
 10
0.0
 20
0.0
 30
0.0
 70
   128
 71
   314
 72
   315
 73
   313
  0
VERTEX
  5
2275
  8
CELO
 10
0.0
 20
0.0
 30
0.0
 70
   128
 71
   316
 72
   315
 73
   314
  0
VERTEX
  5
2276
  8
CELO
 10
0.0
 20
0.0
 30
0.0
 70
   128
 71
   316
 72
   317
 73
   315
  0
VERTEX
  5
2277
  8
CELO
 10
0.0
 20
0.0
 30
0.0
 70
   128
 71
   318
 72
   317
 73
   316
  0
VERTEX
  5
2278
  8
CELO
 10
0.0
 20
0.0
 30
0.0
 70
   128
 71
   318
 72
   299
 73
   317
  0
VERTEX
  5
2279
  8
CELO
 10
0.0
 20
0.0
 30
0.0
 70
   128
 71
   300
 72
   299
 73
   318
  0
VERTEX
  5
227A
  8
CELO
 10
0.0
 20
0.0
 30
0.0
 70
   128
 71
   319
 72
   320
 73
   321
  0
VERTEX
  5
227B
  8
CELO
 10
0.0
 20
0.0
 30
0.0
 70
   128
 71
   322
 72
   323
 73
   324
  0
VERTEX
  5
227C
  8
CELO
 10
0.0
 20
0.0
 30
0.0
 70
   128
 71
   325
 72
   326
 73
   327
  0
VERTEX
  5
227D
  8
CELO
 10
0.0
 20
0.0
 30
0.0
 70
   128
 71
   325
 72
   328
 73
   326
  0
VERTEX
  5
227E
  8
CELO
 10
0.0
 20
0.0
 30
0.0
 70
   128
 71
   329
 72
   330
 73
   331
  0
VERTEX
  5
227F
  8
CELO
 10
0.0
 20
0.0
 30
0.0
 70
   128
 71
   332
 72
   328
 73
   325
  0
VERTEX
  5
2280
  8
CELO
 10
0.0
 20
0.0
 30
0.0
 70
   128
 71
   332
 72
   333
 73
   328
  0
VERTEX
  5
2281
  8
CELO
 10
0.0
 20
0.0
 30
0.0
 70
   128
 71
   332
 72
   334
 73
   333
  0
VERTEX
  5
2282
  8
CELO
 10
0.0
 20
0.0
 30
0.0
 70
   128
 71
   332
 72
   335
 73
   334
  0
VERTEX
  5
2283
  8
CELO
 10
0.0
 20
0.0
 30
0.0
 70
   128
 71
   336
 72
   335
 73
   332
  0
VERTEX
  5
2284
  8
CELO
 10
0.0
 20
0.0
 30
0.0
 70
   128
 71
   336
 72
   337
 73
   335
  0
VERTEX
  5
2285
  8
CELO
 10
0.0
 20
0.0
 30
0.0
 70
   128
 71
   338
 72
   337
 73
   336
  0
VERTEX
  5
2286
  8
CELO
 10
0.0
 20
0.0
 30
0.0
 70
   128
 71
   338
 72
   339
 73
   337
  0
VERTEX
  5
2287
  8
CELO
 10
0.0
 20
0.0
 30
0.0
 70
   128
 71
   340
 72
   339
 73
   338
  0
VERTEX
  5
2288
  8
CELO
 10
0.0
 20
0.0
 30
0.0
 70
   128
 71
   340
 72
   341
 73
   339
  0
VERTEX
  5
2289
  8
CELO
 10
0.0
 20
0.0
 30
0.0
 70
   128
 71
   340
 72
   342
 73
   341
  0
VERTEX
  5
228A
  8
CELO
 10
0.0
 20
0.0
 30
0.0
 70
   128
 71
   343
 72
   342
 73
   340
  0
VERTEX
  5
228B
  8
CELO
 10
0.0
 20
0.0
 30
0.0
 70
   128
 71
   343
 72
   344
 73
   342
  0
VERTEX
  5
228C
  8
CELO
 10
0.0
 20
0.0
 30
0.0
 70
   128
 71
   343
 72
   345
 73
   344
  0
VERTEX
  5
228D
  8
CELO
 10
0.0
 20
0.0
 30
0.0
 70
   128
 71
   346
 72
   345
 73
   343
  0
VERTEX
  5
228E
  8
CELO
 10
0.0
 20
0.0
 30
0.0
 70
   128
 71
   346
 72
   347
 73
   345
  0
VERTEX
  5
228F
  8
CELO
 10
0.0
 20
0.0
 30
0.0
 70
   128
 71
   346
 72
   320
 73
   347
  0
VERTEX
  5
2290
  8
CELO
 10
0.0
 20
0.0
 30
0.0
 70
   128
 71
   321
 72
   320
 73
   346
  0
VERTEX
  5
2291
  8
CELO
 10
0.0
 20
0.0
 30
0.0
 70
   128
 71
   348
 72
   325
 73
   327
  0
VERTEX
  5
2292
  8
CELO
 10
0.0
 20
0.0
 30
0.0
 70
   128
 71
   348
 72
   349
 73
   325
  0
VERTEX
  5
2293
  8
CELO
 10
0.0
 20
0.0
 30
0.0
 70
   128
 71
   350
 72
   349
 73
   348
  0
VERTEX
  5
2294
  8
CELO
 10
0.0
 20
0.0
 30
0.0
 70
   128
 71
   350
 72
   351
 73
   349
  0
VERTEX
  5
2295
  8
CELO
 10
0.0
 20
0.0
 30
0.0
 70
   128
 71
   352
 72
   351
 73
   350
  0
VERTEX
  5
2296
  8
CELO
 10
0.0
 20
0.0
 30
0.0
 70
   128
 71
   352
 72
   353
 73
   351
  0
VERTEX
  5
2297
  8
CELO
 10
0.0
 20
0.0
 30
0.0
 70
   128
 71
   354
 72
   353
 73
   352
  0
VERTEX
  5
2298
  8
CELO
 10
0.0
 20
0.0
 30
0.0
 70
   128
 71
   354
 72
   355
 73
   353
  0
VERTEX
  5
2299
  8
CELO
 10
0.0
 20
0.0
 30
0.0
 70
   128
 71
   356
 72
   355
 73
   354
  0
VERTEX
  5
229A
  8
CELO
 10
0.0
 20
0.0
 30
0.0
 70
   128
 71
   356
 72
   357
 73
   355
  0
VERTEX
  5
229B
  8
CELO
 10
0.0
 20
0.0
 30
0.0
 70
   128
 71
   330
 72
   357
 73
   356
  0
VERTEX
  5
229C
  8
CELO
 10
0.0
 20
0.0
 30
0.0
 70
   128
 71
   330
 72
   358
 73
   357
  0
VERTEX
  5
229D
  8
CELO
 10
0.0
 20
0.0
 30
0.0
 70
   128
 71
   329
 72
   358
 73
   330
  0
VERTEX
  5
229E
  8
CELO
 10
0.0
 20
0.0
 30
0.0
 70
   128
 71
   359
 72
   358
 73
   329
  0
VERTEX
  5
229F
  8
CELO
 10
0.0
 20
0.0
 30
0.0
 70
   128
 71
   359
 72
   321
 73
   358
  0
VERTEX
  5
22A0
  8
CELO
 10
0.0
 20
0.0
 30
0.0
 70
   128
 71
   323
 72
   321
 73
   359
  0
VERTEX
  5
22A1
  8
CELO
 10
0.0
 20
0.0
 30
0.0
 70
   128
 71
   319
 72
   323
 73
   322
  0
VERTEX
  5
22A2
  8
CELO
 10
0.0
 20
0.0
 30
0.0
 70
   128
 71
   320
 72
   319
 73
   322
  0
VERTEX
  5
22A3
  8
CELO
 10
0.0
 20
0.0
 30
0.0
 70
   128
 71
   323
 72
   319
 73
   321
  0
VERTEX
  5
22A4
  8
CELO
 10
0.0
 20
0.0
 30
0.0
 70
   128
 71
   358
 72
   346
 73
   357
  0
VERTEX
  5
22A5
  8
CELO
 10
0.0
 20
0.0
 30
0.0
 70
   128
 71
   346
 72
   358
 73
   321
  0
VERTEX
  5
22A6
  8
CELO
 10
0.0
 20
0.0
 30
0.0
 70
   128
 71
   357
 72
   343
 73
   355
  0
VERTEX
  5
22A7
  8
CELO
 10
0.0
 20
0.0
 30
0.0
 70
   128
 71
   343
 72
   357
 73
   346
  0
VERTEX
  5
22A8
  8
CELO
 10
0.0
 20
0.0
 30
0.0
 70
   128
 71
   355
 72
   340
 73
   353
  0
VERTEX
  5
22A9
  8
CELO
 10
0.0
 20
0.0
 30
0.0
 70
   128
 71
   340
 72
   355
 73
   343
  0
VERTEX
  5
22AA
  8
CELO
 10
0.0
 20
0.0
 30
0.0
 70
   128
 71
   353
 72
   338
 73
   351
  0
VERTEX
  5
22AB
  8
CELO
 10
0.0
 20
0.0
 30
0.0
 70
   128
 71
   338
 72
   353
 73
   340
  0
VERTEX
  5
22AC
  8
CELO
 10
0.0
 20
0.0
 30
0.0
 70
   128
 71
   351
 72
   336
 73
   349
  0
VERTEX
  5
22AD
  8
CELO
 10
0.0
 20
0.0
 30
0.0
 70
   128
 71
   336
 72
   351
 73
   338
  0
VERTEX
  5
22AE
  8
CELO
 10
0.0
 20
0.0
 30
0.0
 70
   128
 71
   349
 72
   332
 73
   325
  0
VERTEX
  5
22AF
  8
CELO
 10
0.0
 20
0.0
 30
0.0
 70
   128
 71
   332
 72
   349
 73
   336
  0
VERTEX
  5
22B0
  8
CELO
 10
0.0
 20
0.0
 30
0.0
 70
   128
 71
   360
 72
   361
 73
   362
  0
VERTEX
  5
22B1
  8
CELO
 10
0.0
 20
0.0
 30
0.0
 70
   128
 71
   363
 72
   360
 73
   364
  0
VERTEX
  5
22B2
  8
CELO
 10
0.0
 20
0.0
 30
0.0
 70
   128
 71
   365
 72
   366
 73
   367
  0
VERTEX
  5
22B3
  8
CELO
 10
0.0
 20
0.0
 30
0.0
 70
   128
 71
   364
 72
   368
 73
   363
  0
VERTEX
  5
22B4
  8
CELO
 10
0.0
 20
0.0
 30
0.0
 70
   128
 71
   369
 72
   368
 73
   364
  0
VERTEX
  5
22B5
  8
CELO
 10
0.0
 20
0.0
 30
0.0
 70
   128
 71
   369
 72
   370
 73
   368
  0
VERTEX
  5
22B6
  8
CELO
 10
0.0
 20
0.0
 30
0.0
 70
   128
 71
   366
 72
   370
 73
   369
  0
VERTEX
  5
22B7
  8
CELO
 10
0.0
 20
0.0
 30
0.0
 70
   128
 71
   365
 72
   370
 73
   366
  0
VERTEX
  5
22B8
  8
CELO
 10
0.0
 20
0.0
 30
0.0
 70
   128
 71
   371
 72
   370
 73
   365
  0
VERTEX
  5
22B9
  8
CELO
 10
0.0
 20
0.0
 30
0.0
 70
   128
 71
   371
 72
   372
 73
   370
  0
VERTEX
  5
22BA
  8
CELO
 10
0.0
 20
0.0
 30
0.0
 70
   128
 71
   373
 72
   372
 73
   371
  0
VERTEX
  5
22BB
  8
CELO
 10
0.0
 20
0.0
 30
0.0
 70
   128
 71
   373
 72
   374
 73
   372
  0
VERTEX
  5
22BC
  8
CELO
 10
0.0
 20
0.0
 30
0.0
 70
   128
 71
   375
 72
   374
 73
   373
  0
VERTEX
  5
22BD
  8
CELO
 10
0.0
 20
0.0
 30
0.0
 70
   128
 71
   376
 72
   374
 73
   375
  0
VERTEX
  5
22BE
  8
CELO
 10
0.0
 20
0.0
 30
0.0
 70
   128
 71
   377
 72
   378
 73
   379
  0
VERTEX
  5
22BF
  8
CELO
 10
0.0
 20
0.0
 30
0.0
 70
   128
 71
   380
 72
   374
 73
   376
  0
VERTEX
  5
22C0
  8
CELO
 10
0.0
 20
0.0
 30
0.0
 70
   128
 71
   380
 72
   381
 73
   374
  0
VERTEX
  5
22C1
  8
CELO
 10
0.0
 20
0.0
 30
0.0
 70
   128
 71
   378
 72
   381
 73
   380
  0
VERTEX
  5
22C2
  8
CELO
 10
0.0
 20
0.0
 30
0.0
 70
   128
 71
   378
 72
   382
 73
   381
  0
VERTEX
  5
22C3
  8
CELO
 10
0.0
 20
0.0
 30
0.0
 70
   128
 71
   377
 72
   382
 73
   378
  0
VERTEX
  5
22C4
  8
CELO
 10
0.0
 20
0.0
 30
0.0
 70
   128
 71
   377
 72
   383
 73
   382
  0
VERTEX
  5
22C5
  8
CELO
 10
0.0
 20
0.0
 30
0.0
 70
   128
 71
   384
 72
   383
 73
   377
  0
VERTEX
  5
22C6
  8
CELO
 10
0.0
 20
0.0
 30
0.0
 70
   128
 71
   361
 72
   383
 73
   384
  0
VERTEX
  5
22C7
  8
CELO
 10
0.0
 20
0.0
 30
0.0
 70
   128
 71
   361
 72
   363
 73
   383
  0
VERTEX
  5
22C8
  8
CELO
 10
0.0
 20
0.0
 30
0.0
 70
   128
 71
   361
 72
   360
 73
   363
  0
VERTEX
  5
22C9
  8
CELO
 10
0.0
 20
0.0
 30
0.0
 70
   128
 71
   382
 72
   385
 73
   381
  0
VERTEX
  5
22CA
  8
CELO
 10
0.0
 20
0.0
 30
0.0
 70
   128
 71
   385
 72
   382
 73
   383
  0
VERTEX
  5
22CB
  8
CELO
 10
0.0
 20
0.0
 30
0.0
 70
   128
 71
   383
 72
   368
 73
   385
  0
VERTEX
  5
22CC
  8
CELO
 10
0.0
 20
0.0
 30
0.0
 70
   128
 71
   368
 72
   383
 73
   363
  0
VERTEX
  5
22CD
  8
CELO
 10
0.0
 20
0.0
 30
0.0
 70
   128
 71
   381
 72
   372
 73
   374
  0
VERTEX
  5
22CE
  8
CELO
 10
0.0
 20
0.0
 30
0.0
 70
   128
 71
   372
 72
   381
 73
   385
  0
VERTEX
  5
22CF
  8
CELO
 10
0.0
 20
0.0
 30
0.0
 70
   128
 71
   385
 72
   370
 73
   372
  0
VERTEX
  5
22D0
  8
CELO
 10
0.0
 20
0.0
 30
0.0
 70
   128
 71
   370
 72
   385
 73
   368
  0
VERTEX
  5
22D1
  8
CELO
 10
0.0
 20
0.0
 30
0.0
 70
   128
 71
   386
 72
   387
 73
   388
  0
VERTEX
  5
22D2
  8
CELO
 10
0.0
 20
0.0
 30
0.0
 70
   128
 71
   389
 72
   390
 73
   391
  0
VERTEX
  5
22D3
  8
CELO
 10
0.0
 20
0.0
 30
0.0
 70
   128
 71
   390
 72
   392
 73
   393
  0
VERTEX
  5
22D4
  8
CELO
 10
0.0
 20
0.0
 30
0.0
 70
   128
 71
   386
 72
   394
 73
   395
  0
VERTEX
  5
22D5
  8
CELO
 10
0.0
 20
0.0
 30
0.0
 70
   128
 71
   394
 72
   396
 73
   397
  0
VERTEX
  5
22D6
  8
CELO
 10
0.0
 20
0.0
 30
0.0
 70
   128
 71
   398
 72
   390
 73
   389
  0
VERTEX
  5
22D7
  8
CELO
 10
0.0
 20
0.0
 30
0.0
 70
   128
 71
   389
 72
   399
 73
   398
  0
VERTEX
  5
22D8
  8
CELO
 10
0.0
 20
0.0
 30
0.0
 70
   128
 71
   400
 72
   399
 73
   401
  0
VERTEX
  5
22D9
  8
CELO
 10
0.0
 20
0.0
 30
0.0
 70
   128
 71
   401
 72
   402
 73
   403
  0
VERTEX
  5
22DA
  8
CELO
 10
0.0
 20
0.0
 30
0.0
 70
   128
 71
   404
 72
   400
 73
   403
  0
VERTEX
  5
22DB
  8
CELO
 10
0.0
 20
0.0
 30
0.0
 70
   128
 71
   404
 72
   405
 73
   406
  0
VERTEX
  5
22DC
  8
CELO
 10
0.0
 20
0.0
 30
0.0
 70
   128
 71
   407
 72
   408
 73
   406
  0
VERTEX
  5
22DD
  8
CELO
 10
0.0
 20
0.0
 30
0.0
 70
   128
 71
   407
 72
   409
 73
   410
  0
VERTEX
  5
22DE
  8
CELO
 10
0.0
 20
0.0
 30
0.0
 70
   128
 71
   411
 72
   412
 73
   410
  0
VERTEX
  5
22DF
  8
CELO
 10
0.0
 20
0.0
 30
0.0
 70
   128
 71
   411
 72
   413
 73
   414
  0
VERTEX
  5
22E0
  8
CELO
 10
0.0
 20
0.0
 30
0.0
 70
   128
 71
   415
 72
   416
 73
   414
  0
VERTEX
  5
22E1
  8
CELO
 10
0.0
 20
0.0
 30
0.0
 70
   128
 71
   415
 72
   417
 73
   418
  0
VERTEX
  5
22E2
  8
CELO
 10
0.0
 20
0.0
 30
0.0
 70
   128
 71
   419
 72
   394
 73
   386
  0
VERTEX
  5
22E3
  8
CELO
 10
0.0
 20
0.0
 30
0.0
 70
   128
 71
   420
 72
   419
 73
   388
  0
VERTEX
  5
22E4
  8
CELO
 10
0.0
 20
0.0
 30
0.0
 70
   128
 71
   417
 72
   387
 73
   418
  0
VERTEX
  5
22E5
  8
CELO
 10
0.0
 20
0.0
 30
0.0
 70
   128
 71
   398
 72
   399
 73
   392
  0
VERTEX
  5
22E6
  8
CELO
 10
0.0
 20
0.0
 30
0.0
 70
   128
 71
   399
 72
   389
 73
   421
  0
VERTEX
  5
22E7
  8
CELO
 10
0.0
 20
0.0
 30
0.0
 70
   128
 71
   390
 72
   398
 73
   392
  0
VERTEX
  5
22E8
  8
CELO
 10
0.0
 20
0.0
 30
0.0
 70
   128
 71
   401
 72
   399
 73
   421
  0
VERTEX
  5
22E9
  8
CELO
 10
0.0
 20
0.0
 30
0.0
 70
   128
 71
   399
 72
   400
 73
   392
  0
VERTEX
  5
22EA
  8
CELO
 10
0.0
 20
0.0
 30
0.0
 70
   128
 71
   401
 72
   403
 73
   400
  0
VERTEX
  5
22EB
  8
CELO
 10
0.0
 20
0.0
 30
0.0
 70
   128
 71
   402
 72
   401
 73
   421
  0
VERTEX
  5
22EC
  8
CELO
 10
0.0
 20
0.0
 30
0.0
 70
   128
 71
   404
 72
   403
 73
   402
  0
VERTEX
  5
22ED
  8
CELO
 10
0.0
 20
0.0
 30
0.0
 70
   128
 71
   400
 72
   404
 73
   408
  0
VERTEX
  5
22EE
  8
CELO
 10
0.0
 20
0.0
 30
0.0
 70
   128
 71
   404
 72
   406
 73
   408
  0
VERTEX
  5
22EF
  8
CELO
 10
0.0
 20
0.0
 30
0.0
 70
   128
 71
   405
 72
   404
 73
   402
  0
VERTEX
  5
22F0
  8
CELO
 10
0.0
 20
0.0
 30
0.0
 70
   128
 71
   407
 72
   406
 73
   405
  0
VERTEX
  5
22F1
  8
CELO
 10
0.0
 20
0.0
 30
0.0
 70
   128
 71
   408
 72
   407
 73
   412
  0
VERTEX
  5
22F2
  8
CELO
 10
0.0
 20
0.0
 30
0.0
 70
   128
 71
   407
 72
   410
 73
   412
  0
VERTEX
  5
22F3
  8
CELO
 10
0.0
 20
0.0
 30
0.0
 70
   128
 71
   409
 72
   407
 73
   405
  0
VERTEX
  5
22F4
  8
CELO
 10
0.0
 20
0.0
 30
0.0
 70
   128
 71
   411
 72
   410
 73
   409
  0
VERTEX
  5
22F5
  8
CELO
 10
0.0
 20
0.0
 30
0.0
 70
   128
 71
   412
 72
   411
 73
   416
  0
VERTEX
  5
22F6
  8
CELO
 10
0.0
 20
0.0
 30
0.0
 70
   128
 71
   411
 72
   414
 73
   416
  0
VERTEX
  5
22F7
  8
CELO
 10
0.0
 20
0.0
 30
0.0
 70
   128
 71
   413
 72
   411
 73
   409
  0
VERTEX
  5
22F8
  8
CELO
 10
0.0
 20
0.0
 30
0.0
 70
   128
 71
   415
 72
   414
 73
   413
  0
VERTEX
  5
22F9
  8
CELO
 10
0.0
 20
0.0
 30
0.0
 70
   128
 71
   416
 72
   415
 73
   422
  0
VERTEX
  5
22FA
  8
CELO
 10
0.0
 20
0.0
 30
0.0
 70
   128
 71
   415
 72
   418
 73
   422
  0
VERTEX
  5
22FB
  8
CELO
 10
0.0
 20
0.0
 30
0.0
 70
   128
 71
   417
 72
   415
 73
   413
  0
VERTEX
  5
22FC
  8
CELO
 10
0.0
 20
0.0
 30
0.0
 70
   128
 71
   418
 72
   387
 73
   422
  0
VERTEX
  5
22FD
  8
CELO
 10
0.0
 20
0.0
 30
0.0
 70
   128
 71
   387
 72
   417
 73
   420
  0
VERTEX
  5
22FE
  8
CELO
 10
0.0
 20
0.0
 30
0.0
 70
   128
 71
   388
 72
   419
 73
   386
  0
VERTEX
  5
22FF
  8
CELO
 10
0.0
 20
0.0
 30
0.0
 70
   128
 71
   419
 72
   420
 73
   396
  0
VERTEX
  5
2300
  8
CELO
 10
0.0
 20
0.0
 30
0.0
 70
   128
 71
   394
 72
   419
 73
   396
  0
VERTEX
  5
2301
  8
CELO
 10
0.0
 20
0.0
 30
0.0
 70
   128
 71
   388
 72
   387
 73
   420
  0
VERTEX
  5
2302
  8
CELO
 10
0.0
 20
0.0
 30
0.0
 70
   128
 71
   387
 72
   386
 73
   422
  0
VERTEX
  5
2303
  8
CELO
 10
0.0
 20
0.0
 30
0.0
 70
   128
 71
   423
 72
   424
 73
   425
  0
VERTEX
  5
2304
  8
CELO
 10
0.0
 20
0.0
 30
0.0
 70
   128
 71
   426
 72
   427
 73
   428
  0
VERTEX
  5
2305
  8
CELO
 10
0.0
 20
0.0
 30
0.0
 70
   128
 71
   429
 72
   427
 73
   426
  0
VERTEX
  5
2306
  8
CELO
 10
0.0
 20
0.0
 30
0.0
 70
   128
 71
   429
 72
   430
 73
   427
  0
VERTEX
  5
2307
  8
CELO
 10
0.0
 20
0.0
 30
0.0
 70
   128
 71
   431
 72
   430
 73
   429
  0
VERTEX
  5
2308
  8
CELO
 10
0.0
 20
0.0
 30
0.0
 70
   128
 71
   431
 72
   432
 73
   430
  0
VERTEX
  5
2309
  8
CELO
 10
0.0
 20
0.0
 30
0.0
 70
   128
 71
   433
 72
   432
 73
   431
  0
VERTEX
  5
230A
  8
CELO
 10
0.0
 20
0.0
 30
0.0
 70
   128
 71
   433
 72
   434
 73
   432
  0
VERTEX
  5
230B
  8
CELO
 10
0.0
 20
0.0
 30
0.0
 70
   128
 71
   435
 72
   434
 73
   433
  0
VERTEX
  5
230C
  8
CELO
 10
0.0
 20
0.0
 30
0.0
 70
   128
 71
   435
 72
   436
 73
   434
  0
VERTEX
  5
230D
  8
CELO
 10
0.0
 20
0.0
 30
0.0
 70
   128
 71
   437
 72
   436
 73
   435
  0
VERTEX
  5
230E
  8
CELO
 10
0.0
 20
0.0
 30
0.0
 70
   128
 71
   437
 72
   438
 73
   436
  0
VERTEX
  5
230F
  8
CELO
 10
0.0
 20
0.0
 30
0.0
 70
   128
 71
   439
 72
   438
 73
   437
  0
VERTEX
  5
2310
  8
CELO
 10
0.0
 20
0.0
 30
0.0
 70
   128
 71
   439
 72
   440
 73
   438
  0
VERTEX
  5
2311
  8
CELO
 10
0.0
 20
0.0
 30
0.0
 70
   128
 71
   424
 72
   440
 73
   439
  0
VERTEX
  5
2312
  8
CELO
 10
0.0
 20
0.0
 30
0.0
 70
   128
 71
   424
 72
   423
 73
   440
  0
VERTEX
  5
2313
  8
CELO
 10
0.0
 20
0.0
 30
0.0
 70
   128
 71
   441
 72
   442
 73
   443
  0
VERTEX
  5
2314
  8
CELO
 10
0.0
 20
0.0
 30
0.0
 70
   128
 71
   444
 72
   445
 73
   446
  0
VERTEX
  5
2315
  8
CELO
 10
0.0
 20
0.0
 30
0.0
 70
   128
 71
   447
 72
   444
 73
   448
  0
VERTEX
  5
2316
  8
CELO
 10
0.0
 20
0.0
 30
0.0
 70
   128
 71
   449
 72
   450
 73
   451
  0
VERTEX
  5
2317
  8
CELO
 10
0.0
 20
0.0
 30
0.0
 70
   128
 71
   452
 72
   449
 73
   453
  0
VERTEX
  5
2318
  8
CELO
 10
0.0
 20
0.0
 30
0.0
 70
   128
 71
   454
 72
   444
 73
   447
  0
VERTEX
  5
2319
  8
CELO
 10
0.0
 20
0.0
 30
0.0
 70
   128
 71
   455
 72
   445
 73
   454
  0
VERTEX
  5
231A
  8
CELO
 10
0.0
 20
0.0
 30
0.0
 70
   128
 71
   455
 72
   456
 73
   457
  0
VERTEX
  5
231B
  8
CELO
 10
0.0
 20
0.0
 30
0.0
 70
   128
 71
   458
 72
   457
 73
   459
  0
VERTEX
  5
231C
  8
CELO
 10
0.0
 20
0.0
 30
0.0
 70
   128
 71
   456
 72
   460
 73
   459
  0
VERTEX
  5
231D
  8
CELO
 10
0.0
 20
0.0
 30
0.0
 70
   128
 71
   461
 72
   460
 73
   462
  0
VERTEX
  5
231E
  8
CELO
 10
0.0
 20
0.0
 30
0.0
 70
   128
 71
   463
 72
   464
 73
   462
  0
VERTEX
  5
231F
  8
CELO
 10
0.0
 20
0.0
 30
0.0
 70
   128
 71
   465
 72
   464
 73
   466
  0
VERTEX
  5
2320
  8
CELO
 10
0.0
 20
0.0
 30
0.0
 70
   128
 71
   467
 72
   468
 73
   466
  0
VERTEX
  5
2321
  8
CELO
 10
0.0
 20
0.0
 30
0.0
 70
   128
 71
   469
 72
   468
 73
   470
  0
VERTEX
  5
2322
  8
CELO
 10
0.0
 20
0.0
 30
0.0
 70
   128
 71
   471
 72
   472
 73
   470
  0
VERTEX
  5
2323
  8
CELO
 10
0.0
 20
0.0
 30
0.0
 70
   128
 71
   473
 72
   472
 73
   474
  0
VERTEX
  5
2324
  8
CELO
 10
0.0
 20
0.0
 30
0.0
 70
   128
 71
   475
 72
   473
 73
   474
  0
VERTEX
  5
2325
  8
CELO
 10
0.0
 20
0.0
 30
0.0
 70
   128
 71
   475
 72
   450
 73
   443
  0
VERTEX
  5
2326
  8
CELO
 10
0.0
 20
0.0
 30
0.0
 70
   128
 71
   441
 72
   449
 73
   452
  0
VERTEX
  5
2327
  8
CELO
 10
0.0
 20
0.0
 30
0.0
 70
   128
 71
   455
 72
   454
 73
   447
  0
VERTEX
  5
2328
  8
CELO
 10
0.0
 20
0.0
 30
0.0
 70
   128
 71
   445
 72
   455
 73
   476
  0
VERTEX
  5
2329
  8
CELO
 10
0.0
 20
0.0
 30
0.0
 70
   128
 71
   444
 72
   454
 73
   445
  0
VERTEX
  5
232A
  8
CELO
 10
0.0
 20
0.0
 30
0.0
 70
   128
 71
   455
 72
   457
 73
   476
  0
VERTEX
  5
232B
  8
CELO
 10
0.0
 20
0.0
 30
0.0
 70
   128
 71
   456
 72
   455
 73
   447
  0
VERTEX
  5
232C
  8
CELO
 10
0.0
 20
0.0
 30
0.0
 70
   128
 71
   459
 72
   457
 73
   456
  0
VERTEX
  5
232D
  8
CELO
 10
0.0
 20
0.0
 30
0.0
 70
   128
 71
   457
 72
   458
 73
   476
  0
VERTEX
  5
232E
  8
CELO
 10
0.0
 20
0.0
 30
0.0
 70
   128
 71
   459
 72
   460
 73
   458
  0
VERTEX
  5
232F
  8
CELO
 10
0.0
 20
0.0
 30
0.0
 70
   128
 71
   460
 72
   456
 73
   463
  0
VERTEX
  5
2330
  8
CELO
 10
0.0
 20
0.0
 30
0.0
 70
   128
 71
   462
 72
   460
 73
   463
  0
VERTEX
  5
2331
  8
CELO
 10
0.0
 20
0.0
 30
0.0
 70
   128
 71
   460
 72
   461
 73
   458
  0
VERTEX
  5
2332
  8
CELO
 10
0.0
 20
0.0
 30
0.0
 70
   128
 71
   462
 72
   464
 73
   461
  0
VERTEX
  5
2333
  8
CELO
 10
0.0
 20
0.0
 30
0.0
 70
   128
 71
   464
 72
   463
 73
   467
  0
VERTEX
  5
2334
  8
CELO
 10
0.0
 20
0.0
 30
0.0
 70
   128
 71
   466
 72
   464
 73
   467
  0
VERTEX
  5
2335
  8
CELO
 10
0.0
 20
0.0
 30
0.0
 70
   128
 71
   464
 72
   465
 73
   461
  0
VERTEX
  5
2336
  8
CELO
 10
0.0
 20
0.0
 30
0.0
 70
   128
 71
   466
 72
   468
 73
   465
  0
VERTEX
  5
2337
  8
CELO
 10
0.0
 20
0.0
 30
0.0
 70
   128
 71
   468
 72
   467
 73
   471
  0
VERTEX
  5
2338
  8
CELO
 10
0.0
 20
0.0
 30
0.0
 70
   128
 71
   470
 72
   468
 73
   471
  0
VERTEX
  5
2339
  8
CELO
 10
0.0
 20
0.0
 30
0.0
 70
   128
 71
   468
 72
   469
 73
   465
  0
VERTEX
  5
233A
  8
CELO
 10
0.0
 20
0.0
 30
0.0
 70
   128
 71
   470
 72
   472
 73
   469
  0
VERTEX
  5
233B
  8
CELO
 10
0.0
 20
0.0
 30
0.0
 70
   128
 71
   472
 72
   471
 73
   477
  0
VERTEX
  5
233C
  8
CELO
 10
0.0
 20
0.0
 30
0.0
 70
   128
 71
   474
 72
   472
 73
   477
  0
VERTEX
  5
233D
  8
CELO
 10
0.0
 20
0.0
 30
0.0
 70
   128
 71
   472
 72
   473
 73
   469
  0
VERTEX
  5
233E
  8
CELO
 10
0.0
 20
0.0
 30
0.0
 70
   128
 71
   475
 72
   474
 73
   477
  0
VERTEX
  5
233F
  8
CELO
 10
0.0
 20
0.0
 30
0.0
 70
   128
 71
   473
 72
   475
 73
   442
  0
VERTEX
  5
2340
  8
CELO
 10
0.0
 20
0.0
 30
0.0
 70
   128
 71
   475
 72
   443
 73
   442
  0
VERTEX
  5
2341
  8
CELO
 10
0.0
 20
0.0
 30
0.0
 70
   128
 71
   450
 72
   475
 73
   477
  0
VERTEX
  5
2342
  8
CELO
 10
0.0
 20
0.0
 30
0.0
 70
   128
 71
   441
 72
   443
 73
   450
  0
VERTEX
  5
2343
  8
CELO
 10
0.0
 20
0.0
 30
0.0
 70
   128
 71
   442
 72
   441
 73
   452
  0
VERTEX
  5
2344
  8
CELO
 10
0.0
 20
0.0
 30
0.0
 70
   128
 71
   449
 72
   441
 73
   450
  0
VERTEX
  5
2345
  8
CELO
 10
0.0
 20
0.0
 30
0.0
 70
   128
 71
   478
 72
   479
 73
   480
  0
VERTEX
  5
2346
  8
CELO
 10
0.0
 20
0.0
 30
0.0
 70
   128
 71
   479
 72
   481
 73
   482
  0
VERTEX
  5
2347
  8
CELO
 10
0.0
 20
0.0
 30
0.0
 70
   128
 71
   483
 72
   482
 73
   481
  0
VERTEX
  5
2348
  8
CELO
 10
0.0
 20
0.0
 30
0.0
 70
   128
 71
   483
 72
   484
 73
   482
  0
VERTEX
  5
2349
  8
CELO
 10
0.0
 20
0.0
 30
0.0
 70
   128
 71
   485
 72
   484
 73
   483
  0
VERTEX
  5
234A
  8
CELO
 10
0.0
 20
0.0
 30
0.0
 70
   128
 71
   485
 72
   486
 73
   484
  0
VERTEX
  5
234B
  8
CELO
 10
0.0
 20
0.0
 30
0.0
 70
   128
 71
   486
 72
   487
 73
   488
  0
VERTEX
  5
234C
  8
CELO
 10
0.0
 20
0.0
 30
0.0
 70
   128
 71
   485
 72
   487
 73
   486
  0
VERTEX
  5
234D
  8
CELO
 10
0.0
 20
0.0
 30
0.0
 70
   128
 71
   485
 72
   489
 73
   487
  0
VERTEX
  5
234E
  8
CELO
 10
0.0
 20
0.0
 30
0.0
 70
   128
 71
   490
 72
   489
 73
   485
  0
VERTEX
  5
234F
  8
CELO
 10
0.0
 20
0.0
 30
0.0
 70
   128
 71
   490
 72
   491
 73
   489
  0
VERTEX
  5
2350
  8
CELO
 10
0.0
 20
0.0
 30
0.0
 70
   128
 71
   492
 72
   491
 73
   490
  0
VERTEX
  5
2351
  8
CELO
 10
0.0
 20
0.0
 30
0.0
 70
   128
 71
   492
 72
   493
 73
   491
  0
VERTEX
  5
2352
  8
CELO
 10
0.0
 20
0.0
 30
0.0
 70
   128
 71
   492
 72
   494
 73
   493
  0
VERTEX
  5
2353
  8
CELO
 10
0.0
 20
0.0
 30
0.0
 70
   128
 71
   495
 72
   496
 73
   497
  0
VERTEX
  5
2354
  8
CELO
 10
0.0
 20
0.0
 30
0.0
 70
   128
 71
   498
 72
   494
 73
   492
  0
VERTEX
  5
2355
  8
CELO
 10
0.0
 20
0.0
 30
0.0
 70
   128
 71
   498
 72
   499
 73
   494
  0
VERTEX
  5
2356
  8
CELO
 10
0.0
 20
0.0
 30
0.0
 70
   128
 71
   500
 72
   499
 73
   498
  0
VERTEX
  5
2357
  8
CELO
 10
0.0
 20
0.0
 30
0.0
 70
   128
 71
   500
 72
   495
 73
   499
  0
VERTEX
  5
2358
  8
CELO
 10
0.0
 20
0.0
 30
0.0
 70
   128
 71
   500
 72
   496
 73
   495
  0
VERTEX
  5
2359
  8
CELO
 10
0.0
 20
0.0
 30
0.0
 70
   128
 71
   500
 72
   501
 73
   496
  0
VERTEX
  5
235A
  8
CELO
 10
0.0
 20
0.0
 30
0.0
 70
   128
 71
   502
 72
   501
 73
   500
  0
VERTEX
  5
235B
  8
CELO
 10
0.0
 20
0.0
 30
0.0
 70
   128
 71
   502
 72
   478
 73
   501
  0
VERTEX
  5
235C
  8
CELO
 10
0.0
 20
0.0
 30
0.0
 70
   128
 71
   481
 72
   478
 73
   502
  0
VERTEX
  5
235D
  8
CELO
 10
0.0
 20
0.0
 30
0.0
 70
   128
 71
   479
 72
   478
 73
   481
  0
VERTEX
  5
235E
  8
CELO
 10
0.0
 20
0.0
 30
0.0
 70
   128
 71
   492
 72
   503
 73
   498
  0
VERTEX
  5
235F
  8
CELO
 10
0.0
 20
0.0
 30
0.0
 70
   128
 71
   503
 72
   492
 73
   490
  0
VERTEX
  5
2360
  8
CELO
 10
0.0
 20
0.0
 30
0.0
 70
   128
 71
   490
 72
   483
 73
   503
  0
VERTEX
  5
2361
  8
CELO
 10
0.0
 20
0.0
 30
0.0
 70
   128
 71
   483
 72
   490
 73
   485
  0
VERTEX
  5
2362
  8
CELO
 10
0.0
 20
0.0
 30
0.0
 70
   128
 71
   498
 72
   502
 73
   500
  0
VERTEX
  5
2363
  8
CELO
 10
0.0
 20
0.0
 30
0.0
 70
   128
 71
   502
 72
   498
 73
   503
  0
VERTEX
  5
2364
  8
CELO
 10
0.0
 20
0.0
 30
0.0
 70
   128
 71
   503
 72
   481
 73
   502
  0
VERTEX
  5
2365
  8
CELO
 10
0.0
 20
0.0
 30
0.0
 70
   128
 71
   481
 72
   503
 73
   483
  0
VERTEX
  5
2366
  8
CELO
 10
0.0
 20
0.0
 30
0.0
 70
   128
 71
   504
 72
   505
 73
   506
  0
VERTEX
  5
2367
  8
CELO
 10
0.0
 20
0.0
 30
0.0
 70
   128
 71
   507
 72
   508
 73
   509
  0
VERTEX
  5
2368
  8
CELO
 10
0.0
 20
0.0
 30
0.0
 70
   128
 71
   510
 72
   508
 73
   507
  0
VERTEX
  5
2369
  8
CELO
 10
0.0
 20
0.0
 30
0.0
 70
   128
 71
   510
 72
   511
 73
   508
  0
VERTEX
  5
236A
  8
CELO
 10
0.0
 20
0.0
 30
0.0
 70
   128
 71
   512
 72
   511
 73
   510
  0
VERTEX
  5
236B
  8
CELO
 10
0.0
 20
0.0
 30
0.0
 70
   128
 71
   512
 72
   513
 73
   511
  0
VERTEX
  5
236C
  8
CELO
 10
0.0
 20
0.0
 30
0.0
 70
   128
 71
   514
 72
   513
 73
   512
  0
VERTEX
  5
236D
  8
CELO
 10
0.0
 20
0.0
 30
0.0
 70
   128
 71
   514
 72
   515
 73
   513
  0
VERTEX
  5
236E
  8
CELO
 10
0.0
 20
0.0
 30
0.0
 70
   128
 71
   516
 72
   515
 73
   514
  0
VERTEX
  5
236F
  8
CELO
 10
0.0
 20
0.0
 30
0.0
 70
   128
 71
   516
 72
   517
 73
   515
  0
VERTEX
  5
2370
  8
CELO
 10
0.0
 20
0.0
 30
0.0
 70
   128
 71
   516
 72
   518
 73
   517
  0
VERTEX
  5
2371
  8
CELO
 10
0.0
 20
0.0
 30
0.0
 70
   128
 71
   519
 72
   518
 73
   516
  0
VERTEX
  5
2372
  8
CELO
 10
0.0
 20
0.0
 30
0.0
 70
   128
 71
   519
 72
   520
 73
   518
  0
VERTEX
  5
2373
  8
CELO
 10
0.0
 20
0.0
 30
0.0
 70
   128
 71
   521
 72
   520
 73
   519
  0
VERTEX
  5
2374
  8
CELO
 10
0.0
 20
0.0
 30
0.0
 70
   128
 71
   521
 72
   522
 73
   520
  0
VERTEX
  5
2375
  8
CELO
 10
0.0
 20
0.0
 30
0.0
 70
   128
 71
   523
 72
   522
 73
   521
  0
VERTEX
  5
2376
  8
CELO
 10
0.0
 20
0.0
 30
0.0
 70
   128
 71
   523
 72
   504
 73
   522
  0
VERTEX
  5
2377
  8
CELO
 10
0.0
 20
0.0
 30
0.0
 70
   128
 71
   524
 72
   504
 73
   523
  0
VERTEX
  5
2378
  8
CELO
 10
0.0
 20
0.0
 30
0.0
 70
   128
 71
   505
 72
   504
 73
   524
  0
VERTEX
  5
2379
  8
CELO
 10
0.0
 20
0.0
 30
0.0
 70
   128
 71
   525
 72
   526
 73
   527
  0
VERTEX
  5
237A
  8
CELO
 10
0.0
 20
0.0
 30
0.0
 70
   128
 71
   528
 72
   527
 73
   529
  0
VERTEX
  5
237B
  8
CELO
 10
0.0
 20
0.0
 30
0.0
 70
   128
 71
   530
 72
   531
 73
   532
  0
VERTEX
  5
237C
  8
CELO
 10
0.0
 20
0.0
 30
0.0
 70
   128
 71
   530
 72
   533
 73
   531
  0
VERTEX
  5
237D
  8
CELO
 10
0.0
 20
0.0
 30
0.0
 70
   128
 71
   534
 72
   533
 73
   530
  0
VERTEX
  5
237E
  8
CELO
 10
0.0
 20
0.0
 30
0.0
 70
   128
 71
   534
 72
   535
 73
   533
  0
VERTEX
  5
237F
  8
CELO
 10
0.0
 20
0.0
 30
0.0
 70
   128
 71
   536
 72
   537
 73
   538
  0
VERTEX
  5
2380
  8
CELO
 10
0.0
 20
0.0
 30
0.0
 70
   128
 71
   532
 72
   539
 73
   530
  0
VERTEX
  5
2381
  8
CELO
 10
0.0
 20
0.0
 30
0.0
 70
   128
 71
   540
 72
   539
 73
   532
  0
VERTEX
  5
2382
  8
CELO
 10
0.0
 20
0.0
 30
0.0
 70
   128
 71
   541
 72
   539
 73
   540
  0
VERTEX
  5
2383
  8
CELO
 10
0.0
 20
0.0
 30
0.0
 70
   128
 71
   541
 72
   542
 73
   539
  0
VERTEX
  5
2384
  8
CELO
 10
0.0
 20
0.0
 30
0.0
 70
   128
 71
   541
 72
   543
 73
   542
  0
VERTEX
  5
2385
  8
CELO
 10
0.0
 20
0.0
 30
0.0
 70
   128
 71
   544
 72
   543
 73
   541
  0
VERTEX
  5
2386
  8
CELO
 10
0.0
 20
0.0
 30
0.0
 70
   128
 71
   544
 72
   545
 73
   543
  0
VERTEX
  5
2387
  8
CELO
 10
0.0
 20
0.0
 30
0.0
 70
   128
 71
   546
 72
   545
 73
   544
  0
VERTEX
  5
2388
  8
CELO
 10
0.0
 20
0.0
 30
0.0
 70
   128
 71
   547
 72
   545
 73
   546
  0
VERTEX
  5
2389
  8
CELO
 10
0.0
 20
0.0
 30
0.0
 70
   128
 71
   547
 72
   548
 73
   545
  0
VERTEX
  5
238A
  8
CELO
 10
0.0
 20
0.0
 30
0.0
 70
   128
 71
   537
 72
   548
 73
   547
  0
VERTEX
  5
238B
  8
CELO
 10
0.0
 20
0.0
 30
0.0
 70
   128
 71
   537
 72
   549
 73
   548
  0
VERTEX
  5
238C
  8
CELO
 10
0.0
 20
0.0
 30
0.0
 70
   128
 71
   536
 72
   549
 73
   537
  0
VERTEX
  5
238D
  8
CELO
 10
0.0
 20
0.0
 30
0.0
 70
   128
 71
   550
 72
   549
 73
   536
  0
VERTEX
  5
238E
  8
CELO
 10
0.0
 20
0.0
 30
0.0
 70
   128
 71
   550
 72
   551
 73
   549
  0
VERTEX
  5
238F
  8
CELO
 10
0.0
 20
0.0
 30
0.0
 70
   128
 71
   552
 72
   551
 73
   550
  0
VERTEX
  5
2390
  8
CELO
 10
0.0
 20
0.0
 30
0.0
 70
   128
 71
   553
 72
   551
 73
   552
  0
VERTEX
  5
2391
  8
CELO
 10
0.0
 20
0.0
 30
0.0
 70
   128
 71
   553
 72
   554
 73
   551
  0
VERTEX
  5
2392
  8
CELO
 10
0.0
 20
0.0
 30
0.0
 70
   128
 71
   555
 72
   554
 73
   553
  0
VERTEX
  5
2393
  8
CELO
 10
0.0
 20
0.0
 30
0.0
 70
   128
 71
   555
 72
   556
 73
   554
  0
VERTEX
  5
2394
  8
CELO
 10
0.0
 20
0.0
 30
0.0
 70
   128
 71
   557
 72
   556
 73
   555
  0
VERTEX
  5
2395
  8
CELO
 10
0.0
 20
0.0
 30
0.0
 70
   128
 71
   557
 72
   558
 73
   556
  0
VERTEX
  5
2396
  8
CELO
 10
0.0
 20
0.0
 30
0.0
 70
   128
 71
   559
 72
   558
 73
   557
  0
VERTEX
  5
2397
  8
CELO
 10
0.0
 20
0.0
 30
0.0
 70
   128
 71
   560
 72
   558
 73
   559
  0
VERTEX
  5
2398
  8
CELO
 10
0.0
 20
0.0
 30
0.0
 70
   128
 71
   560
 72
   561
 73
   558
  0
VERTEX
  5
2399
  8
CELO
 10
0.0
 20
0.0
 30
0.0
 70
   128
 71
   562
 72
   561
 73
   560
  0
VERTEX
  5
239A
  8
CELO
 10
0.0
 20
0.0
 30
0.0
 70
   128
 71
   563
 72
   561
 73
   562
  0
VERTEX
  5
239B
  8
CELO
 10
0.0
 20
0.0
 30
0.0
 70
   128
 71
   563
 72
   564
 73
   561
  0
VERTEX
  5
239C
  8
CELO
 10
0.0
 20
0.0
 30
0.0
 70
   128
 71
   565
 72
   564
 73
   563
  0
VERTEX
  5
239D
  8
CELO
 10
0.0
 20
0.0
 30
0.0
 70
   128
 71
   526
 72
   564
 73
   565
  0
VERTEX
  5
239E
  8
CELO
 10
0.0
 20
0.0
 30
0.0
 70
   128
 71
   526
 72
   534
 73
   564
  0
VERTEX
  5
239F
  8
CELO
 10
0.0
 20
0.0
 30
0.0
 70
   128
 71
   534
 72
   528
 73
   535
  0
VERTEX
  5
23A0
  8
CELO
 10
0.0
 20
0.0
 30
0.0
 70
   128
 71
   525
 72
   528
 73
   534
  0
VERTEX
  5
23A1
  8
CELO
 10
0.0
 20
0.0
 30
0.0
 70
   128
 71
   526
 72
   525
 73
   534
  0
VERTEX
  5
23A2
  8
CELO
 10
0.0
 20
0.0
 30
0.0
 70
   128
 71
   528
 72
   525
 73
   527
  0
VERTEX
  5
23A3
  8
CELO
 10
0.0
 20
0.0
 30
0.0
 70
   128
 71
   534
 72
   539
 73
   564
  0
VERTEX
  5
23A4
  8
CELO
 10
0.0
 20
0.0
 30
0.0
 70
   128
 71
   539
 72
   534
 73
   530
  0
VERTEX
  5
23A5
  8
CELO
 10
0.0
 20
0.0
 30
0.0
 70
   128
 71
   564
 72
   542
 73
   561
  0
VERTEX
  5
23A6
  8
CELO
 10
0.0
 20
0.0
 30
0.0
 70
   128
 71
   542
 72
   564
 73
   539
  0
VERTEX
  5
23A7
  8
CELO
 10
0.0
 20
0.0
 30
0.0
 70
   128
 71
   561
 72
   543
 73
   558
  0
VERTEX
  5
23A8
  8
CELO
 10
0.0
 20
0.0
 30
0.0
 70
   128
 71
   543
 72
   561
 73
   542
  0
VERTEX
  5
23A9
  8
CELO
 10
0.0
 20
0.0
 30
0.0
 70
   128
 71
   558
 72
   545
 73
   556
  0
VERTEX
  5
23AA
  8
CELO
 10
0.0
 20
0.0
 30
0.0
 70
   128
 71
   545
 72
   558
 73
   543
  0
VERTEX
  5
23AB
  8
CELO
 10
0.0
 20
0.0
 30
0.0
 70
   128
 71
   556
 72
   548
 73
   554
  0
VERTEX
  5
23AC
  8
CELO
 10
0.0
 20
0.0
 30
0.0
 70
   128
 71
   548
 72
   556
 73
   545
  0
VERTEX
  5
23AD
  8
CELO
 10
0.0
 20
0.0
 30
0.0
 70
   128
 71
   554
 72
   549
 73
   551
  0
VERTEX
  5
23AE
  8
CELO
 10
0.0
 20
0.0
 30
0.0
 70
   128
 71
   549
 72
   554
 73
   548
  0
VERTEX
  5
23AF
  8
CELO
 10
0.0
 20
0.0
 30
0.0
 70
   128
 71
   566
 72
   567
 73
   568
  0
VERTEX
  5
23B0
  8
CELO
 10
0.0
 20
0.0
 30
0.0
 70
   128
 71
   569
 72
   570
 73
   571
  0
VERTEX
  5
23B1
  8
CELO
 10
0.0
 20
0.0
 30
0.0
 70
   128
 71
   572
 72
   570
 73
   569
  0
VERTEX
  5
23B2
  8
CELO
 10
0.0
 20
0.0
 30
0.0
 70
   128
 71
   573
 72
   570
 73
   572
  0
VERTEX
  5
23B3
  8
CELO
 10
0.0
 20
0.0
 30
0.0
 70
   128
 71
   573
 72
   574
 73
   570
  0
VERTEX
  5
23B4
  8
CELO
 10
0.0
 20
0.0
 30
0.0
 70
   128
 71
   575
 72
   574
 73
   573
  0
VERTEX
  5
23B5
  8
CELO
 10
0.0
 20
0.0
 30
0.0
 70
   128
 71
   575
 72
   576
 73
   574
  0
VERTEX
  5
23B6
  8
CELO
 10
0.0
 20
0.0
 30
0.0
 70
   128
 71
   577
 72
   576
 73
   575
  0
VERTEX
  5
23B7
  8
CELO
 10
0.0
 20
0.0
 30
0.0
 70
   128
 71
   577
 72
   578
 73
   576
  0
VERTEX
  5
23B8
  8
CELO
 10
0.0
 20
0.0
 30
0.0
 70
   128
 71
   579
 72
   578
 73
   577
  0
VERTEX
  5
23B9
  8
CELO
 10
0.0
 20
0.0
 30
0.0
 70
   128
 71
   580
 72
   578
 73
   579
  0
VERTEX
  5
23BA
  8
CELO
 10
0.0
 20
0.0
 30
0.0
 70
   128
 71
   580
 72
   581
 73
   578
  0
VERTEX
  5
23BB
  8
CELO
 10
0.0
 20
0.0
 30
0.0
 70
   128
 71
   582
 72
   581
 73
   580
  0
VERTEX
  5
23BC
  8
CELO
 10
0.0
 20
0.0
 30
0.0
 70
   128
 71
   582
 72
   583
 73
   581
  0
VERTEX
  5
23BD
  8
CELO
 10
0.0
 20
0.0
 30
0.0
 70
   128
 71
   584
 72
   583
 73
   582
  0
VERTEX
  5
23BE
  8
CELO
 10
0.0
 20
0.0
 30
0.0
 70
   128
 71
   584
 72
   585
 73
   583
  0
VERTEX
  5
23BF
  8
CELO
 10
0.0
 20
0.0
 30
0.0
 70
   128
 71
   567
 72
   585
 73
   584
  0
VERTEX
  5
23C0
  8
CELO
 10
0.0
 20
0.0
 30
0.0
 70
   128
 71
   567
 72
   566
 73
   585
  0
SEQEND
  5
23C1
  8
CELO
  0
ENDSEC
  0
EOF
