  0
SECTION
  2
HEADER
  9
$ACADVER
  1
AC1009
  9
$INSBASE
 10
0.0
 20
0.0
 30
0.0
  9
$EXTMIN
 10
-0.0000572204589844
 20
-0.0000152587890625
 30
-0.0000029325724427
  9
$EXTMAX
 10
1000.0
 20
475.0
 30
350.00003051757813
  9
$LIMMIN
 10
0.0
 20
0.0
  9
$LIMMAX
 10
420.0
 20
297.0
  9
$ORTHOMODE
 70
     0
  9
$REGENMODE
 70
     1
  9
$FILLMODE
 70
     1
  9
$QTEXTMODE
 70
     0
  9
$MIRRTEXT
 70
     0
  9
$DRAGMODE
 70
     2
  9
$LTSCALE
 40
1.0
  9
$OSMODE
 70
    35
  9
$ATTMODE
 70
     1
  9
$TEXTSIZE
 40
2.5
  9
$TRACEWID
 40
1.0
  9
$TEXTSTYLE
  7
STANDARD
  9
$CLAYER
  8
0
  9
$CELTYPE
  6
BYLAYER
  9
$CECOLOR
 62
   256
  9
$DIMSCALE
 40
1.0
  9
$DIMASZ
 40
2.5
  9
$DIMEXO
 40
0.625
  9
$DIMDLI
 40
3.75
  9
$DIMRND
 40
0.0
  9
$DIMDLE
 40
0.0
  9
$DIMEXE
 40
1.25
  9
$DIMTP
 40
0.0
  9
$DIMTM
 40
0.0
  9
$DIMTXT
 40
2.5
  9
$DIMCEN
 40
2.5
  9
$DIMTSZ
 40
0.0
  9
$DIMTOL
 70
     0
  9
$DIMLIM
 70
     0
  9
$DIMTIH
 70
     0
  9
$DIMTOH
 70
     0
  9
$DIMSE1
 70
     0
  9
$DIMSE2
 70
     0
  9
$DIMTAD
 70
     1
  9
$DIMZIN
 70
     8
  9
$DIMBLK
  1

  9
$DIMASO
 70
     1
  9
$DIMSHO
 70
     1
  9
$DIMPOST
  1

  9
$DIMAPOST
  1

  9
$DIMALT
 70
     0
  9
$DIMALTD
 70
     3
  9
$DIMALTF
 40
0.03937007874016
  9
$DIMLFAC
 40
1.0
  9
$DIMTOFL
 70
     1
  9
$DIMTVP
 40
0.0
  9
$DIMTIX
 70
     0
  9
$DIMSOXD
 70
     0
  9
$DIMSAH
 70
     0
  9
$DIMBLK1
  1

  9
$DIMBLK2
  1

  9
$DIMSTYLE
  2
ISO-25
  9
$DIMCLRD
 70
     0
  9
$DIMCLRE
 70
     0
  9
$DIMCLRT
 70
     0
  9
$DIMTFAC
 40
1.0
  9
$DIMGAP
 40
0.625
  9
$LUNITS
 70
     2
  9
$LUPREC
 70
     4
  9
$SKETCHINC
 40
1.0
  9
$FILLETRAD
 40
0.0
  9
$AUNITS
 70
     0
  9
$AUPREC
 70
     0
  9
$MENU
  1
.
  9
$ELEVATION
 40
0.0
  9
$PELEVATION
 40
0.0
  9
$THICKNESS
 40
0.0
  9
$LIMCHECK
 70
     0
  9
$BLIPMODE
 70
     0
  9
$CHAMFERA
 40
0.0
  9
$CHAMFERB
 40
0.0
  9
$SKPOLY
 70
     0
  9
$TDCREATE
 40
2460701.3985241782
  9
$TDUPDATE
 40
2460701.4151937268
  9
$TDINDWG
 40
0.0166729745
  9
$TDUSRTIMER
 40
0.0166728472
  9
$USRTIMER
 70
     1
  9
$ANGBASE
 50
0.0
  9
$ANGDIR
 70
     0
  9
$PDMODE
 70
     0
  9
$PDSIZE
 40
0.0
  9
$PLINEWID
 40
0.0
  9
$COORDS
 70
     1
  9
$SPLFRAME
 70
     0
  9
$SPLINETYPE
 70
     6
  9
$SPLINESEGS
 70
     8
  9
$ATTDIA
 70
     1
  9
$ATTREQ
 70
     1
  9
$HANDLING
 70
     1
  9
$HANDSEED
  5
18DE
  9
$SURFTAB1
 70
     6
  9
$SURFTAB2
 70
     6
  9
$SURFTYPE
 70
     6
  9
$SURFU
 70
     6
  9
$SURFV
 70
     6
  9
$UCSNAME
  2

  9
$UCSORG
 10
0.0
 20
0.0
 30
0.0
  9
$UCSXDIR
 10
1.0
 20
0.0
 30
0.0
  9
$UCSYDIR
 10
0.0
 20
1.0
 30
0.0
  9
$PUCSNAME
  2

  9
$PUCSORG
 10
0.0
 20
0.0
 30
0.0
  9
$PUCSXDIR
 10
1.0
 20
0.0
 30
0.0
  9
$PUCSYDIR
 10
0.0
 20
1.0
 30
0.0
  9
$USERI1
 70
     0
  9
$USERI2
 70
     0
  9
$USERI3
 70
     0
  9
$USERI4
 70
     0
  9
$USERI5
 70
     0
  9
$USERR1
 40
0.0
  9
$USERR2
 40
0.0
  9
$USERR3
 40
0.0
  9
$USERR4
 40
0.0
  9
$USERR5
 40
0.0
  9
$WORLDVIEW
 70
     1
  9
$SHADEDGE
 70
     3
  9
$SHADEDIF
 70
    70
  9
$TILEMODE
 70
     1
  9
$MAXACTVP
 70
    64
  9
$PLIMCHECK
 70
     0
  9
$PEXTMIN
 10
0.0
 20
0.0
 30
0.0
  9
$PEXTMAX
 10
0.0
 20
0.0
 30
0.0
  9
$PLIMMIN
 10
0.0
 20
0.0
  9
$PLIMMAX
 10
12.0
 20
9.0
  9
$UNITMODE
 70
     0
  9
$VISRETAIN
 70
     1
  9
$PLINEGEN
 70
     0
  9
$PSLTSCALE
 70
     1
  0
ENDSEC
  0
SECTION
  2
TABLES
  0
TABLE
  2
VPORT
 70
     1
  0
VPORT
  2
*ACTIVE
 70
     0
 10
0.0
 20
0.0
 11
1.0
 21
1.0
 12
-664.57885367210599
 22
-334.99449046436172
 13
0.0
 23
0.0
 14
10.0
 24
10.0
 15
10.0
 25
10.0
 16
11604.206350989591
 26
-5054.219656816641
 36
9163.4962691630317
 17
465.54331256549079
 27
1062.786575061622
 37
327.87427680788909
 40
1342.3682384247991
 41
0.8690909090909091
 42
50.0
 43
0.0
 44
0.0
 50
0.0
 51
0.0000000000000016
 71
     0
 72
  1000
 73
     1
 74
     3
 75
     0
 76
     1
 77
     0
 78
     0
  0
ENDTAB
  0
TABLE
  2
LTYPE
 70
     1
  0
LTYPE
  2
CONTINUOUS
 70
     0
  3
Solid line
 72
    65
 73
     0
 40
0.0
  0
ENDTAB
  0
TABLE
  2
LAYER
 70
    26
  0
LAYER
  2
0
 70
     0
 62
     7
  6
CONTINUOUS
  0
LAYER
  2
KORPUS
 70
     0
 62
     7
  6
CONTINUOUS
  0
LAYER
  2
PROFIL
 70
     0
 62
     7
  6
CONTINUOUS
  0
LAYER
  2
SUPLIK
 70
     0
 62
     7
  6
CONTINUOUS
  0
LAYER
  2
CELO
 70
     0
 62
     7
  6
CONTINUOUS
  0
ENDTAB
  0
TABLE
  2
STYLE
 70
     3
  0
STYLE
  2
STANDARD
 70
     0
 40
0.0
 41
1.0
 50
0.0
 71
     0
 42
2.5
  3
txt
  4

  0
STYLE
  2
ANNOTATIVE
 70
     0
 40
0.0
 41
1.0
 50
0.0
 71
     0
 42
2.5
  3
txt
  4

  0
STYLE
  2
ASHADE
 70
     0
 40
0.2
 41
1.0
 50
0.0
 71
     0
 42
2.5
  3
simplex
  4

  0
ENDTAB
  0
TABLE
  2
VIEW
 70
     2
  0
ENDTAB
  0
TABLE
  2
UCS
 70
     2
  0
ENDTAB
  0
TABLE
  2
APPID
 70
    13
  0
APPID
  2
ACAD
 70
     0
  0
APPID
  2
ACAD_PSEXT
 70
     0
  0
APPID
  2
ACADANNOPO
 70
     0
  0
APPID
  2
ACADANNOTATIVE
 70
     0
  0
APPID
  2
ACAD_DSTYLE_DIMJAG
 70
     0
  0
APPID
  2
ACAD_DSTYLE_DIMTALN
 70
     0
  0
APPID
  2
ACAD_MLEADERVER
 70
     0
  0
APPID
  2
ACAD_NAV_VCDISPLAY
 70
     0
  0
APPID
  2
AVE_RENDER
 70
     0
  0
APPID
  2
AVE_ENTITY_MATERIAL
 70
     0
  0
APPID
  2
AVE_FINISH
 70
     0
  0
APPID
  2
AVE_MATERIAL
 70
     0
  0
APPID
  2
AVE_GLOBAL
 70
     0
  0
ENDTAB
  0
TABLE
  2
DIMSTYLE
 70
     3
  0
DIMSTYLE
  2
STANDARD
 70
     0
  3

  4

  5

  6

  7

 40
1.0
 41
0.18
 42
0.0625
 43
0.38
 44
0.18
 45
0.0
 46
0.0
 47
0.0
 48
0.0
140
0.18
141
0.09
142
0.0
143
25.399999999999999
144
1.0
145
0.0
146
1.0
147
0.09
 71
     0
 72
     0
 73
     1
 74
     1
 75
     0
 76
     0
 77
     0
 78
     0
170
     0
171
     2
172
     0
173
     0
174
     0
175
     0
176
     0
177
     0
178
     0
  0
DIMSTYLE
  2
ANNOTATIVE
 70
     0
  3

  4

  5

  6

  7

 40
0.0
 41
2.5
 42
0.625
 43
3.75
 44
1.25
 45
0.0
 46
0.0
 47
0.0
 48
0.0
140
2.5
141
2.5
142
0.0
143
0.03937007874016
144
1.0
145
0.0
146
1.0
147
0.625
 71
     0
 72
     0
 73
     0
 74
     0
 75
     0
 76
     0
 77
     1
 78
     8
170
     0
171
     3
172
     1
173
     0
174
     0
175
     0
176
     0
177
     0
178
     0
  0
DIMSTYLE
  2
ISO-25
 70
     0
  3

  4

  5

  6

  7

 40
1.0
 41
2.5
 42
0.625
 43
3.75
 44
1.25
 45
0.0
 46
0.0
 47
0.0
 48
0.0
140
2.5
141
2.5
142
0.0
143
0.03937007874016
144
1.0
145
0.0
146
1.0
147
0.625
 71
     0
 72
     0
 73
     0
 74
     0
 75
     0
 76
     0
 77
     1
 78
     8
170
     0
171
     3
172
     1
173
     0
174
     0
175
     0
176
     0
177
     0
178
     0
  0
ENDTAB
  0
ENDSEC
  0
SECTION
  2
BLOCKS
  0
BLOCK
  8
0
  2
$MODEL_SPACE
 70
     0
 10
0.0
 20
0.0
 30
0.0
  3
$MODEL_SPACE
  1

  0
ENDBLK
  5
21
  8
0
  0
BLOCK
 67
     1
  8
0
  2
$PAPER_SPACE
 70
     0
 10
0.0
 20
0.0
 30
0.0
  3
$PAPER_SPACE
  1

  0
ENDBLK
  5
D5
 67
     1
  8
0
  0
BLOCK
  8
KORPUS
  2
AVE_RENDER
 70
     0
 10
0.0
 20
0.0
 30
0.0
  3
AVE_RENDER
  1
AVE_RENDER
  0
ENDBLK
  5
233
  8
0
  0
BLOCK
  8
KORPUS
  2
AVE_GLOBAL
 70
     0
 10
0.0
 20
0.0
 30
0.0
  3
AVE_GLOBAL
  1
AVE_GLOBAL
  0
ENDBLK
  5
241
  8
0
  0
ENDSEC
  0
SECTION
  2
ENTITIES
  0
INSERT
  5
234
  8
KORPUS
 62
     1
  2
AVE_RENDER
 10
0.0
 20
0.0
 30
0.0
1001
AVE_RENDER
1002
{
1070
     7
1000
Pref
1070
    50
1070
    20
1070
     1
1070
     0
1000

1070
    10
1070
     1
1070
    10
1040
1.0
1070
     1
1040
0.699999988079071
1040
1.0
1040
0.2000000029802322
1040
2.0
1010
-1.0
1020
-1.0
1030
-1.0
1040
0.3000000119209289
1070
    49
1070
     0
1070
     0
1010
1.0
1020
1.0
1030
1.0
1040
45.0
1070
     1
1070
     0
1000
WCS
1040
0.0
1070
     0
1040
10.0
1002
}
  0
INSERT
  5
235
  8
KORPUS
 62
     3
  2
AVE_RENDER
 10
0.0
 20
0.0
 30
0.0
1001
AVE_RENDER
1002
{
1070
     0
1000
Full Opt
1070
     0
1070
     1
1070
     1
1070
     1
1070
     0
1070
     0
1070
     0
1070
     1
1070
     1
1040
0.0001
1040
0.0001
1002
}
  0
INSERT
  5
236
  8
KORPUS
 62
     4
  2
AVE_RENDER
 10
0.0
 20
0.0
 30
0.0
1001
AVE_RENDER
1002
{
1070
     0
1000
Quick Opt
1070
     0
1070
     1
1070
     1
1070
     1
1070
     0
1070
     0
1070
     1
1002
}
  0
INSERT
  5
237
  8
KORPUS
 62
     5
  2
AVE_RENDER
 10
0.0
 20
0.0
 30
0.0
1001
AVE_RENDER
1002
{
1070
     1
1000
Scanl Opt
1070
     2
1070
     0
1070
     2
1040
2.0
1040
4.0
1070
     0
1070
     1
1070
     0
1040
0.03
1002
}
  0
INSERT
  5
238
  8
KORPUS
 62
     6
  2
AVE_RENDER
 10
0.0
 20
0.0
 30
0.0
1001
AVE_RENDER
1002
{
1070
     2
1000
Raytr Opt
1070
     2
1070
     0
1070
     2
1040
2.0
1040
4.0
1070
     0
1070
     1
1070
     1
1040
0.03
1070
     3
1040
0.03
1002
}
  0
INSERT
  5
239
  8
KORPUS
 62
     7
  2
AVE_RENDER
 10
0.0
 20
0.0
 30
0.0
1001
AVE_RENDER
1002
{
1070
     0
1000
RFile Opt
1070
     1
1070
   640
1070
   480
1070
 10000
1070
     1
1070
     8
1070
     8
1070
     0
1070
     0
1070
     0
1070
     0
1070
     0
1070
     0
1070
     0
1002
}
  0
INSERT
  5
23A
  8
KORPUS
 62
     8
  2
AVE_RENDER
 10
0.0
 20
0.0
 30
0.0
1001
AVE_RENDER
1002
{
1070
     0
1000
Fog Opt
1070
     0
1070
     0
1040
0.0
1040
1.0
1040
0.0
1040
1.0
1010
0.5
1020
0.5
1030
0.5
1002
}
  0
INSERT
  5
23B
  8
KORPUS
 62
     9
  2
AVE_RENDER
 10
0.0
 20
0.0
 30
0.0
1001
AVE_RENDER
1002
{
1070
     0
1000
BG Opt
1070
     0
1070
     1
1010
0.0
1020
0.0
1030
0.0
1010
0.0
1020
0.0
1030
1.0
1010
0.0
1020
1.0
1030
0.0
1010
1.0
1020
0.0
1030
0.0
1040
0.5
1040
0.5
1040
0.0
1000

1070
     1
1000

1070
     1
1070
     1
1040
1.0
1040
1.0
1040
0.0
1040
0.0
1070
     0
1002
}
  0
INSERT
  5
242
  8
KORPUS
 62
     1
  2
AVE_GLOBAL
 10
0.0
 20
0.0
 30
0.0
1001
AVE_MATERIAL
1002
{
1000
*GLOBAL*
1000
2
1000
Global finish.
1002
{
1002
}
1002
{
1070
    63
1002
{
1002
{
1010
-1.0
1020
-1.0
1030
-1.0
1002
}
1040
0.699999988079071
1000

1040
0.0
1002
{
1002
}
1040
0.0
1002
{
1002
}
1040
0.0
1002
}
1002
{
1002
{
1010
-1.0
1020
-1.0
1030
-1.0
1002
}
1040
1.0
1000

1040
0.0
1002
{
1002
}
1040
0.0
1002
{
1002
}
1040
0.0
1002
}
1002
{
1002
{
1010
-1.0
1020
-1.0
1030
-1.0
1002
}
1040
0.2000000029802322
1000

1040
0.0
1002
{
1002
}
1040
0.0
1002
{
1002
}
1040
0.0
1002
}
1002
{
1070
     0
1002
{
1070
     1
1002
{
1040
1.0
1040
1.0
1000

1040
0.0
1002
{
1002
}
1040
0.0
1002
{
1002
}
1040
0.0
1002
}
1002
}
1040
1.0
1040
0.0
1040
0.0
1002
}
1002
{
1040
1.0
1040
1.0
1000

1040
0.0
1002
{
1002
}
1040
0.0
1002
{
1002
}
1040
0.0
1002
}
1002
{
1040
0.5
1040
1.0
1000

1040
0.0
1002
{
1002
}
1040
0.0
1002
{
1002
}
1040
0.0
1002
}
1002
{
1070
     0
1040
0.0
1002
{
1002
}
1040
1.0
1002
{
1002
}
1040
0.0
1002
}
1002
{
1040
0.0
1002
{
1002
{
1010
0.0
1020
0.0
1030
0.0
1002
}
1040
1.0
1000

1040
0.0
1002
{
1002
}
1040
0.0
1002
{
1002
}
1040
0.0
1002
}
1002
}
1002
{
1002
{
1070
     1
1002
{
1040
0.0
1040
1.0
1000

1040
0.0
1002
{
1002
}
1040
0.0
1002
{
1002
}
1040
0.0
1002
}
1002
}
1040
0.0
1002
{
1002
}
1010
1.0
1020
0.0
1030
0.0
1010
0.0
1020
1.0
1030
0.0
1010
0.0
1020
0.0
1030
1.0
1070
     0
1002
}
1002
{
1002
{
1040
1.0
1040
1.0
1002
{
1070
     1
1002
{
1040
1.0
1040
1.0
1000

1040
0.0
1002
{
1002
}
1040
0.0
1002
{
1002
}
1040
0.0
1002
}
1002
}
1002
}
1070
     0
1040
0.0
1002
{
1002
}
1002
}
1002
{
1002
}
1002
}
1002
{
1071
        3
1070
     3
1070
     0
1002
{
1070
     2
1070
     0
1070
     0
1040
0.0
1002
}
1070
     0
1070
     2
1002
{
1002
}
1002
}
1002
{
1040
8030.0
1040
190.30000305175781
1040
0.3050000071525574
1040
228.0
1040
545.0
1040
14.0
1040
17.39999961853027
1040
0.4560000002384186
1002
}
1000

1002
}
  0
POLYLINE
  5
DBE
  8
KORPUS
 66
     1
 10
0.0
 20
0.0
 30
0.0
 70
    64
 71
    46
 72
    32
1001
AVE_ENTITY_MATERIAL
1002
{
1000

1002
{
1071
        0
1070
     0
1070
     0
1002
{
1070
     0
1070
     0
1070
     0
1040
0.0
1002
}
1070
     0
1070
     0
1002
{
1002
}
1002
}
1002
{
1002
}
1002
{
1002
}
1011
0.0
1021
0.0
1031
0.0
1021
0.0
1031
0.0
1011
1.0
1021
0.0
1031
0.0
1021
0.0
1031
0.0
1011
0.0
1021
0.0
1031
0.0
1021
1.0
1031
0.0
1011
0.0
1021
0.0
1031
0.0
1021
0.0
1031
1.0
1002
}
  0
VERTEX
  5
DBF
  8
KORPUS
 10
3.057470321655273
 20
24.662155151367191
 30
-0.0000024344471967
 70
   192
  0
VERTEX
  5
DC0
  8
KORPUS
 10
18.0
 20
17.906585693359371
 30
0.0
 70
   192
  0
VERTEX
  5
DC1
  8
KORPUS
 10
6.8116388320922852
 20
17.672153472900391
 30
-0.0000018228154204
 70
   192
  0
VERTEX
  5
DC2
  8
KORPUS
 10
11.76247406005859
 20
11.66906070709228
 30
-0.0000010162219723
 70
   192
  0
VERTEX
  5
DC3
  8
KORPUS
 10
0.0
 20
475.0
 30
-0.0000029325724427
 70
   192
  0
VERTEX
  5
DC4
  8
KORPUS
 10
18.0
 20
475.0
 30
0.0
 70
   192
  0
VERTEX
  5
DC5
  8
KORPUS
 10
0.0
 20
40.0
 30
-0.0000029325724427
 70
   192
  0
VERTEX
  5
DC6
  8
KORPUS
 10
0.7568492889404297
 20
32.255641937255859
 30
-0.0000028092658795
 70
   192
  0
VERTEX
  5
DC7
  8
KORPUS
 10
17.999942779541009
 20
17.906585693359371
 30
350.0
 70
   192
  0
VERTEX
  5
DC8
  8
KORPUS
 10
3.0574131011962891
 20
24.662155151367191
 30
350.0
 70
   192
  0
VERTEX
  5
DC9
  8
KORPUS
 10
6.8115816116332999
 20
17.672153472900391
 30
350.0
 70
   192
  0
VERTEX
  5
DCA
  8
KORPUS
 10
11.762416839599609
 20
11.66906070709228
 30
350.0
 70
   192
  0
VERTEX
  5
DCB
  8
KORPUS
 10
-0.0000572204589844
 20
475.0
 30
350.0
 70
   192
  0
VERTEX
  5
DCC
  8
KORPUS
 10
17.999942779541009
 20
475.0
 30
350.0
 70
   192
  0
VERTEX
  5
DCD
  8
KORPUS
 10
-0.0000572204589844
 20
40.0
 30
350.0
 70
   192
  0
VERTEX
  5
DCE
  8
KORPUS
 10
0.7567920684814454
 20
32.255641937255859
 30
350.0
 70
   192
  0
VERTEX
  5
DCF
  8
KORPUS
 10
0.0
 20
475.0
 30
-0.0000029325724427
 70
   192
  0
VERTEX
  5
DD0
  8
KORPUS
 10
17.999942779541009
 20
475.0
 30
350.0
 70
   192
  0
VERTEX
  5
DD1
  8
KORPUS
 10
18.0
 20
475.0
 30
0.0
 70
   192
  0
VERTEX
  5
DD2
  8
KORPUS
 10
-0.0000572204589844
 20
475.0
 30
350.0
 70
   192
  0
VERTEX
  5
DD3
  8
KORPUS
 10
18.0
 20
17.906585693359371
 30
0.0
 70
   192
  0
VERTEX
  5
DD4
  8
KORPUS
 10
17.999942779541009
 20
475.0
 30
350.0
 70
   192
  0
VERTEX
  5
DD5
  8
KORPUS
 10
17.999942779541009
 20
17.906585693359371
 30
350.0
 70
   192
  0
VERTEX
  5
DD6
  8
KORPUS
 10
18.0
 20
475.0
 30
0.0
 70
   192
  0
VERTEX
  5
DD7
  8
KORPUS
 10
0.0
 20
40.0
 30
-0.0000029325724427
 70
   192
  0
VERTEX
  5
DD8
  8
KORPUS
 10
-0.0000572204589844
 20
475.0
 30
350.0
 70
   192
  0
VERTEX
  5
DD9
  8
KORPUS
 10
0.0
 20
475.0
 30
-0.0000029325724427
 70
   192
  0
VERTEX
  5
DDA
  8
KORPUS
 10
-0.0000572204589844
 20
40.0
 30
350.0
 70
   192
  0
VERTEX
  5
DDB
  8
KORPUS
 10
18.0
 20
17.906585693359371
 30
0.0
 70
   192
  0
VERTEX
  5
DDC
  8
KORPUS
 10
11.762416839599609
 20
11.66906070709228
 30
350.0
 70
   192
  0
VERTEX
  5
DDD
  8
KORPUS
 10
11.76247406005859
 20
11.66906070709228
 30
-0.0000010162219723
 70
   192
  0
VERTEX
  5
DDE
  8
KORPUS
 10
17.999942779541009
 20
17.906585693359371
 30
350.0
 70
   192
  0
VERTEX
  5
DDF
  8
KORPUS
 10
6.4650754928588858
 20
18.196039199829102
 30
350.0
 70
   192
  0
VERTEX
  5
DE0
  8
KORPUS
 10
3.057470321655273
 20
24.662155151367191
 30
-0.0000024344471967
 70
   192
  0
VERTEX
  5
DE1
  8
KORPUS
 10
6.4651327133178711
 20
18.196039199829102
 30
-0.0000018792684386
 70
   192
  0
VERTEX
  5
DE2
  8
KORPUS
 10
11.296989440917971
 20
12.140702247619631
 30
350.0
 70
   192
  0
VERTEX
  5
DE3
  8
KORPUS
 10
11.76247406005859
 20
11.66906070709228
 30
-0.0000010162219723
 70
   192
  0
VERTEX
  5
DE4
  8
KORPUS
 10
11.762416839599609
 20
11.66906070709228
 30
350.0
 70
   192
  0
VERTEX
  5
DE5
  8
KORPUS
 10
11.29704666137695
 20
12.140702247619631
 30
-0.0000010920496152
 70
   192
  0
VERTEX
  5
DE6
  8
KORPUS
 10
0.0054874420166016
 20
39.33740234375
 30
-0.0000029316784094
 70
   192
  0
VERTEX
  5
DE7
  8
KORPUS
 10
-0.0000572204589844
 20
40.0
 30
350.0
 70
   192
  0
VERTEX
  5
DE8
  8
KORPUS
 10
0.0
 20
40.0
 30
-0.0000029325724427
 70
   192
  0
VERTEX
  5
DE9
  8
KORPUS
 10
0.0054302215576172
 20
39.33740234375
 30
350.0
 70
   192
  0
VERTEX
  5
DEA
  8
KORPUS
 10
0.8832340240478515
 20
31.640390396118171
 30
350.0
 70
   192
  0
VERTEX
  5
DEB
  8
KORPUS
 10
0.8832912445068359
 20
31.640390396118171
 30
-0.0000027886658245
 70
   192
  0
VERTEX
  5
DEC
  8
KORPUS
 10
3.0574131011962891
 20
24.662155151367191
 30
350.0
 70
   192
  0
VERTEX
  5
DED
  8
KORPUS
 10
0.0
 20
0.0
 30
0.0
 70
   128
 71
     1
 72
     2
 73
     3
  0
VERTEX
  5
DEE
  8
KORPUS
 10
0.0
 20
0.0
 30
0.0
 70
   128
 71
     3
 72
     2
 73
     4
  0
VERTEX
  5
DEF
  8
KORPUS
 10
0.0
 20
0.0
 30
0.0
 70
   128
 71
     2
 72
     5
 73
     6
  0
VERTEX
  5
DF0
  8
KORPUS
 10
0.0
 20
0.0
 30
0.0
 70
   128
 71
     2
 72
     7
 73
     5
  0
VERTEX
  5
DF1
  8
KORPUS
 10
0.0
 20
0.0
 30
0.0
 70
   128
 71
     2
 72
     8
 73
     7
  0
VERTEX
  5
DF2
  8
KORPUS
 10
0.0
 20
0.0
 30
0.0
 70
   128
 71
     2
 72
     1
 73
     8
  0
VERTEX
  5
DF3
  8
KORPUS
 10
0.0
 20
0.0
 30
0.0
 70
   128
 71
     9
 72
    10
 73
    11
  0
VERTEX
  5
DF4
  8
KORPUS
 10
0.0
 20
0.0
 30
0.0
 70
   128
 71
     9
 72
    11
 73
    12
  0
VERTEX
  5
DF5
  8
KORPUS
 10
0.0
 20
0.0
 30
0.0
 70
   128
 71
    13
 72
     9
 73
    14
  0
VERTEX
  5
DF6
  8
KORPUS
 10
0.0
 20
0.0
 30
0.0
 70
   128
 71
    15
 72
     9
 73
    13
  0
VERTEX
  5
DF7
  8
KORPUS
 10
0.0
 20
0.0
 30
0.0
 70
   128
 71
    16
 72
     9
 73
    15
  0
VERTEX
  5
DF8
  8
KORPUS
 10
0.0
 20
0.0
 30
0.0
 70
   128
 71
    10
 72
     9
 73
    16
  0
VERTEX
  5
DF9
  8
KORPUS
 10
0.0
 20
0.0
 30
0.0
 70
   128
 71
    17
 72
    18
 73
    19
  0
VERTEX
  5
DFA
  8
KORPUS
 10
0.0
 20
0.0
 30
0.0
 70
   128
 71
    18
 72
    17
 73
    20
  0
VERTEX
  5
DFB
  8
KORPUS
 10
0.0
 20
0.0
 30
0.0
 70
   128
 71
    21
 72
    22
 73
    23
  0
VERTEX
  5
DFC
  8
KORPUS
 10
0.0
 20
0.0
 30
0.0
 70
   128
 71
    22
 72
    21
 73
    24
  0
VERTEX
  5
DFD
  8
KORPUS
 10
0.0
 20
0.0
 30
0.0
 70
   128
 71
    25
 72
    26
 73
    27
  0
VERTEX
  5
DFE
  8
KORPUS
 10
0.0
 20
0.0
 30
0.0
 70
   128
 71
    26
 72
    25
 73
    28
  0
VERTEX
  5
DFF
  8
KORPUS
 10
0.0
 20
0.0
 30
0.0
 70
   128
 71
    29
 72
    30
 73
    31
  0
VERTEX
  5
E00
  8
KORPUS
 10
0.0
 20
0.0
 30
0.0
 70
   128
 71
    30
 72
    29
 73
    32
  0
VERTEX
  5
E01
  8
KORPUS
 10
0.0
 20
0.0
 30
0.0
 70
   128
 71
    33
 72
    34
 73
    35
  0
VERTEX
  5
E02
  8
KORPUS
 10
0.0
 20
0.0
 30
0.0
 70
   128
 71
    36
 72
    37
 73
    38
  0
VERTEX
  5
E03
  8
KORPUS
 10
0.0
 20
0.0
 30
0.0
 70
   128
 71
    36
 72
    39
 73
    37
  0
VERTEX
  5
E04
  8
KORPUS
 10
0.0
 20
0.0
 30
0.0
 70
   128
 71
    33
 72
    39
 73
    36
  0
VERTEX
  5
E05
  8
KORPUS
 10
0.0
 20
0.0
 30
0.0
 70
   128
 71
    33
 72
    35
 73
    39
  0
VERTEX
  5
E06
  8
KORPUS
 10
0.0
 20
0.0
 30
0.0
 70
   128
 71
    40
 72
    41
 73
    42
  0
VERTEX
  5
E07
  8
KORPUS
 10
0.0
 20
0.0
 30
0.0
 70
   128
 71
    40
 72
    43
 73
    41
  0
VERTEX
  5
E08
  8
KORPUS
 10
0.0
 20
0.0
 30
0.0
 70
   128
 71
    40
 72
    44
 73
    43
  0
VERTEX
  5
E09
  8
KORPUS
 10
0.0
 20
0.0
 30
0.0
 70
   128
 71
    45
 72
    44
 73
    40
  0
VERTEX
  5
E0A
  8
KORPUS
 10
0.0
 20
0.0
 30
0.0
 70
   128
 71
    34
 72
    44
 73
    45
  0
VERTEX
  5
E0B
  8
KORPUS
 10
0.0
 20
0.0
 30
0.0
 70
   128
 71
    34
 72
    46
 73
    44
  0
VERTEX
  5
E0C
  8
KORPUS
 10
0.0
 20
0.0
 30
0.0
 70
   128
 71
    34
 72
    33
 73
    46
  0
SEQEND
  5
E0D
  8
KORPUS
  0
POLYLINE
  5
E0F
  8
KORPUS
 66
     1
 10
0.0
 20
0.0
 30
0.0
 70
    64
 71
    46
 72
    32
1001
AVE_ENTITY_MATERIAL
1002
{
1000

1002
{
1071
        0
1070
     0
1070
     0
1002
{
1070
     0
1070
     0
1070
     0
1040
0.0
1002
}
1070
     0
1070
     0
1002
{
1002
}
1002
}
1002
{
1002
}
1002
{
1002
}
1011
0.0
1021
0.0
1031
0.0
1021
0.0
1031
0.0
1011
1.0
1021
0.0
1031
0.0
1021
0.0
1031
0.0
1011
0.0
1021
0.0
1031
0.0
1021
1.0
1031
0.0
1011
0.0
1021
0.0
1031
0.0
1021
0.0
1031
1.0
1002
}
  0
VERTEX
  5
E10
  8
KORPUS
 10
996.94250488281239
 20
24.662155151367191
 30
350.0
 70
   192
  0
VERTEX
  5
E11
  8
KORPUS
 10
982.0
 20
17.906585693359371
 30
350.0
 70
   192
  0
VERTEX
  5
E12
  8
KORPUS
 10
993.1883544921875
 20
17.672153472900391
 30
350.0
 70
   192
  0
VERTEX
  5
E13
  8
KORPUS
 10
988.23754882812489
 20
11.66906070709228
 30
350.0
 70
   192
  0
VERTEX
  5
E14
  8
KORPUS
 10
1000.0
 20
475.0
 30
350.0
 70
   192
  0
VERTEX
  5
E15
  8
KORPUS
 10
982.0
 20
475.0
 30
350.0
 70
   192
  0
VERTEX
  5
E16
  8
KORPUS
 10
1000.0
 20
40.0
 30
350.0
 70
   192
  0
VERTEX
  5
E17
  8
KORPUS
 10
999.2431640625
 20
32.255641937255859
 30
350.0
 70
   192
  0
VERTEX
  5
E18
  8
KORPUS
 10
982.0
 20
17.906585693359371
 30
0.0
 70
   192
  0
VERTEX
  5
E19
  8
KORPUS
 10
996.94250488281239
 20
24.662155151367191
 30
0.0
 70
   192
  0
VERTEX
  5
E1A
  8
KORPUS
 10
993.1883544921875
 20
17.672153472900391
 30
0.0
 70
   192
  0
VERTEX
  5
E1B
  8
KORPUS
 10
988.23748779296875
 20
11.66906070709228
 30
0.0
 70
   192
  0
VERTEX
  5
E1C
  8
KORPUS
 10
1000.0
 20
475.0
 30
0.0
 70
   192
  0
VERTEX
  5
E1D
  8
KORPUS
 10
982.0
 20
475.0
 30
0.0
 70
   192
  0
VERTEX
  5
E1E
  8
KORPUS
 10
1000.0
 20
40.0
 30
0.0
 70
   192
  0
VERTEX
  5
E1F
  8
KORPUS
 10
999.2431640625
 20
32.255641937255859
 30
0.0
 70
   192
  0
VERTEX
  5
E20
  8
KORPUS
 10
1000.0
 20
475.0
 30
350.0
 70
   192
  0
VERTEX
  5
E21
  8
KORPUS
 10
982.0
 20
475.0
 30
0.0
 70
   192
  0
VERTEX
  5
E22
  8
KORPUS
 10
982.0
 20
475.0
 30
350.0
 70
   192
  0
VERTEX
  5
E23
  8
KORPUS
 10
1000.0
 20
475.0
 30
0.0
 70
   192
  0
VERTEX
  5
E24
  8
KORPUS
 10
982.0
 20
17.906585693359371
 30
350.0
 70
   192
  0
VERTEX
  5
E25
  8
KORPUS
 10
982.0
 20
475.0
 30
0.0
 70
   192
  0
VERTEX
  5
E26
  8
KORPUS
 10
982.0
 20
17.906585693359371
 30
0.0
 70
   192
  0
VERTEX
  5
E27
  8
KORPUS
 10
982.0
 20
475.0
 30
350.0
 70
   192
  0
VERTEX
  5
E28
  8
KORPUS
 10
1000.0
 20
40.0
 30
350.0
 70
   192
  0
VERTEX
  5
E29
  8
KORPUS
 10
1000.0
 20
475.0
 30
0.0
 70
   192
  0
VERTEX
  5
E2A
  8
KORPUS
 10
1000.0
 20
475.0
 30
350.0
 70
   192
  0
VERTEX
  5
E2B
  8
KORPUS
 10
1000.0
 20
40.0
 30
0.0
 70
   192
  0
VERTEX
  5
E2C
  8
KORPUS
 10
982.0
 20
17.906585693359371
 30
350.0
 70
   192
  0
VERTEX
  5
E2D
  8
KORPUS
 10
988.23748779296875
 20
11.66906070709228
 30
0.0
 70
   192
  0
VERTEX
  5
E2E
  8
KORPUS
 10
988.23754882812489
 20
11.66906070709228
 30
350.0
 70
   192
  0
VERTEX
  5
E2F
  8
KORPUS
 10
982.0
 20
17.906585693359371
 30
0.0
 70
   192
  0
VERTEX
  5
E30
  8
KORPUS
 10
999.9945068359375
 20
39.33740234375
 30
350.0
 70
   192
  0
VERTEX
  5
E31
  8
KORPUS
 10
1000.0
 20
40.0
 30
0.0
 70
   192
  0
VERTEX
  5
E32
  8
KORPUS
 10
1000.0
 20
40.0
 30
350.0
 70
   192
  0
VERTEX
  5
E33
  8
KORPUS
 10
988.70294189453125
 20
12.140702247619631
 30
0.0
 70
   192
  0
VERTEX
  5
E34
  8
KORPUS
 10
988.23754882812489
 20
11.66906070709228
 30
350.0
 70
   192
  0
VERTEX
  5
E35
  8
KORPUS
 10
988.23748779296875
 20
11.66906070709228
 30
0.0
 70
   192
  0
VERTEX
  5
E36
  8
KORPUS
 10
988.70294189453125
 20
12.140702247619631
 30
350.0
 70
   192
  0
VERTEX
  5
E37
  8
KORPUS
 10
993.53485107421875
 20
18.196039199829102
 30
0.0
 70
   192
  0
VERTEX
  5
E38
  8
KORPUS
 10
993.53485107421875
 20
18.196039199829102
 30
350.0
 70
   192
  0
VERTEX
  5
E39
  8
KORPUS
 10
996.94250488281239
 20
24.662155151367191
 30
350.0
 70
   192
  0
VERTEX
  5
E3A
  8
KORPUS
 10
996.94250488281239
 20
24.662155151367191
 30
0.0
 70
   192
  0
VERTEX
  5
E3B
  8
KORPUS
 10
999.11669921874989
 20
31.640390396118171
 30
350.0
 70
   192
  0
VERTEX
  5
E3C
  8
KORPUS
 10
999.11669921874989
 20
31.640390396118171
 30
0.0
 70
   192
  0
VERTEX
  5
E3D
  8
KORPUS
 10
999.9945068359375
 20
39.33740234375
 30
0.0
 70
   192
  0
VERTEX
  5
E3E
  8
KORPUS
 10
0.0
 20
0.0
 30
0.0
 70
   128
 71
     1
 72
     2
 73
     3
  0
VERTEX
  5
E3F
  8
KORPUS
 10
0.0
 20
0.0
 30
0.0
 70
   128
 71
     3
 72
     2
 73
     4
  0
VERTEX
  5
E40
  8
KORPUS
 10
0.0
 20
0.0
 30
0.0
 70
   128
 71
     2
 72
     5
 73
     6
  0
VERTEX
  5
E41
  8
KORPUS
 10
0.0
 20
0.0
 30
0.0
 70
   128
 71
     2
 72
     7
 73
     5
  0
VERTEX
  5
E42
  8
KORPUS
 10
0.0
 20
0.0
 30
0.0
 70
   128
 71
     2
 72
     8
 73
     7
  0
VERTEX
  5
E43
  8
KORPUS
 10
0.0
 20
0.0
 30
0.0
 70
   128
 71
     2
 72
     1
 73
     8
  0
VERTEX
  5
E44
  8
KORPUS
 10
0.0
 20
0.0
 30
0.0
 70
   128
 71
     9
 72
    10
 73
    11
  0
VERTEX
  5
E45
  8
KORPUS
 10
0.0
 20
0.0
 30
0.0
 70
   128
 71
     9
 72
    11
 73
    12
  0
VERTEX
  5
E46
  8
KORPUS
 10
0.0
 20
0.0
 30
0.0
 70
   128
 71
    13
 72
     9
 73
    14
  0
VERTEX
  5
E47
  8
KORPUS
 10
0.0
 20
0.0
 30
0.0
 70
   128
 71
    15
 72
     9
 73
    13
  0
VERTEX
  5
E48
  8
KORPUS
 10
0.0
 20
0.0
 30
0.0
 70
   128
 71
    16
 72
     9
 73
    15
  0
VERTEX
  5
E49
  8
KORPUS
 10
0.0
 20
0.0
 30
0.0
 70
   128
 71
    10
 72
     9
 73
    16
  0
VERTEX
  5
E4A
  8
KORPUS
 10
0.0
 20
0.0
 30
0.0
 70
   128
 71
    17
 72
    18
 73
    19
  0
VERTEX
  5
E4B
  8
KORPUS
 10
0.0
 20
0.0
 30
0.0
 70
   128
 71
    18
 72
    17
 73
    20
  0
VERTEX
  5
E4C
  8
KORPUS
 10
0.0
 20
0.0
 30
0.0
 70
   128
 71
    21
 72
    22
 73
    23
  0
VERTEX
  5
E4D
  8
KORPUS
 10
0.0
 20
0.0
 30
0.0
 70
   128
 71
    22
 72
    21
 73
    24
  0
VERTEX
  5
E4E
  8
KORPUS
 10
0.0
 20
0.0
 30
0.0
 70
   128
 71
    25
 72
    26
 73
    27
  0
VERTEX
  5
E4F
  8
KORPUS
 10
0.0
 20
0.0
 30
0.0
 70
   128
 71
    26
 72
    25
 73
    28
  0
VERTEX
  5
E50
  8
KORPUS
 10
0.0
 20
0.0
 30
0.0
 70
   128
 71
    29
 72
    30
 73
    31
  0
VERTEX
  5
E51
  8
KORPUS
 10
0.0
 20
0.0
 30
0.0
 70
   128
 71
    30
 72
    29
 73
    32
  0
VERTEX
  5
E52
  8
KORPUS
 10
0.0
 20
0.0
 30
0.0
 70
   128
 71
    33
 72
    34
 73
    35
  0
VERTEX
  5
E53
  8
KORPUS
 10
0.0
 20
0.0
 30
0.0
 70
   128
 71
    36
 72
    37
 73
    38
  0
VERTEX
  5
E54
  8
KORPUS
 10
0.0
 20
0.0
 30
0.0
 70
   128
 71
    36
 72
    39
 73
    37
  0
VERTEX
  5
E55
  8
KORPUS
 10
0.0
 20
0.0
 30
0.0
 70
   128
 71
    40
 72
    39
 73
    36
  0
VERTEX
  5
E56
  8
KORPUS
 10
0.0
 20
0.0
 30
0.0
 70
   128
 71
    40
 72
    41
 73
    39
  0
VERTEX
  5
E57
  8
KORPUS
 10
0.0
 20
0.0
 30
0.0
 70
   128
 71
    40
 72
    42
 73
    41
  0
VERTEX
  5
E58
  8
KORPUS
 10
0.0
 20
0.0
 30
0.0
 70
   128
 71
    43
 72
    42
 73
    40
  0
VERTEX
  5
E59
  8
KORPUS
 10
0.0
 20
0.0
 30
0.0
 70
   128
 71
    43
 72
    44
 73
    42
  0
VERTEX
  5
E5A
  8
KORPUS
 10
0.0
 20
0.0
 30
0.0
 70
   128
 71
    45
 72
    44
 73
    43
  0
VERTEX
  5
E5B
  8
KORPUS
 10
0.0
 20
0.0
 30
0.0
 70
   128
 71
    46
 72
    44
 73
    45
  0
VERTEX
  5
E5C
  8
KORPUS
 10
0.0
 20
0.0
 30
0.0
 70
   128
 71
    46
 72
    33
 73
    44
  0
VERTEX
  5
E5D
  8
KORPUS
 10
0.0
 20
0.0
 30
0.0
 70
   128
 71
    34
 72
    33
 73
    46
  0
SEQEND
  5
E5E
  8
KORPUS
  0
POLYLINE
  5
E60
  8
KORPUS
 66
     1
 10
0.0
 20
0.0
 30
0.0
 70
    64
 71
    24
 72
    12
1001
AVE_ENTITY_MATERIAL
1002
{
1000

1002
{
1071
        0
1070
     0
1070
     0
1002
{
1070
     0
1070
     0
1070
     0
1040
0.0
1002
}
1070
     0
1070
     0
1002
{
1002
}
1002
}
1002
{
1002
}
1002
{
1002
}
1011
0.0
1021
0.0
1031
0.0
1021
0.0
1031
0.0
1011
1.0
1021
0.0
1031
0.0
1021
0.0
1031
0.0
1011
0.0
1021
0.0
1031
0.0
1021
1.0
1031
0.0
1011
0.0
1021
0.0
1031
0.0
1021
0.0
1031
1.0
1002
}
  0
VERTEX
  5
E61
  8
KORPUS
 10
18.0
 20
20.0
 30
18.0
 70
   192
  0
VERTEX
  5
E62
  8
KORPUS
 10
18.0
 20
474.0
 30
0.0
 70
   192
  0
VERTEX
  5
E63
  8
KORPUS
 10
18.0
 20
20.0
 30
0.0
 70
   192
  0
VERTEX
  5
E64
  8
KORPUS
 10
18.0
 20
474.0
 30
18.0
 70
   192
  0
VERTEX
  5
E65
  8
KORPUS
 10
982.0
 20
20.0
 30
18.0
 70
   192
  0
VERTEX
  5
E66
  8
KORPUS
 10
18.0
 20
20.0
 30
0.0
 70
   192
  0
VERTEX
  5
E67
  8
KORPUS
 10
982.0
 20
20.0
 30
0.0
 70
   192
  0
VERTEX
  5
E68
  8
KORPUS
 10
18.0
 20
20.0
 30
18.0
 70
   192
  0
VERTEX
  5
E69
  8
KORPUS
 10
982.0
 20
474.0
 30
18.0
 70
   192
  0
VERTEX
  5
E6A
  8
KORPUS
 10
982.0
 20
20.0
 30
0.0
 70
   192
  0
VERTEX
  5
E6B
  8
KORPUS
 10
982.0
 20
474.0
 30
0.0
 70
   192
  0
VERTEX
  5
E6C
  8
KORPUS
 10
982.0
 20
20.0
 30
18.0
 70
   192
  0
VERTEX
  5
E6D
  8
KORPUS
 10
18.0
 20
474.0
 30
18.0
 70
   192
  0
VERTEX
  5
E6E
  8
KORPUS
 10
982.0
 20
474.0
 30
0.0
 70
   192
  0
VERTEX
  5
E6F
  8
KORPUS
 10
18.0
 20
474.0
 30
0.0
 70
   192
  0
VERTEX
  5
E70
  8
KORPUS
 10
982.0
 20
474.0
 30
18.0
 70
   192
  0
VERTEX
  5
E71
  8
KORPUS
 10
18.0
 20
474.0
 30
0.0
 70
   192
  0
VERTEX
  5
E72
  8
KORPUS
 10
982.0
 20
20.0
 30
0.0
 70
   192
  0
VERTEX
  5
E73
  8
KORPUS
 10
18.0
 20
20.0
 30
0.0
 70
   192
  0
VERTEX
  5
E74
  8
KORPUS
 10
982.0
 20
474.0
 30
0.0
 70
   192
  0
VERTEX
  5
E75
  8
KORPUS
 10
18.0
 20
474.0
 30
18.0
 70
   192
  0
VERTEX
  5
E76
  8
KORPUS
 10
982.0
 20
20.0
 30
18.0
 70
   192
  0
VERTEX
  5
E77
  8
KORPUS
 10
982.0
 20
474.0
 30
18.0
 70
   192
  0
VERTEX
  5
E78
  8
KORPUS
 10
18.0
 20
20.0
 30
18.0
 70
   192
  0
VERTEX
  5
E79
  8
KORPUS
 10
0.0
 20
0.0
 30
0.0
 70
   128
 71
     1
 72
     2
 73
     3
  0
VERTEX
  5
E7A
  8
KORPUS
 10
0.0
 20
0.0
 30
0.0
 70
   128
 71
     2
 72
     1
 73
     4
  0
VERTEX
  5
E7B
  8
KORPUS
 10
0.0
 20
0.0
 30
0.0
 70
   128
 71
     5
 72
     6
 73
     7
  0
VERTEX
  5
E7C
  8
KORPUS
 10
0.0
 20
0.0
 30
0.0
 70
   128
 71
     6
 72
     5
 73
     8
  0
VERTEX
  5
E7D
  8
KORPUS
 10
0.0
 20
0.0
 30
0.0
 70
   128
 71
     9
 72
    10
 73
    11
  0
VERTEX
  5
E7E
  8
KORPUS
 10
0.0
 20
0.0
 30
0.0
 70
   128
 71
    10
 72
     9
 73
    12
  0
VERTEX
  5
E7F
  8
KORPUS
 10
0.0
 20
0.0
 30
0.0
 70
   128
 71
    13
 72
    14
 73
    15
  0
VERTEX
  5
E80
  8
KORPUS
 10
0.0
 20
0.0
 30
0.0
 70
   128
 71
    14
 72
    13
 73
    16
  0
VERTEX
  5
E81
  8
KORPUS
 10
0.0
 20
0.0
 30
0.0
 70
   128
 71
    17
 72
    18
 73
    19
  0
VERTEX
  5
E82
  8
KORPUS
 10
0.0
 20
0.0
 30
0.0
 70
   128
 71
    18
 72
    17
 73
    20
  0
VERTEX
  5
E83
  8
KORPUS
 10
0.0
 20
0.0
 30
0.0
 70
   128
 71
    21
 72
    22
 73
    23
  0
VERTEX
  5
E84
  8
KORPUS
 10
0.0
 20
0.0
 30
0.0
 70
   128
 71
    22
 72
    21
 73
    24
  0
SEQEND
  5
E85
  8
KORPUS
  0
POLYLINE
  5
E87
  8
PROFIL
 66
     1
 10
0.0
 20
0.0
 30
0.0
 70
    64
 71
   597
 72
   513
1001
AVE_ENTITY_MATERIAL
1002
{
1000

1002
{
1071
        0
1070
     0
1070
     0
1002
{
1070
     0
1070
     0
1070
     0
1040
0.0
1002
}
1070
     0
1070
     0
1002
{
1002
}
1002
}
1002
{
1002
}
1002
{
1002
}
1011
0.0
1021
0.0
1031
0.0
1021
0.0
1031
0.0
1011
1.0
1021
0.0
1031
0.0
1021
0.0
1031
0.0
1011
0.0
1021
0.0
1031
0.0
1021
1.0
1031
0.0
1011
0.0
1021
0.0
1031
0.0
1021
0.0
1031
1.0
1002
}
  0
VERTEX
  5
E88
  8
PROFIL
 10
982.0
 20
22.499843597412109
 30
293.70004272460937
 70
   192
  0
VERTEX
  5
E89
  8
PROFIL
 10
982.0
 20
22.683891296386719
 30
293.66494750976562
 70
   192
  0
VERTEX
  5
E8A
  8
PROFIL
 10
982.0
 20
22.590824127197269
 30
293.69168090820312
 70
   192
  0
VERTEX
  5
E8B
  8
PROFIL
 10
982.0
 20
43.999843597412102
 30
347.00003051757812
 70
   192
  0
VERTEX
  5
E8C
  8
PROFIL
 10
982.0
 20
43.099845886230469
 30
348.800048828125
 70
   192
  0
VERTEX
  5
E8D
  8
PROFIL
 10
982.0
 20
43.099845886230469
 30
347.00003051757812
 70
   192
  0
VERTEX
  5
E8E
  8
PROFIL
 10
982.0
 20
44.299842834472649
 30
321.050048828125
 70
   192
  0
VERTEX
  5
E8F
  8
PROFIL
 10
982.0
 20
43.849845886230469
 30
317.60003662109381
 70
   192
  0
VERTEX
  5
E90
  8
PROFIL
 10
982.0
 20
44.299842834472649
 30
317.60003662109381
 70
   192
  0
VERTEX
  5
E91
  8
PROFIL
 10
982.0
 20
43.849845886230469
 30
305.60003662109381
 70
   192
  0
VERTEX
  5
E92
  8
PROFIL
 10
982.0
 20
44.299842834472649
 30
304.10003662109369
 70
   192
  0
VERTEX
  5
E93
  8
PROFIL
 10
982.0
 20
44.299842834472649
 30
305.60003662109381
 70
   192
  0
VERTEX
  5
E94
  8
PROFIL
 10
982.0
 20
43.713371276855469
 30
317.612548828125
 70
   192
  0
VERTEX
  5
E95
  8
PROFIL
 10
982.0
 20
43.573772430419922
 30
317.6527099609375
 70
   192
  0
VERTEX
  5
E96
  8
PROFIL
 10
982.0
 20
43.43943786621093
 30
317.7222900390625
 70
   192
  0
VERTEX
  5
E97
  8
PROFIL
 10
982.0
 20
43.319511413574212
 30
317.8197021484375
 70
   192
  0
VERTEX
  5
E98
  8
PROFIL
 10
982.0
 20
43.222099304199219
 30
317.93963623046881
 70
   192
  0
VERTEX
  5
E99
  8
PROFIL
 10
982.0
 20
43.152503967285149
 30
318.073974609375
 70
   192
  0
VERTEX
  5
E9A
  8
PROFIL
 10
982.0
 20
43.11236572265625
 30
318.21356201171869
 70
   192
  0
VERTEX
  5
E9B
  8
PROFIL
 10
982.0
 20
43.099845886230469
 30
318.35003662109381
 70
   192
  0
VERTEX
  5
E9C
  8
PROFIL
 10
982.0
 20
43.099845886230469
 30
320.60003662109369
 70
   192
  0
VERTEX
  5
E9D
  8
PROFIL
 10
982.0
 20
43.713371276855469
 30
305.5875244140625
 70
   192
  0
VERTEX
  5
E9E
  8
PROFIL
 10
982.0
 20
43.573772430419922
 30
305.54739379882812
 70
   192
  0
VERTEX
  5
E9F
  8
PROFIL
 10
982.0
 20
43.43943786621093
 30
305.477783203125
 70
   192
  0
VERTEX
  5
EA0
  8
PROFIL
 10
982.0
 20
43.319511413574212
 30
305.38037109375
 70
   192
  0
VERTEX
  5
EA1
  8
PROFIL
 10
982.0
 20
43.222099304199219
 30
305.26043701171881
 70
   192
  0
VERTEX
  5
EA2
  8
PROFIL
 10
982.0
 20
43.152503967285149
 30
305.1260986328125
 70
   192
  0
VERTEX
  5
EA3
  8
PROFIL
 10
982.0
 20
43.11236572265625
 30
304.98651123046869
 70
   192
  0
VERTEX
  5
EA4
  8
PROFIL
 10
982.0
 20
43.099845886230469
 30
304.85003662109381
 70
   192
  0
VERTEX
  5
EA5
  8
PROFIL
 10
982.0
 20
43.099845886230469
 30
304.10003662109369
 70
   192
  0
VERTEX
  5
EA6
  8
PROFIL
 10
982.0
 20
44.12409591674804
 30
302.02395629882812
 70
   192
  0
VERTEX
  5
EA7
  8
PROFIL
 10
982.0
 20
42.99848556518554
 30
302.60003662109369
 70
   192
  0
VERTEX
  5
EA8
  8
PROFIL
 10
982.0
 20
44.039955139160149
 30
301.7850341796875
 70
   192
  0
VERTEX
  5
EA9
  8
PROFIL
 10
982.0
 20
43.964359283447259
 30
301.67404174804687
 70
   192
  0
VERTEX
  5
EAA
  8
PROFIL
 10
982.0
 20
43.868473052978509
 30
301.57687377929687
 70
   192
  0
VERTEX
  5
EAB
  8
PROFIL
 10
982.0
 20
43.756561279296868
 30
301.49868774414062
 70
   192
  0
VERTEX
  5
EAC
  8
PROFIL
 10
982.0
 20
43.634437561035149
 30
301.44281005859369
 70
   192
  0
VERTEX
  5
EAD
  8
PROFIL
 10
982.0
 20
43.384765625
 30
301.40005493164062
 70
   192
  0
VERTEX
  5
EAE
  8
PROFIL
 10
982.0
 20
39.798408508300781
 30
301.40005493164062
 70
   192
  0
VERTEX
  5
EAF
  8
PROFIL
 10
982.0
 20
40.249843597412102
 30
302.60003662109369
 70
   192
  0
VERTEX
  5
EB0
  8
PROFIL
 10
982.0
 20
44.287322998046868
 30
321.1865234375
 70
   192
  0
VERTEX
  5
EB1
  8
PROFIL
 10
982.0
 20
44.247184753417969
 30
321.32611083984369
 70
   192
  0
VERTEX
  5
EB2
  8
PROFIL
 10
982.0
 20
44.177589416503899
 30
321.46044921875
 70
   192
  0
VERTEX
  5
EB3
  8
PROFIL
 10
982.0
 20
44.080173492431641
 30
321.58038330078131
 70
   192
  0
VERTEX
  5
EB4
  8
PROFIL
 10
982.0
 20
43.960250854492188
 30
321.67779541015631
 70
   192
  0
VERTEX
  5
EB5
  8
PROFIL
 10
982.0
 20
43.82591247558593
 30
321.74737548828131
 70
   192
  0
VERTEX
  5
EB6
  8
PROFIL
 10
982.0
 20
43.686317443847649
 30
321.78753662109369
 70
   192
  0
VERTEX
  5
EB7
  8
PROFIL
 10
982.0
 20
43.549842834472649
 30
321.800048828125
 70
   192
  0
VERTEX
  5
EB8
  8
PROFIL
 10
982.0
 20
40.249843597412102
 30
321.800048828125
 70
   192
  0
VERTEX
  5
EB9
  8
PROFIL
 10
982.0
 20
40.249843597412102
 30
320.60003662109369
 70
   192
  0
VERTEX
  5
EBA
  8
PROFIL
 10
982.0
 20
44.054431915283203
 30
347.00506591796869
 70
   192
  0
VERTEX
  5
EBB
  8
PROFIL
 10
982.0
 20
44.110271453857422
 30
347.0211181640625
 70
   192
  0
VERTEX
  5
EBC
  8
PROFIL
 10
982.0
 20
44.164009094238281
 30
347.0489501953125
 70
   192
  0
VERTEX
  5
EBD
  8
PROFIL
 10
982.0
 20
44.21197509765625
 30
347.08792114257813
 70
   192
  0
VERTEX
  5
EBE
  8
PROFIL
 10
982.0
 20
44.250942230224609
 30
347.1358642578125
 70
   192
  0
VERTEX
  5
EBF
  8
PROFIL
 10
982.0
 20
44.278778076171868
 30
347.18960571289063
 70
   192
  0
VERTEX
  5
EC0
  8
PROFIL
 10
982.0
 20
44.294837951660149
 30
347.24545288085937
 70
   192
  0
VERTEX
  5
EC1
  8
PROFIL
 10
982.0
 20
44.299842834472649
 30
347.300048828125
 70
   192
  0
VERTEX
  5
EC2
  8
PROFIL
 10
982.0
 20
44.299842834472649
 30
349.00003051757812
 70
   192
  0
VERTEX
  5
EC3
  8
PROFIL
 10
982.0
 20
44.283149719238267
 30
349.1820068359375
 70
   192
  0
VERTEX
  5
EC4
  8
PROFIL
 10
982.0
 20
44.229629516601563
 30
349.36813354492187
 70
   192
  0
VERTEX
  5
EC5
  8
PROFIL
 10
982.0
 20
44.1368408203125
 30
349.5472412109375
 70
   192
  0
VERTEX
  5
EC6
  8
PROFIL
 10
982.0
 20
44.006950378417969
 30
349.7071533203125
 70
   192
  0
VERTEX
  5
EC7
  8
PROFIL
 10
982.0
 20
43.847053527832017
 30
349.8370361328125
 70
   192
  0
VERTEX
  5
EC8
  8
PROFIL
 10
982.0
 20
43.667938232421868
 30
349.92984008789062
 70
   192
  0
VERTEX
  5
EC9
  8
PROFIL
 10
982.0
 20
43.481803894042969
 30
349.98333740234381
 70
   192
  0
VERTEX
  5
ECA
  8
PROFIL
 10
982.0
 20
43.299842834472663
 30
350.00003051757813
 70
   192
  0
VERTEX
  5
ECB
  8
PROFIL
 10
982.0
 20
39.14984130859375
 30
350.00003051757813
 70
   192
  0
VERTEX
  5
ECC
  8
PROFIL
 10
982.0
 20
40.249843597412102
 30
348.800048828125
 70
   192
  0
VERTEX
  5
ECD
  8
PROFIL
 10
982.0
 20
39.113449096679688
 30
349.9967041015625
 70
   192
  0
VERTEX
  5
ECE
  8
PROFIL
 10
982.0
 20
39.076225280761719
 30
349.98599243164062
 70
   192
  0
VERTEX
  5
ECF
  8
PROFIL
 10
982.0
 20
39.040401458740241
 30
349.96743774414062
 70
   192
  0
VERTEX
  5
ED0
  8
PROFIL
 10
982.0
 20
39.0084228515625
 30
349.94146728515631
 70
   192
  0
VERTEX
  5
ED1
  8
PROFIL
 10
982.0
 20
38.982444763183587
 30
349.90948486328119
 70
   192
  0
VERTEX
  5
ED2
  8
PROFIL
 10
982.0
 20
38.963886260986328
 30
349.8736572265625
 70
   192
  0
VERTEX
  5
ED3
  8
PROFIL
 10
982.0
 20
38.953182220458991
 30
349.83642578125
 70
   192
  0
VERTEX
  5
ED4
  8
PROFIL
 10
982.0
 20
38.949844360351563
 30
349.800048828125
 70
   192
  0
VERTEX
  5
ED5
  8
PROFIL
 10
982.0
 20
38.949844360351563
 30
304.10003662109369
 70
   192
  0
VERTEX
  5
ED6
  8
PROFIL
 10
982.0
 20
38.832981109619141
 30
302.8262939453125
 70
   192
  0
VERTEX
  5
ED7
  8
PROFIL
 10
982.0
 20
38.458362579345703
 30
301.52337646484381
 70
   192
  0
VERTEX
  5
ED8
  8
PROFIL
 10
982.0
 20
38.638938903808601
 30
299.18618774414062
 70
   192
  0
VERTEX
  5
ED9
  8
PROFIL
 10
982.0
 20
37.808815002441413
 30
300.26956176757812
 70
   192
  0
VERTEX
  5
EDA
  8
PROFIL
 10
982.0
 20
36.899589538574219
 30
299.15029907226562
 70
   192
  0
VERTEX
  5
EDB
  8
PROFIL
 10
982.0
 20
36.7706298828125
 30
297.34356689453131
 70
   192
  0
VERTEX
  5
EDC
  8
PROFIL
 10
982.0
 20
35.780311584472663
 30
298.2410888671875
 70
   192
  0
VERTEX
  5
EDD
  8
PROFIL
 10
982.0
 20
34.420467376708977
 30
296.17626953125
 70
   192
  0
VERTEX
  5
EDE
  8
PROFIL
 10
982.0
 20
34.52650451660157
 30
297.59152221679687
 70
   192
  0
VERTEX
  5
EDF
  8
PROFIL
 10
982.0
 20
33.223583221435547
 30
297.2169189453125
 70
   192
  0
VERTEX
  5
EE0
  8
PROFIL
 10
982.0
 20
31.94984245300293
 30
295.800048828125
 70
   192
  0
VERTEX
  5
EE1
  8
PROFIL
 10
982.0
 20
31.94984245300293
 30
297.10003662109381
 70
   192
  0
VERTEX
  5
EE2
  8
PROFIL
 10
982.0
 20
20.749843597412109
 30
297.10003662109381
 70
   192
  0
VERTEX
  5
EE3
  8
PROFIL
 10
982.0
 20
21.19984245300293
 30
295.800048828125
 70
   192
  0
VERTEX
  5
EE4
  8
PROFIL
 10
982.0
 20
20.613370895385739
 30
297.0875244140625
 70
   192
  0
VERTEX
  5
EE5
  8
PROFIL
 10
982.0
 20
20.473772048950199
 30
297.04739379882812
 70
   192
  0
VERTEX
  5
EE6
  8
PROFIL
 10
982.0
 20
20.339435577392582
 30
296.977783203125
 70
   192
  0
VERTEX
  5
EE7
  8
PROFIL
 10
982.0
 20
20.219512939453129
 30
296.88037109375
 70
   192
  0
VERTEX
  5
EE8
  8
PROFIL
 10
982.0
 20
20.122097015380859
 30
296.76043701171881
 70
   192
  0
VERTEX
  5
EE9
  8
PROFIL
 10
982.0
 20
20.0525016784668
 30
296.6260986328125
 70
   192
  0
VERTEX
  5
EEA
  8
PROFIL
 10
982.0
 20
20.012363433837891
 30
296.48651123046869
 70
   192
  0
VERTEX
  5
EEB
  8
PROFIL
 10
982.0
 20
19.999843597412109
 30
296.35003662109369
 70
   192
  0
VERTEX
  5
EEC
  8
PROFIL
 10
982.0
 20
19.999843597412109
 30
293.25003051757813
 70
   192
  0
VERTEX
  5
EED
  8
PROFIL
 10
982.0
 20
21.19984245300293
 30
293.70004272460937
 70
   192
  0
VERTEX
  5
EEE
  8
PROFIL
 10
982.0
 20
20.012363433837891
 30
293.11355590820312
 70
   192
  0
VERTEX
  5
EEF
  8
PROFIL
 10
982.0
 20
20.0525016784668
 30
292.97396850585937
 70
   192
  0
VERTEX
  5
EF0
  8
PROFIL
 10
982.0
 20
20.122097015380859
 30
292.83963012695312
 70
   192
  0
VERTEX
  5
EF1
  8
PROFIL
 10
982.0
 20
20.219512939453129
 30
292.7197265625
 70
   192
  0
VERTEX
  5
EF2
  8
PROFIL
 10
982.0
 20
20.339435577392582
 30
292.62228393554687
 70
   192
  0
VERTEX
  5
EF3
  8
PROFIL
 10
982.0
 20
20.473772048950199
 30
292.55270385742187
 70
   192
  0
VERTEX
  5
EF4
  8
PROFIL
 10
982.0
 20
20.613370895385739
 30
292.5125732421875
 70
   192
  0
VERTEX
  5
EF5
  8
PROFIL
 10
982.0
 20
20.749843597412109
 30
292.50003051757812
 70
   192
  0
VERTEX
  5
EF6
  8
PROFIL
 10
982.0
 20
22.499843597412109
 30
292.50003051757812
 70
   192
  0
VERTEX
  5
EF7
  8
PROFIL
 10
982.0
 20
22.590824127197269
 30
292.50839233398437
 70
   192
  0
VERTEX
  5
EF8
  8
PROFIL
 10
982.0
 20
22.683891296386719
 30
292.53515625
 70
   192
  0
VERTEX
  5
EF9
  8
PROFIL
 10
982.0
 20
22.773447036743161
 30
292.58154296875
 70
   192
  0
VERTEX
  5
EFA
  8
PROFIL
 10
982.0
 20
22.853395462036129
 30
292.646484375
 70
   192
  0
VERTEX
  5
EFB
  8
PROFIL
 10
982.0
 20
22.918340682983398
 30
292.7264404296875
 70
   192
  0
VERTEX
  5
EFC
  8
PROFIL
 10
982.0
 20
22.964736938476559
 30
292.81600952148437
 70
   192
  0
VERTEX
  5
EFD
  8
PROFIL
 10
982.0
 20
22.991495132446289
 30
292.9090576171875
 70
   192
  0
VERTEX
  5
EFE
  8
PROFIL
 10
982.0
 20
22.999843597412109
 30
293.00003051757812
 70
   192
  0
VERTEX
  5
EFF
  8
PROFIL
 10
982.0
 20
22.999843597412109
 30
293.20004272460937
 70
   192
  0
VERTEX
  5
F00
  8
PROFIL
 10
982.0
 20
22.991495132446289
 30
293.291015625
 70
   192
  0
VERTEX
  5
F01
  8
PROFIL
 10
982.0
 20
22.964736938476559
 30
293.38409423828131
 70
   192
  0
VERTEX
  5
F02
  8
PROFIL
 10
982.0
 20
22.918340682983398
 30
293.4736328125
 70
   192
  0
VERTEX
  5
F03
  8
PROFIL
 10
982.0
 20
22.853395462036129
 30
293.5535888671875
 70
   192
  0
VERTEX
  5
F04
  8
PROFIL
 10
982.0
 20
22.773447036743161
 30
293.6185302734375
 70
   192
  0
VERTEX
  5
F05
  8
PROFIL
 10
18.0
 20
22.5
 30
292.5
 70
   192
  0
VERTEX
  5
F06
  8
PROFIL
 10
18.0
 20
22.684047698974609
 30
292.53509521484381
 70
   192
  0
VERTEX
  5
F07
  8
PROFIL
 10
18.0
 20
22.59098052978516
 30
292.50836181640619
 70
   192
  0
VERTEX
  5
F08
  8
PROFIL
 10
18.000003814697259
 20
44.299999237060547
 30
304.10000610351562
 70
   192
  0
VERTEX
  5
F09
  8
PROFIL
 10
18.000003814697259
 20
43.849998474121087
 30
305.60000610351562
 70
   192
  0
VERTEX
  5
F0A
  8
PROFIL
 10
18.000003814697259
 20
44.299999237060547
 30
305.60000610351562
 70
   192
  0
VERTEX
  5
F0B
  8
PROFIL
 10
18.000001907348629
 20
43.849998474121087
 30
317.60000610351562
 70
   192
  0
VERTEX
  5
F0C
  8
PROFIL
 10
18.000001907348629
 20
44.299999237060547
 30
321.04998779296881
 70
   192
  0
VERTEX
  5
F0D
  8
PROFIL
 10
18.000001907348629
 20
44.299999237060547
 30
317.60000610351562
 70
   192
  0
VERTEX
  5
F0E
  8
PROFIL
 10
18.000001907348629
 20
43.099998474121087
 30
348.79998779296869
 70
   192
  0
VERTEX
  5
F0F
  8
PROFIL
 10
18.000001907348629
 20
44.0
 30
347.0
 70
   192
  0
VERTEX
  5
F10
  8
PROFIL
 10
18.000001907348629
 20
43.099998474121087
 30
347.0
 70
   192
  0
VERTEX
  5
F11
  8
PROFIL
 10
18.000001907348629
 20
43.713527679443359
 30
317.61251831054687
 70
   192
  0
VERTEX
  5
F12
  8
PROFIL
 10
18.000001907348629
 20
43.573928833007813
 30
317.65264892578119
 70
   192
  0
VERTEX
  5
F13
  8
PROFIL
 10
18.000001907348629
 20
43.439590454101563
 30
317.72225952148437
 70
   192
  0
VERTEX
  5
F14
  8
PROFIL
 10
18.000001907348629
 20
43.319671630859368
 30
317.81967163085937
 70
   192
  0
VERTEX
  5
F15
  8
PROFIL
 10
18.000001907348629
 20
43.222251892089837
 30
317.93960571289062
 70
   192
  0
VERTEX
  5
F16
  8
PROFIL
 10
18.000001907348629
 20
43.152656555175781
 30
318.07391357421881
 70
   192
  0
VERTEX
  5
F17
  8
PROFIL
 10
18.000001907348629
 20
43.112518310546868
 30
318.21353149414062
 70
   192
  0
VERTEX
  5
F18
  8
PROFIL
 10
18.000001907348629
 20
43.099998474121087
 30
318.35000610351562
 70
   192
  0
VERTEX
  5
F19
  8
PROFIL
 10
18.000001907348629
 20
43.099998474121087
 30
320.60000610351562
 70
   192
  0
VERTEX
  5
F1A
  8
PROFIL
 10
18.000003814697259
 20
43.713527679443359
 30
305.58746337890631
 70
   192
  0
VERTEX
  5
F1B
  8
PROFIL
 10
18.000003814697259
 20
43.573928833007813
 30
305.54733276367187
 70
   192
  0
VERTEX
  5
F1C
  8
PROFIL
 10
18.000003814697259
 20
43.439590454101563
 30
305.47775268554687
 70
   192
  0
VERTEX
  5
F1D
  8
PROFIL
 10
18.000003814697259
 20
43.319671630859368
 30
305.38034057617187
 70
   192
  0
VERTEX
  5
F1E
  8
PROFIL
 10
18.000003814697259
 20
43.222251892089837
 30
305.26040649414062
 70
   192
  0
VERTEX
  5
F1F
  8
PROFIL
 10
18.000003814697259
 20
43.152656555175781
 30
305.12606811523437
 70
   192
  0
VERTEX
  5
F20
  8
PROFIL
 10
18.000003814697259
 20
43.112518310546868
 30
304.98648071289062
 70
   192
  0
VERTEX
  5
F21
  8
PROFIL
 10
18.000003814697259
 20
43.099998474121087
 30
304.85000610351562
 70
   192
  0
VERTEX
  5
F22
  8
PROFIL
 10
18.000003814697259
 20
43.099998474121087
 30
304.10000610351562
 70
   192
  0
VERTEX
  5
F23
  8
PROFIL
 10
18.000003814697259
 20
44.12425231933593
 30
302.02392578125
 70
   192
  0
VERTEX
  5
F24
  8
PROFIL
 10
18.000003814697259
 20
42.998641967773438
 30
302.60000610351562
 70
   192
  0
VERTEX
  5
F25
  8
PROFIL
 10
18.000003814697259
 20
44.040111541748047
 30
301.78500366210937
 70
   192
  0
VERTEX
  5
F26
  8
PROFIL
 10
18.000003814697259
 20
43.964515686035163
 30
301.67401123046881
 70
   192
  0
VERTEX
  5
F27
  8
PROFIL
 10
18.000003814697259
 20
43.868629455566399
 30
301.57681274414062
 70
   192
  0
VERTEX
  5
F28
  8
PROFIL
 10
18.000003814697259
 20
43.756717681884759
 30
301.49862670898437
 70
   192
  0
VERTEX
  5
F29
  8
PROFIL
 10
18.000003814697259
 20
43.634597778320313
 30
301.44277954101562
 70
   192
  0
VERTEX
  5
F2A
  8
PROFIL
 10
18.000003814697259
 20
43.384925842285149
 30
301.39999389648437
 70
   192
  0
VERTEX
  5
F2B
  8
PROFIL
 10
18.000001907348629
 20
39.798568725585938
 30
301.39999389648437
 70
   192
  0
VERTEX
  5
F2C
  8
PROFIL
 10
18.000001907348629
 20
40.25
 30
302.60000610351562
 70
   192
  0
VERTEX
  5
F2D
  8
PROFIL
 10
18.000001907348629
 20
44.287479400634759
 30
321.18646240234381
 70
   192
  0
VERTEX
  5
F2E
  8
PROFIL
 10
18.000001907348629
 20
44.247341156005852
 30
321.32608032226562
 70
   192
  0
VERTEX
  5
F2F
  8
PROFIL
 10
18.000001907348629
 20
44.177745819091797
 30
321.46041870117187
 70
   192
  0
VERTEX
  5
F30
  8
PROFIL
 10
18.000001907348629
 20
44.080329895019531
 30
321.580322265625
 70
   192
  0
VERTEX
  5
F31
  8
PROFIL
 10
18.000001907348629
 20
43.960407257080071
 30
321.677734375
 70
   192
  0
VERTEX
  5
F32
  8
PROFIL
 10
18.000001907348629
 20
43.826072692871087
 30
321.74734497070312
 70
   192
  0
VERTEX
  5
F33
  8
PROFIL
 10
18.000001907348629
 20
43.686470031738281
 30
321.7874755859375
 70
   192
  0
VERTEX
  5
F34
  8
PROFIL
 10
18.000001907348629
 20
43.549999237060547
 30
321.79998779296869
 70
   192
  0
VERTEX
  5
F35
  8
PROFIL
 10
18.000001907348629
 20
40.25
 30
321.79998779296869
 70
   192
  0
VERTEX
  5
F36
  8
PROFIL
 10
18.000001907348629
 20
40.25
 30
320.60000610351562
 70
   192
  0
VERTEX
  5
F37
  8
PROFIL
 10
18.000001907348629
 20
44.054588317871087
 30
347.0050048828125
 70
   192
  0
VERTEX
  5
F38
  8
PROFIL
 10
18.000001907348629
 20
44.110427856445313
 30
347.02105712890619
 70
   192
  0
VERTEX
  5
F39
  8
PROFIL
 10
18.000001907348629
 20
44.164161682128899
 30
347.04888916015619
 70
   192
  0
VERTEX
  5
F3A
  8
PROFIL
 10
18.000001907348629
 20
44.212131500244141
 30
347.08786010742188
 70
   192
  0
VERTEX
  5
F3B
  8
PROFIL
 10
18.000001907348629
 20
44.2510986328125
 30
347.13583374023437
 70
   192
  0
VERTEX
  5
F3C
  8
PROFIL
 10
18.000001907348629
 20
44.278938293457031
 30
347.1895751953125
 70
   192
  0
VERTEX
  5
F3D
  8
PROFIL
 10
18.000001907348629
 20
44.294990539550781
 30
347.24542236328131
 70
   192
  0
VERTEX
  5
F3E
  8
PROFIL
 10
18.000001907348629
 20
44.299999237060547
 30
347.29998779296881
 70
   192
  0
VERTEX
  5
F3F
  8
PROFIL
 10
18.000001907348629
 20
44.299999237060547
 30
349.0
 70
   192
  0
VERTEX
  5
F40
  8
PROFIL
 10
18.000001907348629
 20
44.283306121826172
 30
349.18197631835937
 70
   192
  0
VERTEX
  5
F41
  8
PROFIL
 10
18.000001907348629
 20
44.229789733886719
 30
349.36810302734381
 70
   192
  0
VERTEX
  5
F42
  8
PROFIL
 10
18.000001907348629
 20
44.136993408203118
 30
349.54721069335938
 70
   192
  0
VERTEX
  5
F43
  8
PROFIL
 10
18.000001907348629
 20
44.007106781005859
 30
349.70709228515631
 70
   192
  0
VERTEX
  5
F44
  8
PROFIL
 10
18.000001907348629
 20
43.847209930419922
 30
349.83700561523438
 70
   192
  0
VERTEX
  5
F45
  8
PROFIL
 10
18.000001907348629
 20
43.668094635009773
 30
349.92977905273437
 70
   192
  0
VERTEX
  5
F46
  8
PROFIL
 10
18.000001907348629
 20
43.481964111328118
 30
349.98330688476562
 70
   192
  0
VERTEX
  5
F47
  8
PROFIL
 10
18.000001907348629
 20
43.29999923706054
 30
350.0
 70
   192
  0
VERTEX
  5
F48
  8
PROFIL
 10
18.0
 20
39.150001525878913
 30
350.0
 70
   192
  0
VERTEX
  5
F49
  8
PROFIL
 10
18.0
 20
40.25
 30
348.79998779296869
 70
   192
  0
VERTEX
  5
F4A
  8
PROFIL
 10
18.0
 20
39.113609313964851
 30
349.99667358398437
 70
   192
  0
VERTEX
  5
F4B
  8
PROFIL
 10
18.0
 20
39.076381683349609
 30
349.9859619140625
 70
   192
  0
VERTEX
  5
F4C
  8
PROFIL
 10
18.0
 20
39.040557861328132
 30
349.9674072265625
 70
   192
  0
VERTEX
  5
F4D
  8
PROFIL
 10
18.0
 20
39.008579254150391
 30
349.94140625
 70
   192
  0
VERTEX
  5
F4E
  8
PROFIL
 10
18.0
 20
38.982601165771477
 30
349.90945434570312
 70
   192
  0
VERTEX
  5
F4F
  8
PROFIL
 10
18.0
 20
38.964042663574219
 30
349.87362670898437
 70
   192
  0
VERTEX
  5
F50
  8
PROFIL
 10
18.0
 20
38.953338623046882
 30
349.83639526367187
 70
   192
  0
VERTEX
  5
F51
  8
PROFIL
 10
18.0
 20
38.950000762939453
 30
349.79998779296881
 70
   192
  0
VERTEX
  5
F52
  8
PROFIL
 10
18.000001907348629
 20
38.950000762939453
 30
304.10000610351562
 70
   192
  0
VERTEX
  5
F53
  8
PROFIL
 10
18.000001907348629
 20
38.833137512207031
 30
302.82626342773437
 70
   192
  0
VERTEX
  5
F54
  8
PROFIL
 10
18.000001907348629
 20
38.458518981933587
 30
301.52334594726562
 70
   192
  0
VERTEX
  5
F55
  8
PROFIL
 10
18.000001907348629
 20
38.639095306396491
 30
299.18612670898437
 70
   192
  0
VERTEX
  5
F56
  8
PROFIL
 10
18.000001907348629
 20
37.808967590332031
 30
300.26953125
 70
   192
  0
VERTEX
  5
F57
  8
PROFIL
 10
18.000001907348629
 20
36.899749755859382
 30
299.15023803710937
 70
   192
  0
VERTEX
  5
F58
  8
PROFIL
 10
18.000001907348629
 20
36.770790100097663
 30
297.34353637695312
 70
   192
  0
VERTEX
  5
F59
  8
PROFIL
 10
18.000001907348629
 20
35.780467987060547
 30
298.24102783203119
 70
   192
  0
VERTEX
  5
F5A
  8
PROFIL
 10
18.000001907348629
 20
34.420623779296868
 30
296.17623901367187
 70
   192
  0
VERTEX
  5
F5B
  8
PROFIL
 10
18.000001907348629
 20
34.526664733886719
 30
297.59149169921869
 70
   192
  0
VERTEX
  5
F5C
  8
PROFIL
 10
18.000001907348629
 20
33.223739624023438
 30
297.21685791015631
 70
   192
  0
VERTEX
  5
F5D
  8
PROFIL
 10
18.000001907348629
 20
31.95000076293946
 30
295.79998779296881
 70
   192
  0
VERTEX
  5
F5E
  8
PROFIL
 10
18.000001907348629
 20
31.95000076293946
 30
297.10000610351562
 70
   192
  0
VERTEX
  5
F5F
  8
PROFIL
 10
18.0
 20
21.20000076293945
 30
295.79998779296881
 70
   192
  0
VERTEX
  5
F60
  8
PROFIL
 10
18.0
 20
20.75
 30
297.10000610351562
 70
   192
  0
VERTEX
  5
F61
  8
PROFIL
 10
18.0
 20
20.613527297973629
 30
297.08749389648438
 70
   192
  0
VERTEX
  5
F62
  8
PROFIL
 10
18.0
 20
20.473928451538089
 30
297.04733276367187
 70
   192
  0
VERTEX
  5
F63
  8
PROFIL
 10
18.0
 20
20.339591979980469
 30
296.97775268554687
 70
   192
  0
VERTEX
  5
F64
  8
PROFIL
 10
18.0
 20
20.219669342041019
 30
296.88034057617187
 70
   192
  0
VERTEX
  5
F65
  8
PROFIL
 10
18.0
 20
20.12225341796875
 30
296.76040649414062
 70
   192
  0
VERTEX
  5
F66
  8
PROFIL
 10
18.0
 20
20.052658081054691
 30
296.62606811523437
 70
   192
  0
VERTEX
  5
F67
  8
PROFIL
 10
18.0
 20
20.012521743774411
 30
296.48648071289062
 70
   192
  0
VERTEX
  5
F68
  8
PROFIL
 10
18.0
 20
20.0
 30
296.35000610351562
 70
   192
  0
VERTEX
  5
F69
  8
PROFIL
 10
18.0
 20
20.0
 30
293.25
 70
   192
  0
VERTEX
  5
F6A
  8
PROFIL
 10
18.0
 20
21.20000076293945
 30
293.70001220703119
 70
   192
  0
VERTEX
  5
F6B
  8
PROFIL
 10
18.0
 20
20.012521743774411
 30
293.113525390625
 70
   192
  0
VERTEX
  5
F6C
  8
PROFIL
 10
18.0
 20
20.052658081054691
 30
292.97393798828119
 70
   192
  0
VERTEX
  5
F6D
  8
PROFIL
 10
18.0
 20
20.12225341796875
 30
292.839599609375
 70
   192
  0
VERTEX
  5
F6E
  8
PROFIL
 10
18.0
 20
20.219669342041019
 30
292.71966552734369
 70
   192
  0
VERTEX
  5
F6F
  8
PROFIL
 10
18.0
 20
20.339591979980469
 30
292.62225341796881
 70
   192
  0
VERTEX
  5
F70
  8
PROFIL
 10
18.0
 20
20.473928451538089
 30
292.55267333984381
 70
   192
  0
VERTEX
  5
F71
  8
PROFIL
 10
18.0
 20
20.613527297973629
 30
292.51251220703119
 70
   192
  0
VERTEX
  5
F72
  8
PROFIL
 10
18.0
 20
20.75
 30
292.5
 70
   192
  0
VERTEX
  5
F73
  8
PROFIL
 10
18.0
 20
22.5
 30
293.70001220703119
 70
   192
  0
VERTEX
  5
F74
  8
PROFIL
 10
18.0
 20
22.59098052978516
 30
293.691650390625
 70
   192
  0
VERTEX
  5
F75
  8
PROFIL
 10
18.0
 20
22.684047698974609
 30
293.66488647460937
 70
   192
  0
VERTEX
  5
F76
  8
PROFIL
 10
18.0
 20
22.773605346679691
 30
293.61849975585937
 70
   192
  0
VERTEX
  5
F77
  8
PROFIL
 10
18.0
 20
22.85355377197266
 30
293.55355834960937
 70
   192
  0
VERTEX
  5
F78
  8
PROFIL
 10
18.0
 20
22.918497085571289
 30
293.47360229492187
 70
   192
  0
VERTEX
  5
F79
  8
PROFIL
 10
18.0
 20
22.96489334106445
 30
293.384033203125
 70
   192
  0
VERTEX
  5
F7A
  8
PROFIL
 10
18.0
 20
22.991653442382809
 30
293.29098510742187
 70
   192
  0
VERTEX
  5
F7B
  8
PROFIL
 10
18.0
 20
23.0
 30
293.20001220703119
 70
   192
  0
VERTEX
  5
F7C
  8
PROFIL
 10
18.0
 20
23.0
 30
293.0
 70
   192
  0
VERTEX
  5
F7D
  8
PROFIL
 10
18.0
 20
22.991653442382809
 30
292.90902709960938
 70
   192
  0
VERTEX
  5
F7E
  8
PROFIL
 10
18.0
 20
22.96489334106445
 30
292.81594848632812
 70
   192
  0
VERTEX
  5
F7F
  8
PROFIL
 10
18.0
 20
22.918497085571289
 30
292.72640991210937
 70
   192
  0
VERTEX
  5
F80
  8
PROFIL
 10
18.0
 20
22.85355377197266
 30
292.64645385742187
 70
   192
  0
VERTEX
  5
F81
  8
PROFIL
 10
18.0
 20
22.773605346679691
 30
292.58151245117187
 70
   192
  0
VERTEX
  5
F82
  8
PROFIL
 10
982.0
 20
43.999843597412102
 30
347.00003051757812
 70
   192
  0
VERTEX
  5
F83
  8
PROFIL
 10
18.000001907348629
 20
43.099998474121087
 30
347.0
 70
   192
  0
VERTEX
  5
F84
  8
PROFIL
 10
18.000001907348629
 20
44.0
 30
347.0
 70
   192
  0
VERTEX
  5
F85
  8
PROFIL
 10
982.0
 20
43.099845886230469
 30
347.00003051757812
 70
   192
  0
VERTEX
  5
F86
  8
PROFIL
 10
982.0
 20
43.099845886230469
 30
347.00003051757812
 70
   192
  0
VERTEX
  5
F87
  8
PROFIL
 10
18.000001907348629
 20
43.099998474121087
 30
348.79998779296869
 70
   192
  0
VERTEX
  5
F88
  8
PROFIL
 10
18.000001907348629
 20
43.099998474121087
 30
347.0
 70
   192
  0
VERTEX
  5
F89
  8
PROFIL
 10
982.0
 20
43.099845886230469
 30
348.800048828125
 70
   192
  0
VERTEX
  5
F8A
  8
PROFIL
 10
982.0
 20
43.099845886230469
 30
348.800048828125
 70
   192
  0
VERTEX
  5
F8B
  8
PROFIL
 10
18.0
 20
40.25
 30
348.79998779296869
 70
   192
  0
VERTEX
  5
F8C
  8
PROFIL
 10
18.000001907348629
 20
43.099998474121087
 30
348.79998779296869
 70
   192
  0
VERTEX
  5
F8D
  8
PROFIL
 10
982.0
 20
40.249843597412102
 30
348.800048828125
 70
   192
  0
VERTEX
  5
F8E
  8
PROFIL
 10
18.0
 20
40.25
 30
348.79998779296869
 70
   192
  0
VERTEX
  5
F8F
  8
PROFIL
 10
982.0
 20
40.249843597412102
 30
321.800048828125
 70
   192
  0
VERTEX
  5
F90
  8
PROFIL
 10
18.000001907348629
 20
40.25
 30
321.79998779296869
 70
   192
  0
VERTEX
  5
F91
  8
PROFIL
 10
982.0
 20
40.249843597412102
 30
348.800048828125
 70
   192
  0
VERTEX
  5
F92
  8
PROFIL
 10
982.0
 20
40.249843597412102
 30
321.800048828125
 70
   192
  0
VERTEX
  5
F93
  8
PROFIL
 10
18.000001907348629
 20
43.549999237060547
 30
321.79998779296869
 70
   192
  0
VERTEX
  5
F94
  8
PROFIL
 10
18.000001907348629
 20
40.25
 30
321.79998779296869
 70
   192
  0
VERTEX
  5
F95
  8
PROFIL
 10
982.0
 20
43.549842834472649
 30
321.800048828125
 70
   192
  0
VERTEX
  5
F96
  8
PROFIL
 10
18.000001907348629
 20
44.287479400634759
 30
321.18646240234381
 70
   192
  0
VERTEX
  5
F97
  8
PROFIL
 10
982.0
 20
44.299842834472649
 30
321.050048828125
 70
   192
  0
VERTEX
  5
F98
  8
PROFIL
 10
18.000001907348629
 20
44.299999237060547
 30
321.04998779296881
 70
   192
  0
VERTEX
  5
F99
  8
PROFIL
 10
982.0
 20
43.686317443847649
 30
321.78753662109369
 70
   192
  0
VERTEX
  5
F9A
  8
PROFIL
 10
18.000001907348629
 20
43.549999237060547
 30
321.79998779296869
 70
   192
  0
VERTEX
  5
F9B
  8
PROFIL
 10
982.0
 20
43.549842834472649
 30
321.800048828125
 70
   192
  0
VERTEX
  5
F9C
  8
PROFIL
 10
18.000001907348629
 20
43.686470031738281
 30
321.7874755859375
 70
   192
  0
VERTEX
  5
F9D
  8
PROFIL
 10
982.0
 20
43.82591247558593
 30
321.74737548828131
 70
   192
  0
VERTEX
  5
F9E
  8
PROFIL
 10
18.000001907348629
 20
43.826072692871087
 30
321.74734497070312
 70
   192
  0
VERTEX
  5
F9F
  8
PROFIL
 10
982.0
 20
43.960250854492188
 30
321.67779541015631
 70
   192
  0
VERTEX
  5
FA0
  8
PROFIL
 10
18.000001907348629
 20
43.960407257080071
 30
321.677734375
 70
   192
  0
VERTEX
  5
FA1
  8
PROFIL
 10
982.0
 20
44.080173492431641
 30
321.58038330078131
 70
   192
  0
VERTEX
  5
FA2
  8
PROFIL
 10
18.000001907348629
 20
44.080329895019531
 30
321.580322265625
 70
   192
  0
VERTEX
  5
FA3
  8
PROFIL
 10
982.0
 20
44.177589416503899
 30
321.46044921875
 70
   192
  0
VERTEX
  5
FA4
  8
PROFIL
 10
18.000001907348629
 20
44.177745819091797
 30
321.46041870117187
 70
   192
  0
VERTEX
  5
FA5
  8
PROFIL
 10
982.0
 20
44.247184753417969
 30
321.32611083984369
 70
   192
  0
VERTEX
  5
FA6
  8
PROFIL
 10
18.000001907348629
 20
44.247341156005852
 30
321.32608032226562
 70
   192
  0
VERTEX
  5
FA7
  8
PROFIL
 10
982.0
 20
44.287322998046868
 30
321.1865234375
 70
   192
  0
VERTEX
  5
FA8
  8
PROFIL
 10
982.0
 20
44.299842834472649
 30
321.050048828125
 70
   192
  0
VERTEX
  5
FA9
  8
PROFIL
 10
18.000001907348629
 20
44.299999237060547
 30
317.60000610351562
 70
   192
  0
VERTEX
  5
FAA
  8
PROFIL
 10
18.000001907348629
 20
44.299999237060547
 30
321.04998779296881
 70
   192
  0
VERTEX
  5
FAB
  8
PROFIL
 10
982.0
 20
44.299842834472649
 30
317.60003662109381
 70
   192
  0
VERTEX
  5
FAC
  8
PROFIL
 10
982.0
 20
44.299842834472649
 30
317.60003662109381
 70
   192
  0
VERTEX
  5
FAD
  8
PROFIL
 10
18.000001907348629
 20
43.849998474121087
 30
317.60000610351562
 70
   192
  0
VERTEX
  5
FAE
  8
PROFIL
 10
18.000001907348629
 20
44.299999237060547
 30
317.60000610351562
 70
   192
  0
VERTEX
  5
FAF
  8
PROFIL
 10
982.0
 20
43.849845886230469
 30
317.60003662109381
 70
   192
  0
VERTEX
  5
FB0
  8
PROFIL
 10
982.0
 20
43.849845886230469
 30
317.60003662109381
 70
   192
  0
VERTEX
  5
FB1
  8
PROFIL
 10
18.000001907348629
 20
43.713527679443359
 30
317.61251831054687
 70
   192
  0
VERTEX
  5
FB2
  8
PROFIL
 10
18.000001907348629
 20
43.849998474121087
 30
317.60000610351562
 70
   192
  0
VERTEX
  5
FB3
  8
PROFIL
 10
18.000001907348629
 20
43.099998474121087
 30
318.35000610351562
 70
   192
  0
VERTEX
  5
FB4
  8
PROFIL
 10
982.0
 20
43.11236572265625
 30
318.21356201171869
 70
   192
  0
VERTEX
  5
FB5
  8
PROFIL
 10
982.0
 20
43.099845886230469
 30
318.35003662109381
 70
   192
  0
VERTEX
  5
FB6
  8
PROFIL
 10
18.000001907348629
 20
43.112518310546868
 30
318.21353149414062
 70
   192
  0
VERTEX
  5
FB7
  8
PROFIL
 10
982.0
 20
43.152503967285149
 30
318.073974609375
 70
   192
  0
VERTEX
  5
FB8
  8
PROFIL
 10
18.000001907348629
 20
43.152656555175781
 30
318.07391357421881
 70
   192
  0
VERTEX
  5
FB9
  8
PROFIL
 10
982.0
 20
43.222099304199219
 30
317.93963623046881
 70
   192
  0
VERTEX
  5
FBA
  8
PROFIL
 10
18.000001907348629
 20
43.222251892089837
 30
317.93960571289062
 70
   192
  0
VERTEX
  5
FBB
  8
PROFIL
 10
18.000001907348629
 20
43.319671630859368
 30
317.81967163085937
 70
   192
  0
VERTEX
  5
FBC
  8
PROFIL
 10
982.0
 20
43.319511413574212
 30
317.8197021484375
 70
   192
  0
VERTEX
  5
FBD
  8
PROFIL
 10
982.0
 20
43.43943786621093
 30
317.7222900390625
 70
   192
  0
VERTEX
  5
FBE
  8
PROFIL
 10
18.000001907348629
 20
43.439590454101563
 30
317.72225952148437
 70
   192
  0
VERTEX
  5
FBF
  8
PROFIL
 10
982.0
 20
43.573772430419922
 30
317.6527099609375
 70
   192
  0
VERTEX
  5
FC0
  8
PROFIL
 10
18.000001907348629
 20
43.573928833007813
 30
317.65264892578119
 70
   192
  0
VERTEX
  5
FC1
  8
PROFIL
 10
982.0
 20
43.713371276855469
 30
317.612548828125
 70
   192
  0
VERTEX
  5
FC2
  8
PROFIL
 10
982.0
 20
43.099845886230469
 30
318.35003662109381
 70
   192
  0
VERTEX
  5
FC3
  8
PROFIL
 10
18.000001907348629
 20
43.099998474121087
 30
320.60000610351562
 70
   192
  0
VERTEX
  5
FC4
  8
PROFIL
 10
18.000001907348629
 20
43.099998474121087
 30
318.35000610351562
 70
   192
  0
VERTEX
  5
FC5
  8
PROFIL
 10
982.0
 20
43.099845886230469
 30
320.60003662109369
 70
   192
  0
VERTEX
  5
FC6
  8
PROFIL
 10
982.0
 20
43.099845886230469
 30
320.60003662109369
 70
   192
  0
VERTEX
  5
FC7
  8
PROFIL
 10
18.000001907348629
 20
40.25
 30
320.60000610351562
 70
   192
  0
VERTEX
  5
FC8
  8
PROFIL
 10
18.000001907348629
 20
43.099998474121087
 30
320.60000610351562
 70
   192
  0
VERTEX
  5
FC9
  8
PROFIL
 10
982.0
 20
40.249843597412102
 30
320.60003662109369
 70
   192
  0
VERTEX
  5
FCA
  8
PROFIL
 10
982.0
 20
40.249843597412102
 30
320.60003662109369
 70
   192
  0
VERTEX
  5
FCB
  8
PROFIL
 10
18.000001907348629
 20
40.25
 30
302.60000610351562
 70
   192
  0
VERTEX
  5
FCC
  8
PROFIL
 10
18.000001907348629
 20
40.25
 30
320.60000610351562
 70
   192
  0
VERTEX
  5
FCD
  8
PROFIL
 10
982.0
 20
40.249843597412102
 30
302.60003662109369
 70
   192
  0
VERTEX
  5
FCE
  8
PROFIL
 10
982.0
 20
40.249843597412102
 30
302.60003662109369
 70
   192
  0
VERTEX
  5
FCF
  8
PROFIL
 10
18.000003814697259
 20
42.998641967773438
 30
302.60000610351562
 70
   192
  0
VERTEX
  5
FD0
  8
PROFIL
 10
18.000001907348629
 20
40.25
 30
302.60000610351562
 70
   192
  0
VERTEX
  5
FD1
  8
PROFIL
 10
982.0
 20
42.99848556518554
 30
302.60003662109369
 70
   192
  0
VERTEX
  5
FD2
  8
PROFIL
 10
982.0
 20
42.99848556518554
 30
302.60003662109369
 70
   192
  0
VERTEX
  5
FD3
  8
PROFIL
 10
18.000003814697259
 20
43.074630737304688
 30
303.34829711914062
 70
   192
  0
VERTEX
  5
FD4
  8
PROFIL
 10
18.000003814697259
 20
42.998641967773438
 30
302.60000610351562
 70
   192
  0
VERTEX
  5
FD5
  8
PROFIL
 10
18.000003814697259
 20
43.099998474121087
 30
304.10000610351562
 70
   192
  0
VERTEX
  5
FD6
  8
PROFIL
 10
982.0
 20
43.074478149414063
 30
303.34832763671881
 70
   192
  0
VERTEX
  5
FD7
  8
PROFIL
 10
982.0
 20
43.099845886230469
 30
304.10003662109369
 70
   192
  0
VERTEX
  5
FD8
  8
PROFIL
 10
982.0
 20
43.099845886230469
 30
304.10003662109369
 70
   192
  0
VERTEX
  5
FD9
  8
PROFIL
 10
18.000003814697259
 20
43.099998474121087
 30
304.85000610351562
 70
   192
  0
VERTEX
  5
FDA
  8
PROFIL
 10
18.000003814697259
 20
43.099998474121087
 30
304.10000610351562
 70
   192
  0
VERTEX
  5
FDB
  8
PROFIL
 10
982.0
 20
43.099845886230469
 30
304.85003662109381
 70
   192
  0
VERTEX
  5
FDC
  8
PROFIL
 10
18.000003814697259
 20
43.713527679443359
 30
305.58746337890631
 70
   192
  0
VERTEX
  5
FDD
  8
PROFIL
 10
982.0
 20
43.849845886230469
 30
305.60003662109381
 70
   192
  0
VERTEX
  5
FDE
  8
PROFIL
 10
18.000003814697259
 20
43.849998474121087
 30
305.60000610351562
 70
   192
  0
VERTEX
  5
FDF
  8
PROFIL
 10
982.0
 20
43.11236572265625
 30
304.98651123046869
 70
   192
  0
VERTEX
  5
FE0
  8
PROFIL
 10
18.000003814697259
 20
43.099998474121087
 30
304.85000610351562
 70
   192
  0
VERTEX
  5
FE1
  8
PROFIL
 10
982.0
 20
43.099845886230469
 30
304.85003662109381
 70
   192
  0
VERTEX
  5
FE2
  8
PROFIL
 10
18.000003814697259
 20
43.112518310546868
 30
304.98648071289062
 70
   192
  0
VERTEX
  5
FE3
  8
PROFIL
 10
982.0
 20
43.152503967285149
 30
305.1260986328125
 70
   192
  0
VERTEX
  5
FE4
  8
PROFIL
 10
18.000003814697259
 20
43.152656555175781
 30
305.12606811523437
 70
   192
  0
VERTEX
  5
FE5
  8
PROFIL
 10
982.0
 20
43.222099304199219
 30
305.26043701171881
 70
   192
  0
VERTEX
  5
FE6
  8
PROFIL
 10
18.000003814697259
 20
43.222251892089837
 30
305.26040649414062
 70
   192
  0
VERTEX
  5
FE7
  8
PROFIL
 10
982.0
 20
43.319511413574212
 30
305.38037109375
 70
   192
  0
VERTEX
  5
FE8
  8
PROFIL
 10
18.000003814697259
 20
43.319671630859368
 30
305.38034057617187
 70
   192
  0
VERTEX
  5
FE9
  8
PROFIL
 10
982.0
 20
43.43943786621093
 30
305.477783203125
 70
   192
  0
VERTEX
  5
FEA
  8
PROFIL
 10
18.000003814697259
 20
43.439590454101563
 30
305.47775268554687
 70
   192
  0
VERTEX
  5
FEB
  8
PROFIL
 10
982.0
 20
43.573772430419922
 30
305.54739379882812
 70
   192
  0
VERTEX
  5
FEC
  8
PROFIL
 10
18.000003814697259
 20
43.573928833007813
 30
305.54733276367187
 70
   192
  0
VERTEX
  5
FED
  8
PROFIL
 10
982.0
 20
43.713371276855469
 30
305.5875244140625
 70
   192
  0
VERTEX
  5
FEE
  8
PROFIL
 10
982.0
 20
43.849845886230469
 30
305.60003662109381
 70
   192
  0
VERTEX
  5
FEF
  8
PROFIL
 10
18.000003814697259
 20
44.299999237060547
 30
305.60000610351562
 70
   192
  0
VERTEX
  5
FF0
  8
PROFIL
 10
18.000003814697259
 20
43.849998474121087
 30
305.60000610351562
 70
   192
  0
VERTEX
  5
FF1
  8
PROFIL
 10
982.0
 20
44.299842834472649
 30
305.60003662109381
 70
   192
  0
VERTEX
  5
FF2
  8
PROFIL
 10
982.0
 20
44.299842834472649
 30
305.60003662109381
 70
   192
  0
VERTEX
  5
FF3
  8
PROFIL
 10
18.000003814697259
 20
44.299999237060547
 30
304.10000610351562
 70
   192
  0
VERTEX
  5
FF4
  8
PROFIL
 10
18.000003814697259
 20
44.299999237060547
 30
305.60000610351562
 70
   192
  0
VERTEX
  5
FF5
  8
PROFIL
 10
982.0
 20
44.299842834472649
 30
304.10003662109369
 70
   192
  0
VERTEX
  5
FF6
  8
PROFIL
 10
982.0
 20
44.299842834472649
 30
304.10003662109369
 70
   192
  0
VERTEX
  5
FF7
  8
PROFIL
 10
18.000003814697259
 20
44.255985260009759
 30
303.05825805664062
 70
   192
  0
VERTEX
  5
FF8
  8
PROFIL
 10
18.000003814697259
 20
44.299999237060547
 30
304.10000610351562
 70
   192
  0
VERTEX
  5
FF9
  8
PROFIL
 10
18.000003814697259
 20
44.12425231933593
 30
302.02392578125
 70
   192
  0
VERTEX
  5
FFA
  8
PROFIL
 10
982.0
 20
44.255828857421868
 30
303.05828857421869
 70
   192
  0
VERTEX
  5
FFB
  8
PROFIL
 10
982.0
 20
44.12409591674804
 30
302.02395629882812
 70
   192
  0
VERTEX
  5
FFC
  8
PROFIL
 10
982.0
 20
44.12409591674804
 30
302.02395629882812
 70
   192
  0
VERTEX
  5
FFD
  8
PROFIL
 10
18.000003814697259
 20
44.106292724609368
 30
301.94476318359381
 70
   192
  0
VERTEX
  5
FFE
  8
PROFIL
 10
18.000003814697259
 20
44.12425231933593
 30
302.02392578125
 70
   192
  0
VERTEX
  5
FFF
  8
PROFIL
 10
18.000003814697259
 20
43.384925842285149
 30
301.39999389648437
 70
   192
  0
VERTEX
  5
1000
  8
PROFIL
 10
982.0
 20
43.465827941894531
 30
301.40444946289062
 70
   192
  0
VERTEX
  5
1001
  8
PROFIL
 10
982.0
 20
43.384765625
 30
301.40005493164062
 70
   192
  0
VERTEX
  5
1002
  8
PROFIL
 10
18.000003814697259
 20
43.465984344482422
 30
301.40438842773437
 70
   192
  0
VERTEX
  5
1003
  8
PROFIL
 10
982.0
 20
43.605937957763672
 30
301.43338012695312
 70
   192
  0
VERTEX
  5
1004
  8
PROFIL
 10
18.000003814697259
 20
43.606094360351562
 30
301.433349609375
 70
   192
  0
VERTEX
  5
1005
  8
PROFIL
 10
982.0
 20
43.74308776855468
 30
301.49118041992187
 70
   192
  0
VERTEX
  5
1006
  8
PROFIL
 10
18.000003814697259
 20
43.743240356445313
 30
301.49111938476562
 70
   192
  0
VERTEX
  5
1007
  8
PROFIL
 10
982.0
 20
43.868473052978509
 30
301.57687377929687
 70
   192
  0
VERTEX
  5
1008
  8
PROFIL
 10
18.000003814697259
 20
43.868629455566399
 30
301.57681274414062
 70
   192
  0
VERTEX
  5
1009
  8
PROFIL
 10
982.0
 20
43.974029541015618
 30
301.68606567382812
 70
   192
  0
VERTEX
  5
100A
  8
PROFIL
 10
18.000003814697259
 20
43.97418212890625
 30
301.68603515625
 70
   192
  0
VERTEX
  5
100B
  8
PROFIL
 10
982.0
 20
44.054039001464837
 30
301.81155395507812
 70
   192
  0
VERTEX
  5
100C
  8
PROFIL
 10
18.000003814697259
 20
44.054195404052727
 30
301.81149291992187
 70
   192
  0
VERTEX
  5
100D
  8
PROFIL
 10
982.0
 20
44.10614013671875
 30
301.94479370117187
 70
   192
  0
VERTEX
  5
100E
  8
PROFIL
 10
982.0
 20
43.384765625
 30
301.40005493164062
 70
   192
  0
VERTEX
  5
100F
  8
PROFIL
 10
18.000001907348629
 20
39.798568725585938
 30
301.39999389648437
 70
   192
  0
VERTEX
  5
1010
  8
PROFIL
 10
18.000003814697259
 20
43.384925842285149
 30
301.39999389648437
 70
   192
  0
VERTEX
  5
1011
  8
PROFIL
 10
982.0
 20
39.798408508300781
 30
301.40005493164062
 70
   192
  0
VERTEX
  5
1012
  8
PROFIL
 10
18.000001907348629
 20
35.46087646484375
 30
296.5791015625
 70
   192
  0
VERTEX
  5
1013
  8
PROFIL
 10
982.0
 20
33.94512939453125
 30
296.04342651367187
 70
   192
  0
VERTEX
  5
1014
  8
PROFIL
 10
18.000001907348629
 20
33.945289611816413
 30
296.04339599609369
 70
   192
  0
VERTEX
  5
1015
  8
PROFIL
 10
18.000001907348629
 20
31.95000076293946
 30
295.79998779296881
 70
   192
  0
VERTEX
  5
1016
  8
PROFIL
 10
982.0
 20
32.287609100341797
 30
295.80691528320312
 70
   192
  0
VERTEX
  5
1017
  8
PROFIL
 10
982.0
 20
31.94984245300293
 30
295.800048828125
 70
   192
  0
VERTEX
  5
1018
  8
PROFIL
 10
18.000001907348629
 20
32.287765502929688
 30
295.806884765625
 70
   192
  0
VERTEX
  5
1019
  8
PROFIL
 10
982.0
 20
39.682033538818359
 30
301.0828857421875
 70
   192
  0
VERTEX
  5
101A
  8
PROFIL
 10
18.000001907348629
 20
39.798568725585938
 30
301.39999389648437
 70
   192
  0
VERTEX
  5
101B
  8
PROFIL
 10
982.0
 20
39.798408508300781
 30
301.40005493164062
 70
   192
  0
VERTEX
  5
101C
  8
PROFIL
 10
18.000001907348629
 20
39.68218994140625
 30
301.08282470703131
 70
   192
  0
VERTEX
  5
101D
  8
PROFIL
 10
982.0
 20
38.919181823730469
 30
299.59246826171881
 70
   192
  0
VERTEX
  5
101E
  8
PROFIL
 10
18.000001907348629
 20
38.919334411621087
 30
299.5924072265625
 70
   192
  0
VERTEX
  5
101F
  8
PROFIL
 10
982.0
 20
37.919578552246087
 30
298.33355712890619
 70
   192
  0
VERTEX
  5
1020
  8
PROFIL
 10
18.000001907348629
 20
37.91973876953125
 30
298.33352661132812
 70
   192
  0
VERTEX
  5
1021
  8
PROFIL
 10
982.0
 20
36.7706298828125
 30
297.34356689453131
 70
   192
  0
VERTEX
  5
1022
  8
PROFIL
 10
18.000001907348629
 20
36.770790100097663
 30
297.34353637695312
 70
   192
  0
VERTEX
  5
1023
  8
PROFIL
 10
982.0
 20
35.460720062255859
 30
296.57916259765619
 70
   192
  0
VERTEX
  5
1024
  8
PROFIL
 10
982.0
 20
31.94984245300293
 30
295.800048828125
 70
   192
  0
VERTEX
  5
1025
  8
PROFIL
 10
18.0
 20
21.20000076293945
 30
295.79998779296881
 70
   192
  0
VERTEX
  5
1026
  8
PROFIL
 10
18.000001907348629
 20
31.95000076293946
 30
295.79998779296881
 70
   192
  0
VERTEX
  5
1027
  8
PROFIL
 10
982.0
 20
21.19984245300293
 30
295.800048828125
 70
   192
  0
VERTEX
  5
1028
  8
PROFIL
 10
982.0
 20
21.19984245300293
 30
295.800048828125
 70
   192
  0
VERTEX
  5
1029
  8
PROFIL
 10
18.0
 20
21.20000076293945
 30
293.70001220703119
 70
   192
  0
VERTEX
  5
102A
  8
PROFIL
 10
18.0
 20
21.20000076293945
 30
295.79998779296881
 70
   192
  0
VERTEX
  5
102B
  8
PROFIL
 10
982.0
 20
21.19984245300293
 30
293.70004272460937
 70
   192
  0
VERTEX
  5
102C
  8
PROFIL
 10
982.0
 20
21.19984245300293
 30
293.70004272460937
 70
   192
  0
VERTEX
  5
102D
  8
PROFIL
 10
18.0
 20
22.5
 30
293.70001220703119
 70
   192
  0
VERTEX
  5
102E
  8
PROFIL
 10
18.0
 20
21.20000076293945
 30
293.70001220703119
 70
   192
  0
VERTEX
  5
102F
  8
PROFIL
 10
982.0
 20
22.499843597412109
 30
293.70004272460937
 70
   192
  0
VERTEX
  5
1030
  8
PROFIL
 10
982.0
 20
22.590824127197269
 30
293.69168090820312
 70
   192
  0
VERTEX
  5
1031
  8
PROFIL
 10
18.0
 20
22.5
 30
293.70001220703119
 70
   192
  0
VERTEX
  5
1032
  8
PROFIL
 10
982.0
 20
22.499843597412109
 30
293.70004272460937
 70
   192
  0
VERTEX
  5
1033
  8
PROFIL
 10
18.0
 20
22.991653442382809
 30
293.29098510742187
 70
   192
  0
VERTEX
  5
1034
  8
PROFIL
 10
982.0
 20
22.999843597412109
 30
293.20004272460937
 70
   192
  0
VERTEX
  5
1035
  8
PROFIL
 10
18.0
 20
23.0
 30
293.20001220703119
 70
   192
  0
VERTEX
  5
1036
  8
PROFIL
 10
982.0
 20
22.991495132446289
 30
293.291015625
 70
   192
  0
VERTEX
  5
1037
  8
PROFIL
 10
18.0
 20
22.96489334106445
 30
293.384033203125
 70
   192
  0
VERTEX
  5
1038
  8
PROFIL
 10
982.0
 20
22.964736938476559
 30
293.38409423828131
 70
   192
  0
VERTEX
  5
1039
  8
PROFIL
 10
18.0
 20
22.918497085571289
 30
293.47360229492187
 70
   192
  0
VERTEX
  5
103A
  8
PROFIL
 10
982.0
 20
22.918340682983398
 30
293.4736328125
 70
   192
  0
VERTEX
  5
103B
  8
PROFIL
 10
18.0
 20
22.85355377197266
 30
293.55355834960937
 70
   192
  0
VERTEX
  5
103C
  8
PROFIL
 10
982.0
 20
22.853395462036129
 30
293.5535888671875
 70
   192
  0
VERTEX
  5
103D
  8
PROFIL
 10
18.0
 20
22.773605346679691
 30
293.61849975585937
 70
   192
  0
VERTEX
  5
103E
  8
PROFIL
 10
982.0
 20
22.773447036743161
 30
293.6185302734375
 70
   192
  0
VERTEX
  5
103F
  8
PROFIL
 10
18.0
 20
22.684047698974609
 30
293.66488647460937
 70
   192
  0
VERTEX
  5
1040
  8
PROFIL
 10
982.0
 20
22.683891296386719
 30
293.66494750976562
 70
   192
  0
VERTEX
  5
1041
  8
PROFIL
 10
18.0
 20
22.59098052978516
 30
293.691650390625
 70
   192
  0
VERTEX
  5
1042
  8
PROFIL
 10
982.0
 20
22.999843597412109
 30
293.20004272460937
 70
   192
  0
VERTEX
  5
1043
  8
PROFIL
 10
18.0
 20
23.0
 30
293.0
 70
   192
  0
VERTEX
  5
1044
  8
PROFIL
 10
18.0
 20
23.0
 30
293.20001220703119
 70
   192
  0
VERTEX
  5
1045
  8
PROFIL
 10
982.0
 20
22.999843597412109
 30
293.00003051757812
 70
   192
  0
VERTEX
  5
1046
  8
PROFIL
 10
982.0
 20
22.991495132446289
 30
292.9090576171875
 70
   192
  0
VERTEX
  5
1047
  8
PROFIL
 10
18.0
 20
23.0
 30
293.0
 70
   192
  0
VERTEX
  5
1048
  8
PROFIL
 10
982.0
 20
22.999843597412109
 30
293.00003051757812
 70
   192
  0
VERTEX
  5
1049
  8
PROFIL
 10
18.0
 20
22.59098052978516
 30
292.50836181640619
 70
   192
  0
VERTEX
  5
104A
  8
PROFIL
 10
982.0
 20
22.499843597412109
 30
292.50003051757812
 70
   192
  0
VERTEX
  5
104B
  8
PROFIL
 10
18.0
 20
22.5
 30
292.5
 70
   192
  0
VERTEX
  5
104C
  8
PROFIL
 10
982.0
 20
22.590824127197269
 30
292.50839233398437
 70
   192
  0
VERTEX
  5
104D
  8
PROFIL
 10
18.0
 20
22.684047698974609
 30
292.53509521484381
 70
   192
  0
VERTEX
  5
104E
  8
PROFIL
 10
982.0
 20
22.683891296386719
 30
292.53515625
 70
   192
  0
VERTEX
  5
104F
  8
PROFIL
 10
18.0
 20
22.773605346679691
 30
292.58151245117187
 70
   192
  0
VERTEX
  5
1050
  8
PROFIL
 10
982.0
 20
22.773447036743161
 30
292.58154296875
 70
   192
  0
VERTEX
  5
1051
  8
PROFIL
 10
18.0
 20
22.85355377197266
 30
292.64645385742187
 70
   192
  0
VERTEX
  5
1052
  8
PROFIL
 10
982.0
 20
22.853395462036129
 30
292.646484375
 70
   192
  0
VERTEX
  5
1053
  8
PROFIL
 10
18.0
 20
22.918497085571289
 30
292.72640991210937
 70
   192
  0
VERTEX
  5
1054
  8
PROFIL
 10
982.0
 20
22.918340682983398
 30
292.7264404296875
 70
   192
  0
VERTEX
  5
1055
  8
PROFIL
 10
18.0
 20
22.96489334106445
 30
292.81594848632812
 70
   192
  0
VERTEX
  5
1056
  8
PROFIL
 10
982.0
 20
22.964736938476559
 30
292.81600952148437
 70
   192
  0
VERTEX
  5
1057
  8
PROFIL
 10
18.0
 20
22.991653442382809
 30
292.90902709960938
 70
   192
  0
VERTEX
  5
1058
  8
PROFIL
 10
982.0
 20
22.499843597412109
 30
292.50003051757812
 70
   192
  0
VERTEX
  5
1059
  8
PROFIL
 10
18.0
 20
20.75
 30
292.5
 70
   192
  0
VERTEX
  5
105A
  8
PROFIL
 10
18.0
 20
22.5
 30
292.5
 70
   192
  0
VERTEX
  5
105B
  8
PROFIL
 10
982.0
 20
20.749843597412109
 30
292.50003051757812
 70
   192
  0
VERTEX
  5
105C
  8
PROFIL
 10
18.0
 20
20.012521743774411
 30
293.113525390625
 70
   192
  0
VERTEX
  5
105D
  8
PROFIL
 10
982.0
 20
19.999843597412109
 30
293.25003051757813
 70
   192
  0
VERTEX
  5
105E
  8
PROFIL
 10
18.0
 20
20.0
 30
293.25
 70
   192
  0
VERTEX
  5
105F
  8
PROFIL
 10
982.0
 20
20.613370895385739
 30
292.5125732421875
 70
   192
  0
VERTEX
  5
1060
  8
PROFIL
 10
18.0
 20
20.75
 30
292.5
 70
   192
  0
VERTEX
  5
1061
  8
PROFIL
 10
982.0
 20
20.749843597412109
 30
292.50003051757812
 70
   192
  0
VERTEX
  5
1062
  8
PROFIL
 10
18.0
 20
20.613527297973629
 30
292.51251220703119
 70
   192
  0
VERTEX
  5
1063
  8
PROFIL
 10
982.0
 20
20.473772048950199
 30
292.55270385742187
 70
   192
  0
VERTEX
  5
1064
  8
PROFIL
 10
18.0
 20
20.473928451538089
 30
292.55267333984381
 70
   192
  0
VERTEX
  5
1065
  8
PROFIL
 10
982.0
 20
20.339435577392582
 30
292.62228393554687
 70
   192
  0
VERTEX
  5
1066
  8
PROFIL
 10
18.0
 20
20.339591979980469
 30
292.62225341796881
 70
   192
  0
VERTEX
  5
1067
  8
PROFIL
 10
982.0
 20
20.219512939453129
 30
292.7197265625
 70
   192
  0
VERTEX
  5
1068
  8
PROFIL
 10
18.0
 20
20.219669342041019
 30
292.71966552734369
 70
   192
  0
VERTEX
  5
1069
  8
PROFIL
 10
982.0
 20
20.122097015380859
 30
292.83963012695312
 70
   192
  0
VERTEX
  5
106A
  8
PROFIL
 10
18.0
 20
20.12225341796875
 30
292.839599609375
 70
   192
  0
VERTEX
  5
106B
  8
PROFIL
 10
982.0
 20
20.0525016784668
 30
292.97396850585937
 70
   192
  0
VERTEX
  5
106C
  8
PROFIL
 10
18.0
 20
20.052658081054691
 30
292.97393798828119
 70
   192
  0
VERTEX
  5
106D
  8
PROFIL
 10
982.0
 20
20.012363433837891
 30
293.11355590820312
 70
   192
  0
VERTEX
  5
106E
  8
PROFIL
 10
982.0
 20
19.999843597412109
 30
293.25003051757813
 70
   192
  0
VERTEX
  5
106F
  8
PROFIL
 10
18.0
 20
20.0
 30
296.35000610351562
 70
   192
  0
VERTEX
  5
1070
  8
PROFIL
 10
18.0
 20
20.0
 30
293.25
 70
   192
  0
VERTEX
  5
1071
  8
PROFIL
 10
982.0
 20
19.999843597412109
 30
296.35003662109369
 70
   192
  0
VERTEX
  5
1072
  8
PROFIL
 10
982.0
 20
20.012363433837891
 30
296.48651123046869
 70
   192
  0
VERTEX
  5
1073
  8
PROFIL
 10
18.0
 20
20.0
 30
296.35000610351562
 70
   192
  0
VERTEX
  5
1074
  8
PROFIL
 10
982.0
 20
19.999843597412109
 30
296.35003662109369
 70
   192
  0
VERTEX
  5
1075
  8
PROFIL
 10
18.0
 20
20.613527297973629
 30
297.08749389648438
 70
   192
  0
VERTEX
  5
1076
  8
PROFIL
 10
982.0
 20
20.749843597412109
 30
297.10003662109381
 70
   192
  0
VERTEX
  5
1077
  8
PROFIL
 10
18.0
 20
20.75
 30
297.10000610351562
 70
   192
  0
VERTEX
  5
1078
  8
PROFIL
 10
982.0
 20
20.613370895385739
 30
297.0875244140625
 70
   192
  0
VERTEX
  5
1079
  8
PROFIL
 10
18.0
 20
20.473928451538089
 30
297.04733276367187
 70
   192
  0
VERTEX
  5
107A
  8
PROFIL
 10
982.0
 20
20.473772048950199
 30
297.04739379882812
 70
   192
  0
VERTEX
  5
107B
  8
PROFIL
 10
18.0
 20
20.339591979980469
 30
296.97775268554687
 70
   192
  0
VERTEX
  5
107C
  8
PROFIL
 10
982.0
 20
20.339435577392582
 30
296.977783203125
 70
   192
  0
VERTEX
  5
107D
  8
PROFIL
 10
18.0
 20
20.219669342041019
 30
296.88034057617187
 70
   192
  0
VERTEX
  5
107E
  8
PROFIL
 10
982.0
 20
20.219512939453129
 30
296.88037109375
 70
   192
  0
VERTEX
  5
107F
  8
PROFIL
 10
18.0
 20
20.12225341796875
 30
296.76040649414062
 70
   192
  0
VERTEX
  5
1080
  8
PROFIL
 10
982.0
 20
20.122097015380859
 30
296.76043701171881
 70
   192
  0
VERTEX
  5
1081
  8
PROFIL
 10
18.0
 20
20.052658081054691
 30
296.62606811523437
 70
   192
  0
VERTEX
  5
1082
  8
PROFIL
 10
982.0
 20
20.0525016784668
 30
296.6260986328125
 70
   192
  0
VERTEX
  5
1083
  8
PROFIL
 10
18.0
 20
20.012521743774411
 30
296.48648071289062
 70
   192
  0
VERTEX
  5
1084
  8
PROFIL
 10
982.0
 20
20.749843597412109
 30
297.10003662109381
 70
   192
  0
VERTEX
  5
1085
  8
PROFIL
 10
18.000001907348629
 20
31.95000076293946
 30
297.10000610351562
 70
   192
  0
VERTEX
  5
1086
  8
PROFIL
 10
18.0
 20
20.75
 30
297.10000610351562
 70
   192
  0
VERTEX
  5
1087
  8
PROFIL
 10
982.0
 20
31.94984245300293
 30
297.10003662109381
 70
   192
  0
VERTEX
  5
1088
  8
PROFIL
 10
982.0
 20
35.916282653808587
 30
298.33224487304687
 70
   192
  0
VERTEX
  5
1089
  8
PROFIL
 10
18.000001907348629
 20
36.899749755859382
 30
299.15023803710937
 70
   192
  0
VERTEX
  5
108A
  8
PROFIL
 10
18.000001907348629
 20
35.91644287109375
 30
298.33221435546869
 70
   192
  0
VERTEX
  5
108B
  8
PROFIL
 10
982.0
 20
33.384208679199219
 30
297.24856567382812
 70
   192
  0
VERTEX
  5
108C
  8
PROFIL
 10
18.000001907348629
 20
31.95000076293946
 30
297.10000610351562
 70
   192
  0
VERTEX
  5
108D
  8
PROFIL
 10
982.0
 20
31.94984245300293
 30
297.10003662109381
 70
   192
  0
VERTEX
  5
108E
  8
PROFIL
 10
18.000001907348629
 20
33.384365081787109
 30
297.24853515625
 70
   192
  0
VERTEX
  5
108F
  8
PROFIL
 10
982.0
 20
34.730083465576172
 30
297.67584228515619
 70
   192
  0
VERTEX
  5
1090
  8
PROFIL
 10
18.000001907348629
 20
34.730239868164063
 30
297.67581176757812
 70
   192
  0
VERTEX
  5
1091
  8
PROFIL
 10
18.000001907348629
 20
38.801467895507813
 30
302.66561889648437
 70
   192
  0
VERTEX
  5
1092
  8
PROFIL
 10
982.0
 20
38.949844360351563
 30
304.10003662109369
 70
   192
  0
VERTEX
  5
1093
  8
PROFIL
 10
18.000001907348629
 20
38.950000762939453
 30
304.10000610351562
 70
   192
  0
VERTEX
  5
1094
  8
PROFIL
 10
982.0
 20
38.801307678222649
 30
302.66567993164062
 70
   192
  0
VERTEX
  5
1095
  8
PROFIL
 10
982.0
 20
38.374038696289063
 30
301.31979370117187
 70
   192
  0
VERTEX
  5
1096
  8
PROFIL
 10
18.000001907348629
 20
38.374191284179687
 30
301.31976318359381
 70
   192
  0
VERTEX
  5
1097
  8
PROFIL
 10
18.000001907348629
 20
37.717784881591797
 30
300.133544921875
 70
   192
  0
VERTEX
  5
1098
  8
PROFIL
 10
982.0
 20
37.717628479003913
 30
300.13360595703119
 70
   192
  0
VERTEX
  5
1099
  8
PROFIL
 10
982.0
 20
36.899589538574219
 30
299.15029907226562
 70
   192
  0
VERTEX
  5
109A
  8
PROFIL
 10
982.0
 20
38.949844360351563
 30
304.10003662109369
 70
   192
  0
VERTEX
  5
109B
  8
PROFIL
 10
18.0
 20
38.950000762939453
 30
349.79998779296881
 70
   192
  0
VERTEX
  5
109C
  8
PROFIL
 10
18.000001907348629
 20
38.950000762939453
 30
304.10000610351562
 70
   192
  0
VERTEX
  5
109D
  8
PROFIL
 10
982.0
 20
38.949844360351563
 30
349.800048828125
 70
   192
  0
VERTEX
  5
109E
  8
PROFIL
 10
982.0
 20
38.954086303710937
 30
349.84103393554687
 70
   192
  0
VERTEX
  5
109F
  8
PROFIL
 10
483.18682861328119
 20
38.949924468994141
 30
349.80001831054687
 70
   192
  0
VERTEX
  5
10A0
  8
PROFIL
 10
982.0
 20
38.949844360351563
 30
349.800048828125
 70
   192
  0
VERTEX
  5
10A1
  8
PROFIL
 10
18.0
 20
39.150001525878913
 30
350.0
 70
   192
  0
VERTEX
  5
10A2
  8
PROFIL
 10
982.0
 20
39.108863830566413
 30
349.99578857421869
 70
   192
  0
VERTEX
  5
10A3
  8
PROFIL
 10
982.0
 20
39.14984130859375
 30
350.00003051757813
 70
   192
  0
VERTEX
  5
10A4
  8
PROFIL
 10
18.0
 20
39.109016418457031
 30
349.99575805664062
 70
   192
  0
VERTEX
  5
10A5
  8
PROFIL
 10
982.0
 20
39.070407867431641
 30
349.98358154296869
 70
   192
  0
VERTEX
  5
10A6
  8
PROFIL
 10
18.0
 20
39.070564270019531
 30
349.98355102539062
 70
   192
  0
VERTEX
  5
10A7
  8
PROFIL
 10
982.0
 20
39.036514282226562
 30
349.96484375
 70
   192
  0
VERTEX
  5
10A8
  8
PROFIL
 10
18.0
 20
39.036674499511719
 30
349.96478271484381
 70
   192
  0
VERTEX
  5
10A9
  8
PROFIL
 10
982.0
 20
39.0084228515625
 30
349.94146728515631
 70
   192
  0
VERTEX
  5
10AA
  8
PROFIL
 10
18.0
 20
39.008579254150391
 30
349.94140625
 70
   192
  0
VERTEX
  5
10AB
  8
PROFIL
 10
982.0
 20
38.985050201416023
 30
349.91336059570312
 70
   192
  0
VERTEX
  5
10AC
  8
PROFIL
 10
18.0
 20
38.985206604003913
 30
349.913330078125
 70
   192
  0
VERTEX
  5
10AD
  8
PROFIL
 10
982.0
 20
38.966293334960938
 30
349.87948608398437
 70
   192
  0
VERTEX
  5
10AE
  8
PROFIL
 10
18.0
 20
38.966453552246101
 30
349.87942504882812
 70
   192
  0
VERTEX
  5
10AF
  8
PROFIL
 10
18.0
 20
38.954246520996101
 30
349.84097290039062
 70
   192
  0
VERTEX
  5
10B0
  8
PROFIL
 10
18.0
 20
38.950000762939453
 30
349.79998779296881
 70
   192
  0
VERTEX
  5
10B1
  8
PROFIL
 10
982.0
 20
39.14984130859375
 30
350.00003051757813
 70
   192
  0
VERTEX
  5
10B2
  8
PROFIL
 10
18.000001907348629
 20
43.29999923706054
 30
350.0
 70
   192
  0
VERTEX
  5
10B3
  8
PROFIL
 10
18.0
 20
39.150001525878913
 30
350.0
 70
   192
  0
VERTEX
  5
10B4
  8
PROFIL
 10
982.0
 20
43.299842834472663
 30
350.00003051757813
 70
   192
  0
VERTEX
  5
10B5
  8
PROFIL
 10
18.000001907348629
 20
44.283306121826172
 30
349.18197631835937
 70
   192
  0
VERTEX
  5
10B6
  8
PROFIL
 10
982.0
 20
44.299842834472649
 30
349.00003051757812
 70
   192
  0
VERTEX
  5
10B7
  8
PROFIL
 10
18.000001907348629
 20
44.299999237060547
 30
349.0
 70
   192
  0
VERTEX
  5
10B8
  8
PROFIL
 10
982.0
 20
43.481803894042969
 30
349.98333740234381
 70
   192
  0
VERTEX
  5
10B9
  8
PROFIL
 10
18.000001907348629
 20
43.29999923706054
 30
350.0
 70
   192
  0
VERTEX
  5
10BA
  8
PROFIL
 10
982.0
 20
43.299842834472663
 30
350.00003051757813
 70
   192
  0
VERTEX
  5
10BB
  8
PROFIL
 10
18.000001907348629
 20
43.481964111328118
 30
349.98330688476562
 70
   192
  0
VERTEX
  5
10BC
  8
PROFIL
 10
982.0
 20
43.667938232421868
 30
349.92984008789062
 70
   192
  0
VERTEX
  5
10BD
  8
PROFIL
 10
18.000001907348629
 20
43.668094635009773
 30
349.92977905273437
 70
   192
  0
VERTEX
  5
10BE
  8
PROFIL
 10
982.0
 20
43.847053527832017
 30
349.8370361328125
 70
   192
  0
VERTEX
  5
10BF
  8
PROFIL
 10
18.000001907348629
 20
43.847209930419922
 30
349.83700561523438
 70
   192
  0
VERTEX
  5
10C0
  8
PROFIL
 10
982.0
 20
44.006950378417969
 30
349.7071533203125
 70
   192
  0
VERTEX
  5
10C1
  8
PROFIL
 10
18.000001907348629
 20
44.007106781005859
 30
349.70709228515631
 70
   192
  0
VERTEX
  5
10C2
  8
PROFIL
 10
982.0
 20
44.1368408203125
 30
349.5472412109375
 70
   192
  0
VERTEX
  5
10C3
  8
PROFIL
 10
18.000001907348629
 20
44.136993408203118
 30
349.54721069335938
 70
   192
  0
VERTEX
  5
10C4
  8
PROFIL
 10
982.0
 20
44.229629516601563
 30
349.36813354492187
 70
   192
  0
VERTEX
  5
10C5
  8
PROFIL
 10
18.000001907348629
 20
44.229789733886719
 30
349.36810302734381
 70
   192
  0
VERTEX
  5
10C6
  8
PROFIL
 10
982.0
 20
44.283149719238267
 30
349.1820068359375
 70
   192
  0
VERTEX
  5
10C7
  8
PROFIL
 10
982.0
 20
44.299842834472649
 30
349.00003051757812
 70
   192
  0
VERTEX
  5
10C8
  8
PROFIL
 10
18.000001907348629
 20
44.299999237060547
 30
347.29998779296881
 70
   192
  0
VERTEX
  5
10C9
  8
PROFIL
 10
18.000001907348629
 20
44.299999237060547
 30
349.0
 70
   192
  0
VERTEX
  5
10CA
  8
PROFIL
 10
982.0
 20
44.299842834472649
 30
347.300048828125
 70
   192
  0
VERTEX
  5
10CB
  8
PROFIL
 10
982.0
 20
44.299842834472649
 30
347.300048828125
 70
   192
  0
VERTEX
  5
10CC
  8
PROFIL
 10
18.000001907348629
 20
44.293632507324212
 30
347.238525390625
 70
   192
  0
VERTEX
  5
10CD
  8
PROFIL
 10
18.000001907348629
 20
44.299999237060547
 30
347.29998779296881
 70
   192
  0
VERTEX
  5
10CE
  8
PROFIL
 10
18.000001907348629
 20
44.0
 30
347.0
 70
   192
  0
VERTEX
  5
10CF
  8
PROFIL
 10
982.0
 20
44.061317443847649
 30
347.00640869140619
 70
   192
  0
VERTEX
  5
10D0
  8
PROFIL
 10
982.0
 20
43.999843597412102
 30
347.00003051757812
 70
   192
  0
VERTEX
  5
10D1
  8
PROFIL
 10
18.000001907348629
 20
44.061470031738281
 30
347.00637817382812
 70
   192
  0
VERTEX
  5
10D2
  8
PROFIL
 10
982.0
 20
44.118995666503899
 30
347.02471923828119
 70
   192
  0
VERTEX
  5
10D3
  8
PROFIL
 10
18.000001907348629
 20
44.119155883789063
 30
347.02468872070312
 70
   192
  0
VERTEX
  5
10D4
  8
PROFIL
 10
982.0
 20
44.169834136962884
 30
347.0528564453125
 70
   192
  0
VERTEX
  5
10D5
  8
PROFIL
 10
18.000001907348629
 20
44.169990539550781
 30
347.05279541015631
 70
   192
  0
VERTEX
  5
10D6
  8
PROFIL
 10
982.0
 20
44.21197509765625
 30
347.08792114257813
 70
   192
  0
VERTEX
  5
10D7
  8
PROFIL
 10
18.000001907348629
 20
44.212131500244141
 30
347.08786010742188
 70
   192
  0
VERTEX
  5
10D8
  8
PROFIL
 10
18.000001907348629
 20
44.2471923828125
 30
347.1300048828125
 70
   192
  0
VERTEX
  5
10D9
  8
PROFIL
 10
982.0
 20
44.247032165527337
 30
347.13006591796869
 70
   192
  0
VERTEX
  5
10DA
  8
PROFIL
 10
982.0
 20
44.275165557861328
 30
347.18087768554687
 70
   192
  0
VERTEX
  5
10DB
  8
PROFIL
 10
18.000001907348629
 20
44.275321960449212
 30
347.18084716796869
 70
   192
  0
VERTEX
  5
10DC
  8
PROFIL
 10
982.0
 20
44.293479919433587
 30
347.23855590820312
 70
   192
  0
VERTEX
  5
10DD
  8
PROFIL
 10
0.0
 20
0.0
 30
0.0
 70
   128
 71
     1
 72
     2
 73
     3
  0
VERTEX
  5
10DE
  8
PROFIL
 10
0.0
 20
0.0
 30
0.0
 70
   128
 71
     4
 72
     5
 73
     6
  0
VERTEX
  5
10DF
  8
PROFIL
 10
0.0
 20
0.0
 30
0.0
 70
   128
 71
     7
 72
     8
 73
     9
  0
VERTEX
  5
10E0
  8
PROFIL
 10
0.0
 20
0.0
 30
0.0
 70
   128
 71
    10
 72
    11
 73
    12
  0
VERTEX
  5
10E1
  8
PROFIL
 10
0.0
 20
0.0
 30
0.0
 70
   128
 71
     7
 72
    13
 73
     8
  0
VERTEX
  5
10E2
  8
PROFIL
 10
0.0
 20
0.0
 30
0.0
 70
   128
 71
     7
 72
    14
 73
    13
  0
VERTEX
  5
10E3
  8
PROFIL
 10
0.0
 20
0.0
 30
0.0
 70
   128
 71
     7
 72
    15
 73
    14
  0
VERTEX
  5
10E4
  8
PROFIL
 10
0.0
 20
0.0
 30
0.0
 70
   128
 71
     7
 72
    16
 73
    15
  0
VERTEX
  5
10E5
  8
PROFIL
 10
0.0
 20
0.0
 30
0.0
 70
   128
 71
     7
 72
    17
 73
    16
  0
VERTEX
  5
10E6
  8
PROFIL
 10
0.0
 20
0.0
 30
0.0
 70
   128
 71
     7
 72
    18
 73
    17
  0
VERTEX
  5
10E7
  8
PROFIL
 10
0.0
 20
0.0
 30
0.0
 70
   128
 71
     7
 72
    19
 73
    18
  0
VERTEX
  5
10E8
  8
PROFIL
 10
0.0
 20
0.0
 30
0.0
 70
   128
 71
     7
 72
    20
 73
    19
  0
VERTEX
  5
10E9
  8
PROFIL
 10
0.0
 20
0.0
 30
0.0
 70
   128
 71
     7
 72
    21
 73
    20
  0
VERTEX
  5
10EA
  8
PROFIL
 10
0.0
 20
0.0
 30
0.0
 70
   128
 71
    22
 72
    11
 73
    10
  0
VERTEX
  5
10EB
  8
PROFIL
 10
0.0
 20
0.0
 30
0.0
 70
   128
 71
    23
 72
    11
 73
    22
  0
VERTEX
  5
10EC
  8
PROFIL
 10
0.0
 20
0.0
 30
0.0
 70
   128
 71
    24
 72
    11
 73
    23
  0
VERTEX
  5
10ED
  8
PROFIL
 10
0.0
 20
0.0
 30
0.0
 70
   128
 71
    25
 72
    11
 73
    24
  0
VERTEX
  5
10EE
  8
PROFIL
 10
0.0
 20
0.0
 30
0.0
 70
   128
 71
    26
 72
    11
 73
    25
  0
VERTEX
  5
10EF
  8
PROFIL
 10
0.0
 20
0.0
 30
0.0
 70
   128
 71
    27
 72
    11
 73
    26
  0
VERTEX
  5
10F0
  8
PROFIL
 10
0.0
 20
0.0
 30
0.0
 70
   128
 71
    28
 72
    11
 73
    27
  0
VERTEX
  5
10F1
  8
PROFIL
 10
0.0
 20
0.0
 30
0.0
 70
   128
 71
    29
 72
    11
 73
    28
  0
VERTEX
  5
10F2
  8
PROFIL
 10
0.0
 20
0.0
 30
0.0
 70
   128
 71
    30
 72
    11
 73
    29
  0
VERTEX
  5
10F3
  8
PROFIL
 10
0.0
 20
0.0
 30
0.0
 70
   128
 71
    30
 72
    31
 73
    11
  0
VERTEX
  5
10F4
  8
PROFIL
 10
0.0
 20
0.0
 30
0.0
 70
   128
 71
    32
 72
    31
 73
    30
  0
VERTEX
  5
10F5
  8
PROFIL
 10
0.0
 20
0.0
 30
0.0
 70
   128
 71
    32
 72
    33
 73
    31
  0
VERTEX
  5
10F6
  8
PROFIL
 10
0.0
 20
0.0
 30
0.0
 70
   128
 71
    32
 72
    34
 73
    33
  0
VERTEX
  5
10F7
  8
PROFIL
 10
0.0
 20
0.0
 30
0.0
 70
   128
 71
    32
 72
    35
 73
    34
  0
VERTEX
  5
10F8
  8
PROFIL
 10
0.0
 20
0.0
 30
0.0
 70
   128
 71
    32
 72
    36
 73
    35
  0
VERTEX
  5
10F9
  8
PROFIL
 10
0.0
 20
0.0
 30
0.0
 70
   128
 71
    32
 72
    37
 73
    36
  0
VERTEX
  5
10FA
  8
PROFIL
 10
0.0
 20
0.0
 30
0.0
 70
   128
 71
    32
 72
    38
 73
    37
  0
VERTEX
  5
10FB
  8
PROFIL
 10
0.0
 20
0.0
 30
0.0
 70
   128
 71
    32
 72
    39
 73
    38
  0
VERTEX
  5
10FC
  8
PROFIL
 10
0.0
 20
0.0
 30
0.0
 70
   128
 71
    40
 72
    39
 73
    32
  0
VERTEX
  5
10FD
  8
PROFIL
 10
0.0
 20
0.0
 30
0.0
 70
   128
 71
    41
 72
    21
 73
     7
  0
VERTEX
  5
10FE
  8
PROFIL
 10
0.0
 20
0.0
 30
0.0
 70
   128
 71
    42
 72
    21
 73
    41
  0
VERTEX
  5
10FF
  8
PROFIL
 10
0.0
 20
0.0
 30
0.0
 70
   128
 71
    43
 72
    21
 73
    42
  0
VERTEX
  5
1100
  8
PROFIL
 10
0.0
 20
0.0
 30
0.0
 70
   128
 71
    44
 72
    21
 73
    43
  0
VERTEX
  5
1101
  8
PROFIL
 10
0.0
 20
0.0
 30
0.0
 70
   128
 71
    45
 72
    21
 73
    44
  0
VERTEX
  5
1102
  8
PROFIL
 10
0.0
 20
0.0
 30
0.0
 70
   128
 71
    46
 72
    21
 73
    45
  0
VERTEX
  5
1103
  8
PROFIL
 10
0.0
 20
0.0
 30
0.0
 70
   128
 71
    47
 72
    21
 73
    46
  0
VERTEX
  5
1104
  8
PROFIL
 10
0.0
 20
0.0
 30
0.0
 70
   128
 71
    48
 72
    21
 73
    47
  0
VERTEX
  5
1105
  8
PROFIL
 10
0.0
 20
0.0
 30
0.0
 70
   128
 71
    49
 72
    21
 73
    48
  0
VERTEX
  5
1106
  8
PROFIL
 10
0.0
 20
0.0
 30
0.0
 70
   128
 71
    49
 72
    50
 73
    21
  0
VERTEX
  5
1107
  8
PROFIL
 10
0.0
 20
0.0
 30
0.0
 70
   128
 71
    51
 72
     5
 73
     4
  0
VERTEX
  5
1108
  8
PROFIL
 10
0.0
 20
0.0
 30
0.0
 70
   128
 71
    52
 72
     5
 73
    51
  0
VERTEX
  5
1109
  8
PROFIL
 10
0.0
 20
0.0
 30
0.0
 70
   128
 71
    53
 72
     5
 73
    52
  0
VERTEX
  5
110A
  8
PROFIL
 10
0.0
 20
0.0
 30
0.0
 70
   128
 71
    54
 72
     5
 73
    53
  0
VERTEX
  5
110B
  8
PROFIL
 10
0.0
 20
0.0
 30
0.0
 70
   128
 71
    55
 72
     5
 73
    54
  0
VERTEX
  5
110C
  8
PROFIL
 10
0.0
 20
0.0
 30
0.0
 70
   128
 71
    56
 72
     5
 73
    55
  0
VERTEX
  5
110D
  8
PROFIL
 10
0.0
 20
0.0
 30
0.0
 70
   128
 71
    57
 72
     5
 73
    56
  0
VERTEX
  5
110E
  8
PROFIL
 10
0.0
 20
0.0
 30
0.0
 70
   128
 71
    58
 72
     5
 73
    57
  0
VERTEX
  5
110F
  8
PROFIL
 10
0.0
 20
0.0
 30
0.0
 70
   128
 71
    59
 72
     5
 73
    58
  0
VERTEX
  5
1110
  8
PROFIL
 10
0.0
 20
0.0
 30
0.0
 70
   128
 71
    60
 72
     5
 73
    59
  0
VERTEX
  5
1111
  8
PROFIL
 10
0.0
 20
0.0
 30
0.0
 70
   128
 71
    61
 72
     5
 73
    60
  0
VERTEX
  5
1112
  8
PROFIL
 10
0.0
 20
0.0
 30
0.0
 70
   128
 71
    62
 72
     5
 73
    61
  0
VERTEX
  5
1113
  8
PROFIL
 10
0.0
 20
0.0
 30
0.0
 70
   128
 71
    63
 72
     5
 73
    62
  0
VERTEX
  5
1114
  8
PROFIL
 10
0.0
 20
0.0
 30
0.0
 70
   128
 71
    64
 72
     5
 73
    63
  0
VERTEX
  5
1115
  8
PROFIL
 10
0.0
 20
0.0
 30
0.0
 70
   128
 71
    65
 72
     5
 73
    64
  0
VERTEX
  5
1116
  8
PROFIL
 10
0.0
 20
0.0
 30
0.0
 70
   128
 71
    66
 72
     5
 73
    65
  0
VERTEX
  5
1117
  8
PROFIL
 10
0.0
 20
0.0
 30
0.0
 70
   128
 71
    67
 72
     5
 73
    66
  0
VERTEX
  5
1118
  8
PROFIL
 10
0.0
 20
0.0
 30
0.0
 70
   128
 71
    68
 72
     5
 73
    67
  0
VERTEX
  5
1119
  8
PROFIL
 10
0.0
 20
0.0
 30
0.0
 70
   128
 71
    68
 72
    69
 73
     5
  0
VERTEX
  5
111A
  8
PROFIL
 10
0.0
 20
0.0
 30
0.0
 70
   128
 71
    70
 72
    69
 73
    68
  0
VERTEX
  5
111B
  8
PROFIL
 10
0.0
 20
0.0
 30
0.0
 70
   128
 71
    71
 72
    69
 73
    70
  0
VERTEX
  5
111C
  8
PROFIL
 10
0.0
 20
0.0
 30
0.0
 70
   128
 71
    72
 72
    69
 73
    71
  0
VERTEX
  5
111D
  8
PROFIL
 10
0.0
 20
0.0
 30
0.0
 70
   128
 71
    73
 72
    69
 73
    72
  0
VERTEX
  5
111E
  8
PROFIL
 10
0.0
 20
0.0
 30
0.0
 70
   128
 71
    74
 72
    69
 73
    73
  0
VERTEX
  5
111F
  8
PROFIL
 10
0.0
 20
0.0
 30
0.0
 70
   128
 71
    75
 72
    69
 73
    74
  0
VERTEX
  5
1120
  8
PROFIL
 10
0.0
 20
0.0
 30
0.0
 70
   128
 71
    76
 72
    69
 73
    75
  0
VERTEX
  5
1121
  8
PROFIL
 10
0.0
 20
0.0
 30
0.0
 70
   128
 71
    77
 72
    69
 73
    76
  0
VERTEX
  5
1122
  8
PROFIL
 10
0.0
 20
0.0
 30
0.0
 70
   128
 71
    78
 72
    69
 73
    77
  0
VERTEX
  5
1123
  8
PROFIL
 10
0.0
 20
0.0
 30
0.0
 70
   128
 71
    78
 72
    49
 73
    69
  0
VERTEX
  5
1124
  8
PROFIL
 10
0.0
 20
0.0
 30
0.0
 70
   128
 71
    78
 72
    50
 73
    49
  0
VERTEX
  5
1125
  8
PROFIL
 10
0.0
 20
0.0
 30
0.0
 70
   128
 71
    78
 72
    40
 73
    50
  0
VERTEX
  5
1126
  8
PROFIL
 10
0.0
 20
0.0
 30
0.0
 70
   128
 71
    79
 72
    40
 73
    78
  0
VERTEX
  5
1127
  8
PROFIL
 10
0.0
 20
0.0
 30
0.0
 70
   128
 71
    79
 72
    39
 73
    40
  0
VERTEX
  5
1128
  8
PROFIL
 10
0.0
 20
0.0
 30
0.0
 70
   128
 71
    80
 72
    39
 73
    79
  0
VERTEX
  5
1129
  8
PROFIL
 10
0.0
 20
0.0
 30
0.0
 70
   128
 71
    80
 72
    81
 73
    39
  0
VERTEX
  5
112A
  8
PROFIL
 10
0.0
 20
0.0
 30
0.0
 70
   128
 71
    82
 72
    81
 73
    80
  0
VERTEX
  5
112B
  8
PROFIL
 10
0.0
 20
0.0
 30
0.0
 70
   128
 71
    83
 72
    81
 73
    82
  0
VERTEX
  5
112C
  8
PROFIL
 10
0.0
 20
0.0
 30
0.0
 70
   128
 71
    83
 72
    84
 73
    81
  0
VERTEX
  5
112D
  8
PROFIL
 10
0.0
 20
0.0
 30
0.0
 70
   128
 71
    85
 72
    84
 73
    83
  0
VERTEX
  5
112E
  8
PROFIL
 10
0.0
 20
0.0
 30
0.0
 70
   128
 71
    85
 72
    86
 73
    84
  0
VERTEX
  5
112F
  8
PROFIL
 10
0.0
 20
0.0
 30
0.0
 70
   128
 71
    87
 72
    86
 73
    85
  0
VERTEX
  5
1130
  8
PROFIL
 10
0.0
 20
0.0
 30
0.0
 70
   128
 71
    88
 72
    86
 73
    87
  0
VERTEX
  5
1131
  8
PROFIL
 10
0.0
 20
0.0
 30
0.0
 70
   128
 71
    88
 72
    89
 73
    86
  0
VERTEX
  5
1132
  8
PROFIL
 10
0.0
 20
0.0
 30
0.0
 70
   128
 71
    90
 72
    89
 73
    88
  0
VERTEX
  5
1133
  8
PROFIL
 10
0.0
 20
0.0
 30
0.0
 70
   128
 71
    91
 72
    89
 73
    90
  0
VERTEX
  5
1134
  8
PROFIL
 10
0.0
 20
0.0
 30
0.0
 70
   128
 71
    91
 72
    92
 73
    89
  0
VERTEX
  5
1135
  8
PROFIL
 10
0.0
 20
0.0
 30
0.0
 70
   128
 71
    93
 72
    92
 73
    91
  0
VERTEX
  5
1136
  8
PROFIL
 10
0.0
 20
0.0
 30
0.0
 70
   128
 71
    94
 72
    92
 73
    93
  0
VERTEX
  5
1137
  8
PROFIL
 10
0.0
 20
0.0
 30
0.0
 70
   128
 71
    95
 72
    92
 73
    94
  0
VERTEX
  5
1138
  8
PROFIL
 10
0.0
 20
0.0
 30
0.0
 70
   128
 71
    96
 72
    92
 73
    95
  0
VERTEX
  5
1139
  8
PROFIL
 10
0.0
 20
0.0
 30
0.0
 70
   128
 71
    97
 72
    92
 73
    96
  0
VERTEX
  5
113A
  8
PROFIL
 10
0.0
 20
0.0
 30
0.0
 70
   128
 71
    98
 72
    92
 73
    97
  0
VERTEX
  5
113B
  8
PROFIL
 10
0.0
 20
0.0
 30
0.0
 70
   128
 71
    99
 72
    92
 73
    98
  0
VERTEX
  5
113C
  8
PROFIL
 10
0.0
 20
0.0
 30
0.0
 70
   128
 71
   100
 72
    92
 73
    99
  0
VERTEX
  5
113D
  8
PROFIL
 10
0.0
 20
0.0
 30
0.0
 70
   128
 71
   101
 72
    92
 73
   100
  0
VERTEX
  5
113E
  8
PROFIL
 10
0.0
 20
0.0
 30
0.0
 70
   128
 71
   101
 72
   102
 73
    92
  0
VERTEX
  5
113F
  8
PROFIL
 10
0.0
 20
0.0
 30
0.0
 70
   128
 71
   103
 72
   102
 73
   101
  0
VERTEX
  5
1140
  8
PROFIL
 10
0.0
 20
0.0
 30
0.0
 70
   128
 71
   104
 72
   102
 73
   103
  0
VERTEX
  5
1141
  8
PROFIL
 10
0.0
 20
0.0
 30
0.0
 70
   128
 71
   105
 72
   102
 73
   104
  0
VERTEX
  5
1142
  8
PROFIL
 10
0.0
 20
0.0
 30
0.0
 70
   128
 71
   106
 72
   102
 73
   105
  0
VERTEX
  5
1143
  8
PROFIL
 10
0.0
 20
0.0
 30
0.0
 70
   128
 71
   107
 72
   102
 73
   106
  0
VERTEX
  5
1144
  8
PROFIL
 10
0.0
 20
0.0
 30
0.0
 70
   128
 71
   108
 72
   102
 73
   107
  0
VERTEX
  5
1145
  8
PROFIL
 10
0.0
 20
0.0
 30
0.0
 70
   128
 71
   109
 72
   102
 73
   108
  0
VERTEX
  5
1146
  8
PROFIL
 10
0.0
 20
0.0
 30
0.0
 70
   128
 71
   110
 72
   102
 73
   109
  0
VERTEX
  5
1147
  8
PROFIL
 10
0.0
 20
0.0
 30
0.0
 70
   128
 71
   111
 72
   102
 73
   110
  0
VERTEX
  5
1148
  8
PROFIL
 10
0.0
 20
0.0
 30
0.0
 70
   128
 71
   111
 72
     1
 73
   102
  0
VERTEX
  5
1149
  8
PROFIL
 10
0.0
 20
0.0
 30
0.0
 70
   128
 71
   112
 72
     1
 73
   111
  0
VERTEX
  5
114A
  8
PROFIL
 10
0.0
 20
0.0
 30
0.0
 70
   128
 71
   113
 72
     1
 73
   112
  0
VERTEX
  5
114B
  8
PROFIL
 10
0.0
 20
0.0
 30
0.0
 70
   128
 71
   114
 72
     1
 73
   113
  0
VERTEX
  5
114C
  8
PROFIL
 10
0.0
 20
0.0
 30
0.0
 70
   128
 71
   115
 72
     1
 73
   114
  0
VERTEX
  5
114D
  8
PROFIL
 10
0.0
 20
0.0
 30
0.0
 70
   128
 71
   116
 72
     1
 73
   115
  0
VERTEX
  5
114E
  8
PROFIL
 10
0.0
 20
0.0
 30
0.0
 70
   128
 71
   117
 72
     1
 73
   116
  0
VERTEX
  5
114F
  8
PROFIL
 10
0.0
 20
0.0
 30
0.0
 70
   128
 71
   118
 72
     1
 73
   117
  0
VERTEX
  5
1150
  8
PROFIL
 10
0.0
 20
0.0
 30
0.0
 70
   128
 71
   119
 72
     1
 73
   118
  0
VERTEX
  5
1151
  8
PROFIL
 10
0.0
 20
0.0
 30
0.0
 70
   128
 71
   120
 72
     1
 73
   119
  0
VERTEX
  5
1152
  8
PROFIL
 10
0.0
 20
0.0
 30
0.0
 70
   128
 71
   121
 72
     1
 73
   120
  0
VERTEX
  5
1153
  8
PROFIL
 10
0.0
 20
0.0
 30
0.0
 70
   128
 71
   122
 72
     1
 73
   121
  0
VERTEX
  5
1154
  8
PROFIL
 10
0.0
 20
0.0
 30
0.0
 70
   128
 71
   123
 72
     1
 73
   122
  0
VERTEX
  5
1155
  8
PROFIL
 10
0.0
 20
0.0
 30
0.0
 70
   128
 71
   124
 72
     1
 73
   123
  0
VERTEX
  5
1156
  8
PROFIL
 10
0.0
 20
0.0
 30
0.0
 70
   128
 71
   125
 72
     1
 73
   124
  0
VERTEX
  5
1157
  8
PROFIL
 10
0.0
 20
0.0
 30
0.0
 70
   128
 71
     2
 72
     1
 73
   125
  0
VERTEX
  5
1158
  8
PROFIL
 10
0.0
 20
0.0
 30
0.0
 70
   128
 71
   126
 72
   127
 73
   128
  0
VERTEX
  5
1159
  8
PROFIL
 10
0.0
 20
0.0
 30
0.0
 70
   128
 71
   129
 72
   130
 73
   131
  0
VERTEX
  5
115A
  8
PROFIL
 10
0.0
 20
0.0
 30
0.0
 70
   128
 71
   132
 72
   133
 73
   134
  0
VERTEX
  5
115B
  8
PROFIL
 10
0.0
 20
0.0
 30
0.0
 70
   128
 71
   135
 72
   136
 73
   137
  0
VERTEX
  5
115C
  8
PROFIL
 10
0.0
 20
0.0
 30
0.0
 70
   128
 71
   138
 72
   133
 73
   132
  0
VERTEX
  5
115D
  8
PROFIL
 10
0.0
 20
0.0
 30
0.0
 70
   128
 71
   139
 72
   133
 73
   138
  0
VERTEX
  5
115E
  8
PROFIL
 10
0.0
 20
0.0
 30
0.0
 70
   128
 71
   140
 72
   133
 73
   139
  0
VERTEX
  5
115F
  8
PROFIL
 10
0.0
 20
0.0
 30
0.0
 70
   128
 71
   141
 72
   133
 73
   140
  0
VERTEX
  5
1160
  8
PROFIL
 10
0.0
 20
0.0
 30
0.0
 70
   128
 71
   142
 72
   133
 73
   141
  0
VERTEX
  5
1161
  8
PROFIL
 10
0.0
 20
0.0
 30
0.0
 70
   128
 71
   143
 72
   133
 73
   142
  0
VERTEX
  5
1162
  8
PROFIL
 10
0.0
 20
0.0
 30
0.0
 70
   128
 71
   144
 72
   133
 73
   143
  0
VERTEX
  5
1163
  8
PROFIL
 10
0.0
 20
0.0
 30
0.0
 70
   128
 71
   145
 72
   133
 73
   144
  0
VERTEX
  5
1164
  8
PROFIL
 10
0.0
 20
0.0
 30
0.0
 70
   128
 71
   146
 72
   133
 73
   145
  0
VERTEX
  5
1165
  8
PROFIL
 10
0.0
 20
0.0
 30
0.0
 70
   128
 71
   129
 72
   147
 73
   130
  0
VERTEX
  5
1166
  8
PROFIL
 10
0.0
 20
0.0
 30
0.0
 70
   128
 71
   129
 72
   148
 73
   147
  0
VERTEX
  5
1167
  8
PROFIL
 10
0.0
 20
0.0
 30
0.0
 70
   128
 71
   129
 72
   149
 73
   148
  0
VERTEX
  5
1168
  8
PROFIL
 10
0.0
 20
0.0
 30
0.0
 70
   128
 71
   129
 72
   150
 73
   149
  0
VERTEX
  5
1169
  8
PROFIL
 10
0.0
 20
0.0
 30
0.0
 70
   128
 71
   129
 72
   151
 73
   150
  0
VERTEX
  5
116A
  8
PROFIL
 10
0.0
 20
0.0
 30
0.0
 70
   128
 71
   129
 72
   152
 73
   151
  0
VERTEX
  5
116B
  8
PROFIL
 10
0.0
 20
0.0
 30
0.0
 70
   128
 71
   129
 72
   153
 73
   152
  0
VERTEX
  5
116C
  8
PROFIL
 10
0.0
 20
0.0
 30
0.0
 70
   128
 71
   129
 72
   154
 73
   153
  0
VERTEX
  5
116D
  8
PROFIL
 10
0.0
 20
0.0
 30
0.0
 70
   128
 71
   129
 72
   155
 73
   154
  0
VERTEX
  5
116E
  8
PROFIL
 10
0.0
 20
0.0
 30
0.0
 70
   128
 71
   156
 72
   155
 73
   129
  0
VERTEX
  5
116F
  8
PROFIL
 10
0.0
 20
0.0
 30
0.0
 70
   128
 71
   156
 72
   157
 73
   155
  0
VERTEX
  5
1170
  8
PROFIL
 10
0.0
 20
0.0
 30
0.0
 70
   128
 71
   158
 72
   157
 73
   156
  0
VERTEX
  5
1171
  8
PROFIL
 10
0.0
 20
0.0
 30
0.0
 70
   128
 71
   159
 72
   157
 73
   158
  0
VERTEX
  5
1172
  8
PROFIL
 10
0.0
 20
0.0
 30
0.0
 70
   128
 71
   160
 72
   157
 73
   159
  0
VERTEX
  5
1173
  8
PROFIL
 10
0.0
 20
0.0
 30
0.0
 70
   128
 71
   161
 72
   157
 73
   160
  0
VERTEX
  5
1174
  8
PROFIL
 10
0.0
 20
0.0
 30
0.0
 70
   128
 71
   162
 72
   157
 73
   161
  0
VERTEX
  5
1175
  8
PROFIL
 10
0.0
 20
0.0
 30
0.0
 70
   128
 71
   163
 72
   157
 73
   162
  0
VERTEX
  5
1176
  8
PROFIL
 10
0.0
 20
0.0
 30
0.0
 70
   128
 71
   164
 72
   157
 73
   163
  0
VERTEX
  5
1177
  8
PROFIL
 10
0.0
 20
0.0
 30
0.0
 70
   128
 71
   164
 72
   165
 73
   157
  0
VERTEX
  5
1178
  8
PROFIL
 10
0.0
 20
0.0
 30
0.0
 70
   128
 71
   146
 72
   166
 73
   133
  0
VERTEX
  5
1179
  8
PROFIL
 10
0.0
 20
0.0
 30
0.0
 70
   128
 71
   146
 72
   167
 73
   166
  0
VERTEX
  5
117A
  8
PROFIL
 10
0.0
 20
0.0
 30
0.0
 70
   128
 71
   146
 72
   168
 73
   167
  0
VERTEX
  5
117B
  8
PROFIL
 10
0.0
 20
0.0
 30
0.0
 70
   128
 71
   146
 72
   169
 73
   168
  0
VERTEX
  5
117C
  8
PROFIL
 10
0.0
 20
0.0
 30
0.0
 70
   128
 71
   146
 72
   170
 73
   169
  0
VERTEX
  5
117D
  8
PROFIL
 10
0.0
 20
0.0
 30
0.0
 70
   128
 71
   146
 72
   171
 73
   170
  0
VERTEX
  5
117E
  8
PROFIL
 10
0.0
 20
0.0
 30
0.0
 70
   128
 71
   146
 72
   172
 73
   171
  0
VERTEX
  5
117F
  8
PROFIL
 10
0.0
 20
0.0
 30
0.0
 70
   128
 71
   146
 72
   173
 73
   172
  0
VERTEX
  5
1180
  8
PROFIL
 10
0.0
 20
0.0
 30
0.0
 70
   128
 71
   146
 72
   174
 73
   173
  0
VERTEX
  5
1181
  8
PROFIL
 10
0.0
 20
0.0
 30
0.0
 70
   128
 71
   175
 72
   174
 73
   146
  0
VERTEX
  5
1182
  8
PROFIL
 10
0.0
 20
0.0
 30
0.0
 70
   128
 71
   135
 72
   176
 73
   136
  0
VERTEX
  5
1183
  8
PROFIL
 10
0.0
 20
0.0
 30
0.0
 70
   128
 71
   135
 72
   177
 73
   176
  0
VERTEX
  5
1184
  8
PROFIL
 10
0.0
 20
0.0
 30
0.0
 70
   128
 71
   135
 72
   178
 73
   177
  0
VERTEX
  5
1185
  8
PROFIL
 10
0.0
 20
0.0
 30
0.0
 70
   128
 71
   135
 72
   179
 73
   178
  0
VERTEX
  5
1186
  8
PROFIL
 10
0.0
 20
0.0
 30
0.0
 70
   128
 71
   135
 72
   180
 73
   179
  0
VERTEX
  5
1187
  8
PROFIL
 10
0.0
 20
0.0
 30
0.0
 70
   128
 71
   135
 72
   181
 73
   180
  0
VERTEX
  5
1188
  8
PROFIL
 10
0.0
 20
0.0
 30
0.0
 70
   128
 71
   135
 72
   182
 73
   181
  0
VERTEX
  5
1189
  8
PROFIL
 10
0.0
 20
0.0
 30
0.0
 70
   128
 71
   135
 72
   183
 73
   182
  0
VERTEX
  5
118A
  8
PROFIL
 10
0.0
 20
0.0
 30
0.0
 70
   128
 71
   135
 72
   184
 73
   183
  0
VERTEX
  5
118B
  8
PROFIL
 10
0.0
 20
0.0
 30
0.0
 70
   128
 71
   135
 72
   185
 73
   184
  0
VERTEX
  5
118C
  8
PROFIL
 10
0.0
 20
0.0
 30
0.0
 70
   128
 71
   135
 72
   186
 73
   185
  0
VERTEX
  5
118D
  8
PROFIL
 10
0.0
 20
0.0
 30
0.0
 70
   128
 71
   135
 72
   187
 73
   186
  0
VERTEX
  5
118E
  8
PROFIL
 10
0.0
 20
0.0
 30
0.0
 70
   128
 71
   135
 72
   188
 73
   187
  0
VERTEX
  5
118F
  8
PROFIL
 10
0.0
 20
0.0
 30
0.0
 70
   128
 71
   135
 72
   189
 73
   188
  0
VERTEX
  5
1190
  8
PROFIL
 10
0.0
 20
0.0
 30
0.0
 70
   128
 71
   135
 72
   190
 73
   189
  0
VERTEX
  5
1191
  8
PROFIL
 10
0.0
 20
0.0
 30
0.0
 70
   128
 71
   135
 72
   191
 73
   190
  0
VERTEX
  5
1192
  8
PROFIL
 10
0.0
 20
0.0
 30
0.0
 70
   128
 71
   135
 72
   192
 73
   191
  0
VERTEX
  5
1193
  8
PROFIL
 10
0.0
 20
0.0
 30
0.0
 70
   128
 71
   135
 72
   193
 73
   192
  0
VERTEX
  5
1194
  8
PROFIL
 10
0.0
 20
0.0
 30
0.0
 70
   128
 71
   194
 72
   193
 73
   135
  0
VERTEX
  5
1195
  8
PROFIL
 10
0.0
 20
0.0
 30
0.0
 70
   128
 71
   194
 72
   195
 73
   193
  0
VERTEX
  5
1196
  8
PROFIL
 10
0.0
 20
0.0
 30
0.0
 70
   128
 71
   194
 72
   196
 73
   195
  0
VERTEX
  5
1197
  8
PROFIL
 10
0.0
 20
0.0
 30
0.0
 70
   128
 71
   194
 72
   197
 73
   196
  0
VERTEX
  5
1198
  8
PROFIL
 10
0.0
 20
0.0
 30
0.0
 70
   128
 71
   194
 72
   198
 73
   197
  0
VERTEX
  5
1199
  8
PROFIL
 10
0.0
 20
0.0
 30
0.0
 70
   128
 71
   194
 72
   199
 73
   198
  0
VERTEX
  5
119A
  8
PROFIL
 10
0.0
 20
0.0
 30
0.0
 70
   128
 71
   194
 72
   200
 73
   199
  0
VERTEX
  5
119B
  8
PROFIL
 10
0.0
 20
0.0
 30
0.0
 70
   128
 71
   194
 72
   201
 73
   200
  0
VERTEX
  5
119C
  8
PROFIL
 10
0.0
 20
0.0
 30
0.0
 70
   128
 71
   194
 72
   202
 73
   201
  0
VERTEX
  5
119D
  8
PROFIL
 10
0.0
 20
0.0
 30
0.0
 70
   128
 71
   194
 72
   203
 73
   202
  0
VERTEX
  5
119E
  8
PROFIL
 10
0.0
 20
0.0
 30
0.0
 70
   128
 71
   174
 72
   203
 73
   194
  0
VERTEX
  5
119F
  8
PROFIL
 10
0.0
 20
0.0
 30
0.0
 70
   128
 71
   175
 72
   203
 73
   174
  0
VERTEX
  5
11A0
  8
PROFIL
 10
0.0
 20
0.0
 30
0.0
 70
   128
 71
   165
 72
   203
 73
   175
  0
VERTEX
  5
11A1
  8
PROFIL
 10
0.0
 20
0.0
 30
0.0
 70
   128
 71
   165
 72
   204
 73
   203
  0
VERTEX
  5
11A2
  8
PROFIL
 10
0.0
 20
0.0
 30
0.0
 70
   128
 71
   164
 72
   204
 73
   165
  0
VERTEX
  5
11A3
  8
PROFIL
 10
0.0
 20
0.0
 30
0.0
 70
   128
 71
   164
 72
   205
 73
   204
  0
VERTEX
  5
11A4
  8
PROFIL
 10
0.0
 20
0.0
 30
0.0
 70
   128
 71
   206
 72
   205
 73
   164
  0
VERTEX
  5
11A5
  8
PROFIL
 10
0.0
 20
0.0
 30
0.0
 70
   128
 71
   206
 72
   207
 73
   205
  0
VERTEX
  5
11A6
  8
PROFIL
 10
0.0
 20
0.0
 30
0.0
 70
   128
 71
   206
 72
   208
 73
   207
  0
VERTEX
  5
11A7
  8
PROFIL
 10
0.0
 20
0.0
 30
0.0
 70
   128
 71
   209
 72
   208
 73
   206
  0
VERTEX
  5
11A8
  8
PROFIL
 10
0.0
 20
0.0
 30
0.0
 70
   128
 71
   209
 72
   210
 73
   208
  0
VERTEX
  5
11A9
  8
PROFIL
 10
0.0
 20
0.0
 30
0.0
 70
   128
 71
   211
 72
   210
 73
   209
  0
VERTEX
  5
11AA
  8
PROFIL
 10
0.0
 20
0.0
 30
0.0
 70
   128
 71
   211
 72
   212
 73
   210
  0
VERTEX
  5
11AB
  8
PROFIL
 10
0.0
 20
0.0
 30
0.0
 70
   128
 71
   211
 72
   213
 73
   212
  0
VERTEX
  5
11AC
  8
PROFIL
 10
0.0
 20
0.0
 30
0.0
 70
   128
 71
   214
 72
   213
 73
   211
  0
VERTEX
  5
11AD
  8
PROFIL
 10
0.0
 20
0.0
 30
0.0
 70
   128
 71
   214
 72
   215
 73
   213
  0
VERTEX
  5
11AE
  8
PROFIL
 10
0.0
 20
0.0
 30
0.0
 70
   128
 71
   216
 72
   215
 73
   214
  0
VERTEX
  5
11AF
  8
PROFIL
 10
0.0
 20
0.0
 30
0.0
 70
   128
 71
   216
 72
   217
 73
   215
  0
VERTEX
  5
11B0
  8
PROFIL
 10
0.0
 20
0.0
 30
0.0
 70
   128
 71
   216
 72
   218
 73
   217
  0
VERTEX
  5
11B1
  8
PROFIL
 10
0.0
 20
0.0
 30
0.0
 70
   128
 71
   216
 72
   219
 73
   218
  0
VERTEX
  5
11B2
  8
PROFIL
 10
0.0
 20
0.0
 30
0.0
 70
   128
 71
   216
 72
   220
 73
   219
  0
VERTEX
  5
11B3
  8
PROFIL
 10
0.0
 20
0.0
 30
0.0
 70
   128
 71
   216
 72
   221
 73
   220
  0
VERTEX
  5
11B4
  8
PROFIL
 10
0.0
 20
0.0
 30
0.0
 70
   128
 71
   216
 72
   222
 73
   221
  0
VERTEX
  5
11B5
  8
PROFIL
 10
0.0
 20
0.0
 30
0.0
 70
   128
 71
   216
 72
   223
 73
   222
  0
VERTEX
  5
11B6
  8
PROFIL
 10
0.0
 20
0.0
 30
0.0
 70
   128
 71
   216
 72
   224
 73
   223
  0
VERTEX
  5
11B7
  8
PROFIL
 10
0.0
 20
0.0
 30
0.0
 70
   128
 71
   216
 72
   225
 73
   224
  0
VERTEX
  5
11B8
  8
PROFIL
 10
0.0
 20
0.0
 30
0.0
 70
   128
 71
   216
 72
   226
 73
   225
  0
VERTEX
  5
11B9
  8
PROFIL
 10
0.0
 20
0.0
 30
0.0
 70
   128
 71
   227
 72
   226
 73
   216
  0
VERTEX
  5
11BA
  8
PROFIL
 10
0.0
 20
0.0
 30
0.0
 70
   128
 71
   227
 72
   228
 73
   226
  0
VERTEX
  5
11BB
  8
PROFIL
 10
0.0
 20
0.0
 30
0.0
 70
   128
 71
   227
 72
   229
 73
   228
  0
VERTEX
  5
11BC
  8
PROFIL
 10
0.0
 20
0.0
 30
0.0
 70
   128
 71
   227
 72
   230
 73
   229
  0
VERTEX
  5
11BD
  8
PROFIL
 10
0.0
 20
0.0
 30
0.0
 70
   128
 71
   227
 72
   231
 73
   230
  0
VERTEX
  5
11BE
  8
PROFIL
 10
0.0
 20
0.0
 30
0.0
 70
   128
 71
   227
 72
   232
 73
   231
  0
VERTEX
  5
11BF
  8
PROFIL
 10
0.0
 20
0.0
 30
0.0
 70
   128
 71
   227
 72
   233
 73
   232
  0
VERTEX
  5
11C0
  8
PROFIL
 10
0.0
 20
0.0
 30
0.0
 70
   128
 71
   227
 72
   234
 73
   233
  0
VERTEX
  5
11C1
  8
PROFIL
 10
0.0
 20
0.0
 30
0.0
 70
   128
 71
   227
 72
   235
 73
   234
  0
VERTEX
  5
11C2
  8
PROFIL
 10
0.0
 20
0.0
 30
0.0
 70
   128
 71
   227
 72
   126
 73
   235
  0
VERTEX
  5
11C3
  8
PROFIL
 10
0.0
 20
0.0
 30
0.0
 70
   128
 71
   236
 72
   126
 73
   227
  0
VERTEX
  5
11C4
  8
PROFIL
 10
0.0
 20
0.0
 30
0.0
 70
   128
 71
   237
 72
   126
 73
   236
  0
VERTEX
  5
11C5
  8
PROFIL
 10
0.0
 20
0.0
 30
0.0
 70
   128
 71
   238
 72
   126
 73
   237
  0
VERTEX
  5
11C6
  8
PROFIL
 10
0.0
 20
0.0
 30
0.0
 70
   128
 71
   239
 72
   126
 73
   238
  0
VERTEX
  5
11C7
  8
PROFIL
 10
0.0
 20
0.0
 30
0.0
 70
   128
 71
   240
 72
   126
 73
   239
  0
VERTEX
  5
11C8
  8
PROFIL
 10
0.0
 20
0.0
 30
0.0
 70
   128
 71
   241
 72
   126
 73
   240
  0
VERTEX
  5
11C9
  8
PROFIL
 10
0.0
 20
0.0
 30
0.0
 70
   128
 71
   242
 72
   126
 73
   241
  0
VERTEX
  5
11CA
  8
PROFIL
 10
0.0
 20
0.0
 30
0.0
 70
   128
 71
   243
 72
   126
 73
   242
  0
VERTEX
  5
11CB
  8
PROFIL
 10
0.0
 20
0.0
 30
0.0
 70
   128
 71
   244
 72
   126
 73
   243
  0
VERTEX
  5
11CC
  8
PROFIL
 10
0.0
 20
0.0
 30
0.0
 70
   128
 71
   245
 72
   126
 73
   244
  0
VERTEX
  5
11CD
  8
PROFIL
 10
0.0
 20
0.0
 30
0.0
 70
   128
 71
   246
 72
   126
 73
   245
  0
VERTEX
  5
11CE
  8
PROFIL
 10
0.0
 20
0.0
 30
0.0
 70
   128
 71
   247
 72
   126
 73
   246
  0
VERTEX
  5
11CF
  8
PROFIL
 10
0.0
 20
0.0
 30
0.0
 70
   128
 71
   248
 72
   126
 73
   247
  0
VERTEX
  5
11D0
  8
PROFIL
 10
0.0
 20
0.0
 30
0.0
 70
   128
 71
   249
 72
   126
 73
   248
  0
VERTEX
  5
11D1
  8
PROFIL
 10
0.0
 20
0.0
 30
0.0
 70
   128
 71
   250
 72
   126
 73
   249
  0
VERTEX
  5
11D2
  8
PROFIL
 10
0.0
 20
0.0
 30
0.0
 70
   128
 71
   127
 72
   126
 73
   250
  0
VERTEX
  5
11D3
  8
PROFIL
 10
0.0
 20
0.0
 30
0.0
 70
   128
 71
   251
 72
   252
 73
   253
  0
VERTEX
  5
11D4
  8
PROFIL
 10
0.0
 20
0.0
 30
0.0
 70
   128
 71
   252
 72
   251
 73
   254
  0
VERTEX
  5
11D5
  8
PROFIL
 10
0.0
 20
0.0
 30
0.0
 70
   128
 71
   255
 72
   256
 73
   257
  0
VERTEX
  5
11D6
  8
PROFIL
 10
0.0
 20
0.0
 30
0.0
 70
   128
 71
   256
 72
   255
 73
   258
  0
VERTEX
  5
11D7
  8
PROFIL
 10
0.0
 20
0.0
 30
0.0
 70
   128
 71
   259
 72
   260
 73
   261
  0
VERTEX
  5
11D8
  8
PROFIL
 10
0.0
 20
0.0
 30
0.0
 70
   128
 71
   260
 72
   259
 73
   262
  0
VERTEX
  5
11D9
  8
PROFIL
 10
0.0
 20
0.0
 30
0.0
 70
   128
 71
   263
 72
   264
 73
   265
  0
VERTEX
  5
11DA
  8
PROFIL
 10
0.0
 20
0.0
 30
0.0
 70
   128
 71
   264
 72
   263
 73
   266
  0
VERTEX
  5
11DB
  8
PROFIL
 10
0.0
 20
0.0
 30
0.0
 70
   128
 71
   267
 72
   268
 73
   269
  0
VERTEX
  5
11DC
  8
PROFIL
 10
0.0
 20
0.0
 30
0.0
 70
   128
 71
   268
 72
   267
 73
   270
  0
VERTEX
  5
11DD
  8
PROFIL
 10
0.0
 20
0.0
 30
0.0
 70
   128
 71
   271
 72
   272
 73
   273
  0
VERTEX
  5
11DE
  8
PROFIL
 10
0.0
 20
0.0
 30
0.0
 70
   128
 71
   274
 72
   275
 73
   276
  0
VERTEX
  5
11DF
  8
PROFIL
 10
0.0
 20
0.0
 30
0.0
 70
   128
 71
   274
 72
   277
 73
   275
  0
VERTEX
  5
11E0
  8
PROFIL
 10
0.0
 20
0.0
 30
0.0
 70
   128
 71
   278
 72
   277
 73
   274
  0
VERTEX
  5
11E1
  8
PROFIL
 10
0.0
 20
0.0
 30
0.0
 70
   128
 71
   278
 72
   279
 73
   277
  0
VERTEX
  5
11E2
  8
PROFIL
 10
0.0
 20
0.0
 30
0.0
 70
   128
 71
   280
 72
   279
 73
   278
  0
VERTEX
  5
11E3
  8
PROFIL
 10
0.0
 20
0.0
 30
0.0
 70
   128
 71
   280
 72
   281
 73
   279
  0
VERTEX
  5
11E4
  8
PROFIL
 10
0.0
 20
0.0
 30
0.0
 70
   128
 71
   282
 72
   281
 73
   280
  0
VERTEX
  5
11E5
  8
PROFIL
 10
0.0
 20
0.0
 30
0.0
 70
   128
 71
   282
 72
   283
 73
   281
  0
VERTEX
  5
11E6
  8
PROFIL
 10
0.0
 20
0.0
 30
0.0
 70
   128
 71
   284
 72
   283
 73
   282
  0
VERTEX
  5
11E7
  8
PROFIL
 10
0.0
 20
0.0
 30
0.0
 70
   128
 71
   284
 72
   285
 73
   283
  0
VERTEX
  5
11E8
  8
PROFIL
 10
0.0
 20
0.0
 30
0.0
 70
   128
 71
   286
 72
   285
 73
   284
  0
VERTEX
  5
11E9
  8
PROFIL
 10
0.0
 20
0.0
 30
0.0
 70
   128
 71
   286
 72
   287
 73
   285
  0
VERTEX
  5
11EA
  8
PROFIL
 10
0.0
 20
0.0
 30
0.0
 70
   128
 71
   288
 72
   287
 73
   286
  0
VERTEX
  5
11EB
  8
PROFIL
 10
0.0
 20
0.0
 30
0.0
 70
   128
 71
   288
 72
   271
 73
   287
  0
VERTEX
  5
11EC
  8
PROFIL
 10
0.0
 20
0.0
 30
0.0
 70
   128
 71
   272
 72
   271
 73
   288
  0
VERTEX
  5
11ED
  8
PROFIL
 10
0.0
 20
0.0
 30
0.0
 70
   128
 71
   289
 72
   290
 73
   291
  0
VERTEX
  5
11EE
  8
PROFIL
 10
0.0
 20
0.0
 30
0.0
 70
   128
 71
   290
 72
   289
 73
   292
  0
VERTEX
  5
11EF
  8
PROFIL
 10
0.0
 20
0.0
 30
0.0
 70
   128
 71
   293
 72
   294
 73
   295
  0
VERTEX
  5
11F0
  8
PROFIL
 10
0.0
 20
0.0
 30
0.0
 70
   128
 71
   294
 72
   293
 73
   296
  0
VERTEX
  5
11F1
  8
PROFIL
 10
0.0
 20
0.0
 30
0.0
 70
   128
 71
   297
 72
   298
 73
   299
  0
VERTEX
  5
11F2
  8
PROFIL
 10
0.0
 20
0.0
 30
0.0
 70
   128
 71
   300
 72
   301
 73
   302
  0
VERTEX
  5
11F3
  8
PROFIL
 10
0.0
 20
0.0
 30
0.0
 70
   128
 71
   303
 72
   301
 73
   300
  0
VERTEX
  5
11F4
  8
PROFIL
 10
0.0
 20
0.0
 30
0.0
 70
   128
 71
   303
 72
   304
 73
   301
  0
VERTEX
  5
11F5
  8
PROFIL
 10
0.0
 20
0.0
 30
0.0
 70
   128
 71
   305
 72
   304
 73
   303
  0
VERTEX
  5
11F6
  8
PROFIL
 10
0.0
 20
0.0
 30
0.0
 70
   128
 71
   305
 72
   306
 73
   304
  0
VERTEX
  5
11F7
  8
PROFIL
 10
0.0
 20
0.0
 30
0.0
 70
   128
 71
   307
 72
   306
 73
   305
  0
VERTEX
  5
11F8
  8
PROFIL
 10
0.0
 20
0.0
 30
0.0
 70
   128
 71
   308
 72
   306
 73
   307
  0
VERTEX
  5
11F9
  8
PROFIL
 10
0.0
 20
0.0
 30
0.0
 70
   128
 71
   308
 72
   309
 73
   306
  0
VERTEX
  5
11FA
  8
PROFIL
 10
0.0
 20
0.0
 30
0.0
 70
   128
 71
   308
 72
   310
 73
   309
  0
VERTEX
  5
11FB
  8
PROFIL
 10
0.0
 20
0.0
 30
0.0
 70
   128
 71
   311
 72
   310
 73
   308
  0
VERTEX
  5
11FC
  8
PROFIL
 10
0.0
 20
0.0
 30
0.0
 70
   128
 71
   311
 72
   312
 73
   310
  0
VERTEX
  5
11FD
  8
PROFIL
 10
0.0
 20
0.0
 30
0.0
 70
   128
 71
   313
 72
   312
 73
   311
  0
VERTEX
  5
11FE
  8
PROFIL
 10
0.0
 20
0.0
 30
0.0
 70
   128
 71
   313
 72
   314
 73
   312
  0
VERTEX
  5
11FF
  8
PROFIL
 10
0.0
 20
0.0
 30
0.0
 70
   128
 71
   298
 72
   314
 73
   313
  0
VERTEX
  5
1200
  8
PROFIL
 10
0.0
 20
0.0
 30
0.0
 70
   128
 71
   298
 72
   297
 73
   314
  0
VERTEX
  5
1201
  8
PROFIL
 10
0.0
 20
0.0
 30
0.0
 70
   128
 71
   315
 72
   316
 73
   317
  0
VERTEX
  5
1202
  8
PROFIL
 10
0.0
 20
0.0
 30
0.0
 70
   128
 71
   316
 72
   315
 73
   318
  0
VERTEX
  5
1203
  8
PROFIL
 10
0.0
 20
0.0
 30
0.0
 70
   128
 71
   319
 72
   320
 73
   321
  0
VERTEX
  5
1204
  8
PROFIL
 10
0.0
 20
0.0
 30
0.0
 70
   128
 71
   320
 72
   319
 73
   322
  0
VERTEX
  5
1205
  8
PROFIL
 10
0.0
 20
0.0
 30
0.0
 70
   128
 71
   323
 72
   324
 73
   325
  0
VERTEX
  5
1206
  8
PROFIL
 10
0.0
 20
0.0
 30
0.0
 70
   128
 71
   324
 72
   323
 73
   326
  0
VERTEX
  5
1207
  8
PROFIL
 10
0.0
 20
0.0
 30
0.0
 70
   128
 71
   327
 72
   328
 73
   329
  0
VERTEX
  5
1208
  8
PROFIL
 10
0.0
 20
0.0
 30
0.0
 70
   128
 71
   328
 72
   327
 73
   330
  0
VERTEX
  5
1209
  8
PROFIL
 10
0.0
 20
0.0
 30
0.0
 70
   128
 71
   331
 72
   332
 73
   333
  0
VERTEX
  5
120A
  8
PROFIL
 10
0.0
 20
0.0
 30
0.0
 70
   128
 71
   334
 72
   335
 73
   336
  0
VERTEX
  5
120B
  8
PROFIL
 10
0.0
 20
0.0
 30
0.0
 70
   128
 71
   332
 72
   335
 73
   334
  0
VERTEX
  5
120C
  8
PROFIL
 10
0.0
 20
0.0
 30
0.0
 70
   128
 71
   332
 72
   331
 73
   335
  0
VERTEX
  5
120D
  8
PROFIL
 10
0.0
 20
0.0
 30
0.0
 70
   128
 71
   337
 72
   338
 73
   339
  0
VERTEX
  5
120E
  8
PROFIL
 10
0.0
 20
0.0
 30
0.0
 70
   128
 71
   338
 72
   337
 73
   340
  0
VERTEX
  5
120F
  8
PROFIL
 10
0.0
 20
0.0
 30
0.0
 70
   128
 71
   341
 72
   342
 73
   343
  0
VERTEX
  5
1210
  8
PROFIL
 10
0.0
 20
0.0
 30
0.0
 70
   128
 71
   344
 72
   345
 73
   346
  0
VERTEX
  5
1211
  8
PROFIL
 10
0.0
 20
0.0
 30
0.0
 70
   128
 71
   344
 72
   347
 73
   345
  0
VERTEX
  5
1212
  8
PROFIL
 10
0.0
 20
0.0
 30
0.0
 70
   128
 71
   348
 72
   347
 73
   344
  0
VERTEX
  5
1213
  8
PROFIL
 10
0.0
 20
0.0
 30
0.0
 70
   128
 71
   348
 72
   349
 73
   347
  0
VERTEX
  5
1214
  8
PROFIL
 10
0.0
 20
0.0
 30
0.0
 70
   128
 71
   350
 72
   349
 73
   348
  0
VERTEX
  5
1215
  8
PROFIL
 10
0.0
 20
0.0
 30
0.0
 70
   128
 71
   350
 72
   351
 73
   349
  0
VERTEX
  5
1216
  8
PROFIL
 10
0.0
 20
0.0
 30
0.0
 70
   128
 71
   352
 72
   351
 73
   350
  0
VERTEX
  5
1217
  8
PROFIL
 10
0.0
 20
0.0
 30
0.0
 70
   128
 71
   352
 72
   353
 73
   351
  0
VERTEX
  5
1218
  8
PROFIL
 10
0.0
 20
0.0
 30
0.0
 70
   128
 71
   354
 72
   353
 73
   352
  0
VERTEX
  5
1219
  8
PROFIL
 10
0.0
 20
0.0
 30
0.0
 70
   128
 71
   354
 72
   355
 73
   353
  0
VERTEX
  5
121A
  8
PROFIL
 10
0.0
 20
0.0
 30
0.0
 70
   128
 71
   356
 72
   355
 73
   354
  0
VERTEX
  5
121B
  8
PROFIL
 10
0.0
 20
0.0
 30
0.0
 70
   128
 71
   356
 72
   357
 73
   355
  0
VERTEX
  5
121C
  8
PROFIL
 10
0.0
 20
0.0
 30
0.0
 70
   128
 71
   358
 72
   357
 73
   356
  0
VERTEX
  5
121D
  8
PROFIL
 10
0.0
 20
0.0
 30
0.0
 70
   128
 71
   358
 72
   341
 73
   357
  0
VERTEX
  5
121E
  8
PROFIL
 10
0.0
 20
0.0
 30
0.0
 70
   128
 71
   342
 72
   341
 73
   358
  0
VERTEX
  5
121F
  8
PROFIL
 10
0.0
 20
0.0
 30
0.0
 70
   128
 71
   359
 72
   360
 73
   361
  0
VERTEX
  5
1220
  8
PROFIL
 10
0.0
 20
0.0
 30
0.0
 70
   128
 71
   360
 72
   359
 73
   362
  0
VERTEX
  5
1221
  8
PROFIL
 10
0.0
 20
0.0
 30
0.0
 70
   128
 71
   363
 72
   364
 73
   365
  0
VERTEX
  5
1222
  8
PROFIL
 10
0.0
 20
0.0
 30
0.0
 70
   128
 71
   364
 72
   363
 73
   366
  0
VERTEX
  5
1223
  8
PROFIL
 10
0.0
 20
0.0
 30
0.0
 70
   128
 71
   367
 72
   368
 73
   369
  0
VERTEX
  5
1224
  8
PROFIL
 10
0.0
 20
0.0
 30
0.0
 70
   128
 71
   370
 72
   371
 73
   372
  0
VERTEX
  5
1225
  8
PROFIL
 10
0.0
 20
0.0
 30
0.0
 70
   128
 71
   368
 72
   371
 73
   370
  0
VERTEX
  5
1226
  8
PROFIL
 10
0.0
 20
0.0
 30
0.0
 70
   128
 71
   368
 72
   367
 73
   371
  0
VERTEX
  5
1227
  8
PROFIL
 10
0.0
 20
0.0
 30
0.0
 70
   128
 71
   373
 72
   374
 73
   375
  0
VERTEX
  5
1228
  8
PROFIL
 10
0.0
 20
0.0
 30
0.0
 70
   128
 71
   376
 72
   377
 73
   378
  0
VERTEX
  5
1229
  8
PROFIL
 10
0.0
 20
0.0
 30
0.0
 70
   128
 71
   379
 72
   377
 73
   376
  0
VERTEX
  5
122A
  8
PROFIL
 10
0.0
 20
0.0
 30
0.0
 70
   128
 71
   379
 72
   380
 73
   377
  0
VERTEX
  5
122B
  8
PROFIL
 10
0.0
 20
0.0
 30
0.0
 70
   128
 71
   381
 72
   380
 73
   379
  0
VERTEX
  5
122C
  8
PROFIL
 10
0.0
 20
0.0
 30
0.0
 70
   128
 71
   381
 72
   382
 73
   380
  0
VERTEX
  5
122D
  8
PROFIL
 10
0.0
 20
0.0
 30
0.0
 70
   128
 71
   383
 72
   382
 73
   381
  0
VERTEX
  5
122E
  8
PROFIL
 10
0.0
 20
0.0
 30
0.0
 70
   128
 71
   383
 72
   384
 73
   382
  0
VERTEX
  5
122F
  8
PROFIL
 10
0.0
 20
0.0
 30
0.0
 70
   128
 71
   385
 72
   384
 73
   383
  0
VERTEX
  5
1230
  8
PROFIL
 10
0.0
 20
0.0
 30
0.0
 70
   128
 71
   385
 72
   386
 73
   384
  0
VERTEX
  5
1231
  8
PROFIL
 10
0.0
 20
0.0
 30
0.0
 70
   128
 71
   387
 72
   386
 73
   385
  0
VERTEX
  5
1232
  8
PROFIL
 10
0.0
 20
0.0
 30
0.0
 70
   128
 71
   387
 72
   388
 73
   386
  0
VERTEX
  5
1233
  8
PROFIL
 10
0.0
 20
0.0
 30
0.0
 70
   128
 71
   389
 72
   388
 73
   387
  0
VERTEX
  5
1234
  8
PROFIL
 10
0.0
 20
0.0
 30
0.0
 70
   128
 71
   389
 72
   390
 73
   388
  0
VERTEX
  5
1235
  8
PROFIL
 10
0.0
 20
0.0
 30
0.0
 70
   128
 71
   374
 72
   390
 73
   389
  0
VERTEX
  5
1236
  8
PROFIL
 10
0.0
 20
0.0
 30
0.0
 70
   128
 71
   374
 72
   373
 73
   390
  0
VERTEX
  5
1237
  8
PROFIL
 10
0.0
 20
0.0
 30
0.0
 70
   128
 71
   391
 72
   392
 73
   393
  0
VERTEX
  5
1238
  8
PROFIL
 10
0.0
 20
0.0
 30
0.0
 70
   128
 71
   392
 72
   391
 73
   394
  0
VERTEX
  5
1239
  8
PROFIL
 10
0.0
 20
0.0
 30
0.0
 70
   128
 71
   395
 72
   396
 73
   397
  0
VERTEX
  5
123A
  8
PROFIL
 10
0.0
 20
0.0
 30
0.0
 70
   128
 71
   398
 72
   399
 73
   400
  0
VERTEX
  5
123B
  8
PROFIL
 10
0.0
 20
0.0
 30
0.0
 70
   128
 71
   401
 72
   399
 73
   398
  0
VERTEX
  5
123C
  8
PROFIL
 10
0.0
 20
0.0
 30
0.0
 70
   128
 71
   397
 72
   399
 73
   401
  0
VERTEX
  5
123D
  8
PROFIL
 10
0.0
 20
0.0
 30
0.0
 70
   128
 71
   397
 72
   396
 73
   399
  0
VERTEX
  5
123E
  8
PROFIL
 10
0.0
 20
0.0
 30
0.0
 70
   128
 71
   402
 72
   403
 73
   404
  0
VERTEX
  5
123F
  8
PROFIL
 10
0.0
 20
0.0
 30
0.0
 70
   128
 71
   402
 72
   405
 73
   403
  0
VERTEX
  5
1240
  8
PROFIL
 10
0.0
 20
0.0
 30
0.0
 70
   128
 71
   406
 72
   405
 73
   402
  0
VERTEX
  5
1241
  8
PROFIL
 10
0.0
 20
0.0
 30
0.0
 70
   128
 71
   406
 72
   407
 73
   405
  0
VERTEX
  5
1242
  8
PROFIL
 10
0.0
 20
0.0
 30
0.0
 70
   128
 71
   408
 72
   407
 73
   406
  0
VERTEX
  5
1243
  8
PROFIL
 10
0.0
 20
0.0
 30
0.0
 70
   128
 71
   408
 72
   409
 73
   407
  0
VERTEX
  5
1244
  8
PROFIL
 10
0.0
 20
0.0
 30
0.0
 70
   128
 71
   410
 72
   409
 73
   408
  0
VERTEX
  5
1245
  8
PROFIL
 10
0.0
 20
0.0
 30
0.0
 70
   128
 71
   410
 72
   411
 73
   409
  0
VERTEX
  5
1246
  8
PROFIL
 10
0.0
 20
0.0
 30
0.0
 70
   128
 71
   412
 72
   411
 73
   410
  0
VERTEX
  5
1247
  8
PROFIL
 10
0.0
 20
0.0
 30
0.0
 70
   128
 71
   412
 72
   395
 73
   411
  0
VERTEX
  5
1248
  8
PROFIL
 10
0.0
 20
0.0
 30
0.0
 70
   128
 71
   396
 72
   395
 73
   412
  0
VERTEX
  5
1249
  8
PROFIL
 10
0.0
 20
0.0
 30
0.0
 70
   128
 71
   413
 72
   414
 73
   415
  0
VERTEX
  5
124A
  8
PROFIL
 10
0.0
 20
0.0
 30
0.0
 70
   128
 71
   414
 72
   413
 73
   416
  0
VERTEX
  5
124B
  8
PROFIL
 10
0.0
 20
0.0
 30
0.0
 70
   128
 71
   417
 72
   418
 73
   419
  0
VERTEX
  5
124C
  8
PROFIL
 10
0.0
 20
0.0
 30
0.0
 70
   128
 71
   418
 72
   417
 73
   420
  0
VERTEX
  5
124D
  8
PROFIL
 10
0.0
 20
0.0
 30
0.0
 70
   128
 71
   421
 72
   422
 73
   423
  0
VERTEX
  5
124E
  8
PROFIL
 10
0.0
 20
0.0
 30
0.0
 70
   128
 71
   422
 72
   421
 73
   424
  0
VERTEX
  5
124F
  8
PROFIL
 10
0.0
 20
0.0
 30
0.0
 70
   128
 71
   425
 72
   426
 73
   427
  0
VERTEX
  5
1250
  8
PROFIL
 10
0.0
 20
0.0
 30
0.0
 70
   128
 71
   428
 72
   429
 73
   430
  0
VERTEX
  5
1251
  8
PROFIL
 10
0.0
 20
0.0
 30
0.0
 70
   128
 71
   428
 72
   431
 73
   429
  0
VERTEX
  5
1252
  8
PROFIL
 10
0.0
 20
0.0
 30
0.0
 70
   128
 71
   432
 72
   431
 73
   428
  0
VERTEX
  5
1253
  8
PROFIL
 10
0.0
 20
0.0
 30
0.0
 70
   128
 71
   432
 72
   433
 73
   431
  0
VERTEX
  5
1254
  8
PROFIL
 10
0.0
 20
0.0
 30
0.0
 70
   128
 71
   434
 72
   433
 73
   432
  0
VERTEX
  5
1255
  8
PROFIL
 10
0.0
 20
0.0
 30
0.0
 70
   128
 71
   434
 72
   435
 73
   433
  0
VERTEX
  5
1256
  8
PROFIL
 10
0.0
 20
0.0
 30
0.0
 70
   128
 71
   436
 72
   435
 73
   434
  0
VERTEX
  5
1257
  8
PROFIL
 10
0.0
 20
0.0
 30
0.0
 70
   128
 71
   436
 72
   437
 73
   435
  0
VERTEX
  5
1258
  8
PROFIL
 10
0.0
 20
0.0
 30
0.0
 70
   128
 71
   438
 72
   437
 73
   436
  0
VERTEX
  5
1259
  8
PROFIL
 10
0.0
 20
0.0
 30
0.0
 70
   128
 71
   438
 72
   439
 73
   437
  0
VERTEX
  5
125A
  8
PROFIL
 10
0.0
 20
0.0
 30
0.0
 70
   128
 71
   440
 72
   439
 73
   438
  0
VERTEX
  5
125B
  8
PROFIL
 10
0.0
 20
0.0
 30
0.0
 70
   128
 71
   440
 72
   441
 73
   439
  0
VERTEX
  5
125C
  8
PROFIL
 10
0.0
 20
0.0
 30
0.0
 70
   128
 71
   442
 72
   441
 73
   440
  0
VERTEX
  5
125D
  8
PROFIL
 10
0.0
 20
0.0
 30
0.0
 70
   128
 71
   442
 72
   425
 73
   441
  0
VERTEX
  5
125E
  8
PROFIL
 10
0.0
 20
0.0
 30
0.0
 70
   128
 71
   426
 72
   425
 73
   442
  0
VERTEX
  5
125F
  8
PROFIL
 10
0.0
 20
0.0
 30
0.0
 70
   128
 71
   443
 72
   444
 73
   445
  0
VERTEX
  5
1260
  8
PROFIL
 10
0.0
 20
0.0
 30
0.0
 70
   128
 71
   444
 72
   443
 73
   446
  0
VERTEX
  5
1261
  8
PROFIL
 10
0.0
 20
0.0
 30
0.0
 70
   128
 71
   447
 72
   448
 73
   449
  0
VERTEX
  5
1262
  8
PROFIL
 10
0.0
 20
0.0
 30
0.0
 70
   128
 71
   450
 72
   451
 73
   452
  0
VERTEX
  5
1263
  8
PROFIL
 10
0.0
 20
0.0
 30
0.0
 70
   128
 71
   450
 72
   453
 73
   451
  0
VERTEX
  5
1264
  8
PROFIL
 10
0.0
 20
0.0
 30
0.0
 70
   128
 71
   454
 72
   453
 73
   450
  0
VERTEX
  5
1265
  8
PROFIL
 10
0.0
 20
0.0
 30
0.0
 70
   128
 71
   454
 72
   455
 73
   453
  0
VERTEX
  5
1266
  8
PROFIL
 10
0.0
 20
0.0
 30
0.0
 70
   128
 71
   456
 72
   455
 73
   454
  0
VERTEX
  5
1267
  8
PROFIL
 10
0.0
 20
0.0
 30
0.0
 70
   128
 71
   456
 72
   457
 73
   455
  0
VERTEX
  5
1268
  8
PROFIL
 10
0.0
 20
0.0
 30
0.0
 70
   128
 71
   458
 72
   457
 73
   456
  0
VERTEX
  5
1269
  8
PROFIL
 10
0.0
 20
0.0
 30
0.0
 70
   128
 71
   458
 72
   459
 73
   457
  0
VERTEX
  5
126A
  8
PROFIL
 10
0.0
 20
0.0
 30
0.0
 70
   128
 71
   460
 72
   459
 73
   458
  0
VERTEX
  5
126B
  8
PROFIL
 10
0.0
 20
0.0
 30
0.0
 70
   128
 71
   460
 72
   461
 73
   459
  0
VERTEX
  5
126C
  8
PROFIL
 10
0.0
 20
0.0
 30
0.0
 70
   128
 71
   462
 72
   461
 73
   460
  0
VERTEX
  5
126D
  8
PROFIL
 10
0.0
 20
0.0
 30
0.0
 70
   128
 71
   462
 72
   463
 73
   461
  0
VERTEX
  5
126E
  8
PROFIL
 10
0.0
 20
0.0
 30
0.0
 70
   128
 71
   464
 72
   463
 73
   462
  0
VERTEX
  5
126F
  8
PROFIL
 10
0.0
 20
0.0
 30
0.0
 70
   128
 71
   464
 72
   447
 73
   463
  0
VERTEX
  5
1270
  8
PROFIL
 10
0.0
 20
0.0
 30
0.0
 70
   128
 71
   448
 72
   447
 73
   464
  0
VERTEX
  5
1271
  8
PROFIL
 10
0.0
 20
0.0
 30
0.0
 70
   128
 71
   465
 72
   466
 73
   467
  0
VERTEX
  5
1272
  8
PROFIL
 10
0.0
 20
0.0
 30
0.0
 70
   128
 71
   466
 72
   465
 73
   468
  0
VERTEX
  5
1273
  8
PROFIL
 10
0.0
 20
0.0
 30
0.0
 70
   128
 71
   469
 72
   470
 73
   471
  0
VERTEX
  5
1274
  8
PROFIL
 10
0.0
 20
0.0
 30
0.0
 70
   128
 71
   472
 72
   473
 73
   474
  0
VERTEX
  5
1275
  8
PROFIL
 10
0.0
 20
0.0
 30
0.0
 70
   128
 71
   472
 72
   475
 73
   473
  0
VERTEX
  5
1276
  8
PROFIL
 10
0.0
 20
0.0
 30
0.0
 70
   128
 71
   476
 72
   475
 73
   472
  0
VERTEX
  5
1277
  8
PROFIL
 10
0.0
 20
0.0
 30
0.0
 70
   128
 71
   476
 72
   477
 73
   475
  0
VERTEX
  5
1278
  8
PROFIL
 10
0.0
 20
0.0
 30
0.0
 70
   128
 71
   478
 72
   477
 73
   476
  0
VERTEX
  5
1279
  8
PROFIL
 10
0.0
 20
0.0
 30
0.0
 70
   128
 71
   478
 72
   479
 73
   477
  0
VERTEX
  5
127A
  8
PROFIL
 10
0.0
 20
0.0
 30
0.0
 70
   128
 71
   480
 72
   479
 73
   478
  0
VERTEX
  5
127B
  8
PROFIL
 10
0.0
 20
0.0
 30
0.0
 70
   128
 71
   480
 72
   481
 73
   479
  0
VERTEX
  5
127C
  8
PROFIL
 10
0.0
 20
0.0
 30
0.0
 70
   128
 71
   482
 72
   481
 73
   480
  0
VERTEX
  5
127D
  8
PROFIL
 10
0.0
 20
0.0
 30
0.0
 70
   128
 71
   482
 72
   483
 73
   481
  0
VERTEX
  5
127E
  8
PROFIL
 10
0.0
 20
0.0
 30
0.0
 70
   128
 71
   484
 72
   483
 73
   482
  0
VERTEX
  5
127F
  8
PROFIL
 10
0.0
 20
0.0
 30
0.0
 70
   128
 71
   484
 72
   485
 73
   483
  0
VERTEX
  5
1280
  8
PROFIL
 10
0.0
 20
0.0
 30
0.0
 70
   128
 71
   486
 72
   485
 73
   484
  0
VERTEX
  5
1281
  8
PROFIL
 10
0.0
 20
0.0
 30
0.0
 70
   128
 71
   486
 72
   469
 73
   485
  0
VERTEX
  5
1282
  8
PROFIL
 10
0.0
 20
0.0
 30
0.0
 70
   128
 71
   470
 72
   469
 73
   486
  0
VERTEX
  5
1283
  8
PROFIL
 10
0.0
 20
0.0
 30
0.0
 70
   128
 71
   487
 72
   488
 73
   489
  0
VERTEX
  5
1284
  8
PROFIL
 10
0.0
 20
0.0
 30
0.0
 70
   128
 71
   488
 72
   487
 73
   490
  0
VERTEX
  5
1285
  8
PROFIL
 10
0.0
 20
0.0
 30
0.0
 70
   128
 71
   491
 72
   492
 73
   493
  0
VERTEX
  5
1286
  8
PROFIL
 10
0.0
 20
0.0
 30
0.0
 70
   128
 71
   494
 72
   495
 73
   496
  0
VERTEX
  5
1287
  8
PROFIL
 10
0.0
 20
0.0
 30
0.0
 70
   128
 71
   494
 72
   497
 73
   495
  0
VERTEX
  5
1288
  8
PROFIL
 10
0.0
 20
0.0
 30
0.0
 70
   128
 71
   498
 72
   497
 73
   494
  0
VERTEX
  5
1289
  8
PROFIL
 10
0.0
 20
0.0
 30
0.0
 70
   128
 71
   498
 72
   499
 73
   497
  0
VERTEX
  5
128A
  8
PROFIL
 10
0.0
 20
0.0
 30
0.0
 70
   128
 71
   500
 72
   499
 73
   498
  0
VERTEX
  5
128B
  8
PROFIL
 10
0.0
 20
0.0
 30
0.0
 70
   128
 71
   500
 72
   501
 73
   499
  0
VERTEX
  5
128C
  8
PROFIL
 10
0.0
 20
0.0
 30
0.0
 70
   128
 71
   502
 72
   501
 73
   500
  0
VERTEX
  5
128D
  8
PROFIL
 10
0.0
 20
0.0
 30
0.0
 70
   128
 71
   502
 72
   503
 73
   501
  0
VERTEX
  5
128E
  8
PROFIL
 10
0.0
 20
0.0
 30
0.0
 70
   128
 71
   504
 72
   503
 73
   502
  0
VERTEX
  5
128F
  8
PROFIL
 10
0.0
 20
0.0
 30
0.0
 70
   128
 71
   504
 72
   505
 73
   503
  0
VERTEX
  5
1290
  8
PROFIL
 10
0.0
 20
0.0
 30
0.0
 70
   128
 71
   506
 72
   505
 73
   504
  0
VERTEX
  5
1291
  8
PROFIL
 10
0.0
 20
0.0
 30
0.0
 70
   128
 71
   506
 72
   507
 73
   505
  0
VERTEX
  5
1292
  8
PROFIL
 10
0.0
 20
0.0
 30
0.0
 70
   128
 71
   508
 72
   507
 73
   506
  0
VERTEX
  5
1293
  8
PROFIL
 10
0.0
 20
0.0
 30
0.0
 70
   128
 71
   508
 72
   491
 73
   507
  0
VERTEX
  5
1294
  8
PROFIL
 10
0.0
 20
0.0
 30
0.0
 70
   128
 71
   492
 72
   491
 73
   508
  0
VERTEX
  5
1295
  8
PROFIL
 10
0.0
 20
0.0
 30
0.0
 70
   128
 71
   509
 72
   510
 73
   511
  0
VERTEX
  5
1296
  8
PROFIL
 10
0.0
 20
0.0
 30
0.0
 70
   128
 71
   510
 72
   509
 73
   512
  0
VERTEX
  5
1297
  8
PROFIL
 10
0.0
 20
0.0
 30
0.0
 70
   128
 71
   513
 72
   514
 73
   515
  0
VERTEX
  5
1298
  8
PROFIL
 10
0.0
 20
0.0
 30
0.0
 70
   128
 71
   516
 72
   517
 73
   518
  0
VERTEX
  5
1299
  8
PROFIL
 10
0.0
 20
0.0
 30
0.0
 70
   128
 71
   516
 72
   519
 73
   517
  0
VERTEX
  5
129A
  8
PROFIL
 10
0.0
 20
0.0
 30
0.0
 70
   128
 71
   520
 72
   519
 73
   516
  0
VERTEX
  5
129B
  8
PROFIL
 10
0.0
 20
0.0
 30
0.0
 70
   128
 71
   520
 72
   521
 73
   519
  0
VERTEX
  5
129C
  8
PROFIL
 10
0.0
 20
0.0
 30
0.0
 70
   128
 71
   513
 72
   521
 73
   520
  0
VERTEX
  5
129D
  8
PROFIL
 10
0.0
 20
0.0
 30
0.0
 70
   128
 71
   513
 72
   515
 73
   521
  0
VERTEX
  5
129E
  8
PROFIL
 10
0.0
 20
0.0
 30
0.0
 70
   128
 71
   522
 72
   523
 73
   524
  0
VERTEX
  5
129F
  8
PROFIL
 10
0.0
 20
0.0
 30
0.0
 70
   128
 71
   522
 72
   525
 73
   523
  0
VERTEX
  5
12A0
  8
PROFIL
 10
0.0
 20
0.0
 30
0.0
 70
   128
 71
   522
 72
   526
 73
   525
  0
VERTEX
  5
12A1
  8
PROFIL
 10
0.0
 20
0.0
 30
0.0
 70
   128
 71
   527
 72
   526
 73
   522
  0
VERTEX
  5
12A2
  8
PROFIL
 10
0.0
 20
0.0
 30
0.0
 70
   128
 71
   528
 72
   526
 73
   527
  0
VERTEX
  5
12A3
  8
PROFIL
 10
0.0
 20
0.0
 30
0.0
 70
   128
 71
   528
 72
   529
 73
   526
  0
VERTEX
  5
12A4
  8
PROFIL
 10
0.0
 20
0.0
 30
0.0
 70
   128
 71
   528
 72
   530
 73
   529
  0
VERTEX
  5
12A5
  8
PROFIL
 10
0.0
 20
0.0
 30
0.0
 70
   128
 71
   514
 72
   530
 73
   528
  0
VERTEX
  5
12A6
  8
PROFIL
 10
0.0
 20
0.0
 30
0.0
 70
   128
 71
   514
 72
   513
 73
   530
  0
VERTEX
  5
12A7
  8
PROFIL
 10
0.0
 20
0.0
 30
0.0
 70
   128
 71
   531
 72
   532
 73
   533
  0
VERTEX
  5
12A8
  8
PROFIL
 10
0.0
 20
0.0
 30
0.0
 70
   128
 71
   532
 72
   531
 73
   534
  0
VERTEX
  5
12A9
  8
PROFIL
 10
0.0
 20
0.0
 30
0.0
 70
   128
 71
   535
 72
   536
 73
   537
  0
VERTEX
  5
12AA
  8
PROFIL
 10
0.0
 20
0.0
 30
0.0
 70
   128
 71
   538
 72
   539
 73
   540
  0
VERTEX
  5
12AB
  8
PROFIL
 10
0.0
 20
0.0
 30
0.0
 70
   128
 71
   541
 72
   539
 73
   538
  0
VERTEX
  5
12AC
  8
PROFIL
 10
0.0
 20
0.0
 30
0.0
 70
   128
 71
   541
 72
   542
 73
   539
  0
VERTEX
  5
12AD
  8
PROFIL
 10
0.0
 20
0.0
 30
0.0
 70
   128
 71
   543
 72
   542
 73
   541
  0
VERTEX
  5
12AE
  8
PROFIL
 10
0.0
 20
0.0
 30
0.0
 70
   128
 71
   543
 72
   544
 73
   542
  0
VERTEX
  5
12AF
  8
PROFIL
 10
0.0
 20
0.0
 30
0.0
 70
   128
 71
   545
 72
   544
 73
   543
  0
VERTEX
  5
12B0
  8
PROFIL
 10
0.0
 20
0.0
 30
0.0
 70
   128
 71
   545
 72
   546
 73
   544
  0
VERTEX
  5
12B1
  8
PROFIL
 10
0.0
 20
0.0
 30
0.0
 70
   128
 71
   547
 72
   546
 73
   545
  0
VERTEX
  5
12B2
  8
PROFIL
 10
0.0
 20
0.0
 30
0.0
 70
   128
 71
   547
 72
   548
 73
   546
  0
VERTEX
  5
12B3
  8
PROFIL
 10
0.0
 20
0.0
 30
0.0
 70
   128
 71
   549
 72
   548
 73
   547
  0
VERTEX
  5
12B4
  8
PROFIL
 10
0.0
 20
0.0
 30
0.0
 70
   128
 71
   549
 72
   550
 73
   548
  0
VERTEX
  5
12B5
  8
PROFIL
 10
0.0
 20
0.0
 30
0.0
 70
   128
 71
   551
 72
   550
 73
   549
  0
VERTEX
  5
12B6
  8
PROFIL
 10
0.0
 20
0.0
 30
0.0
 70
   128
 71
   551
 72
   535
 73
   550
  0
VERTEX
  5
12B7
  8
PROFIL
 10
0.0
 20
0.0
 30
0.0
 70
   128
 71
   552
 72
   535
 73
   551
  0
VERTEX
  5
12B8
  8
PROFIL
 10
0.0
 20
0.0
 30
0.0
 70
   128
 71
   553
 72
   535
 73
   552
  0
VERTEX
  5
12B9
  8
PROFIL
 10
0.0
 20
0.0
 30
0.0
 70
   128
 71
   536
 72
   535
 73
   553
  0
VERTEX
  5
12BA
  8
PROFIL
 10
0.0
 20
0.0
 30
0.0
 70
   128
 71
   554
 72
   555
 73
   556
  0
VERTEX
  5
12BB
  8
PROFIL
 10
0.0
 20
0.0
 30
0.0
 70
   128
 71
   555
 72
   554
 73
   557
  0
VERTEX
  5
12BC
  8
PROFIL
 10
0.0
 20
0.0
 30
0.0
 70
   128
 71
   558
 72
   559
 73
   560
  0
VERTEX
  5
12BD
  8
PROFIL
 10
0.0
 20
0.0
 30
0.0
 70
   128
 71
   561
 72
   562
 73
   563
  0
VERTEX
  5
12BE
  8
PROFIL
 10
0.0
 20
0.0
 30
0.0
 70
   128
 71
   561
 72
   564
 73
   562
  0
VERTEX
  5
12BF
  8
PROFIL
 10
0.0
 20
0.0
 30
0.0
 70
   128
 71
   565
 72
   564
 73
   561
  0
VERTEX
  5
12C0
  8
PROFIL
 10
0.0
 20
0.0
 30
0.0
 70
   128
 71
   565
 72
   566
 73
   564
  0
VERTEX
  5
12C1
  8
PROFIL
 10
0.0
 20
0.0
 30
0.0
 70
   128
 71
   567
 72
   566
 73
   565
  0
VERTEX
  5
12C2
  8
PROFIL
 10
0.0
 20
0.0
 30
0.0
 70
   128
 71
   567
 72
   568
 73
   566
  0
VERTEX
  5
12C3
  8
PROFIL
 10
0.0
 20
0.0
 30
0.0
 70
   128
 71
   569
 72
   568
 73
   567
  0
VERTEX
  5
12C4
  8
PROFIL
 10
0.0
 20
0.0
 30
0.0
 70
   128
 71
   569
 72
   570
 73
   568
  0
VERTEX
  5
12C5
  8
PROFIL
 10
0.0
 20
0.0
 30
0.0
 70
   128
 71
   571
 72
   570
 73
   569
  0
VERTEX
  5
12C6
  8
PROFIL
 10
0.0
 20
0.0
 30
0.0
 70
   128
 71
   571
 72
   572
 73
   570
  0
VERTEX
  5
12C7
  8
PROFIL
 10
0.0
 20
0.0
 30
0.0
 70
   128
 71
   573
 72
   572
 73
   571
  0
VERTEX
  5
12C8
  8
PROFIL
 10
0.0
 20
0.0
 30
0.0
 70
   128
 71
   573
 72
   574
 73
   572
  0
VERTEX
  5
12C9
  8
PROFIL
 10
0.0
 20
0.0
 30
0.0
 70
   128
 71
   575
 72
   574
 73
   573
  0
VERTEX
  5
12CA
  8
PROFIL
 10
0.0
 20
0.0
 30
0.0
 70
   128
 71
   575
 72
   558
 73
   574
  0
VERTEX
  5
12CB
  8
PROFIL
 10
0.0
 20
0.0
 30
0.0
 70
   128
 71
   559
 72
   558
 73
   575
  0
VERTEX
  5
12CC
  8
PROFIL
 10
0.0
 20
0.0
 30
0.0
 70
   128
 71
   576
 72
   577
 73
   578
  0
VERTEX
  5
12CD
  8
PROFIL
 10
0.0
 20
0.0
 30
0.0
 70
   128
 71
   577
 72
   576
 73
   579
  0
VERTEX
  5
12CE
  8
PROFIL
 10
0.0
 20
0.0
 30
0.0
 70
   128
 71
   580
 72
   581
 73
   582
  0
VERTEX
  5
12CF
  8
PROFIL
 10
0.0
 20
0.0
 30
0.0
 70
   128
 71
   583
 72
   584
 73
   585
  0
VERTEX
  5
12D0
  8
PROFIL
 10
0.0
 20
0.0
 30
0.0
 70
   128
 71
   586
 72
   584
 73
   583
  0
VERTEX
  5
12D1
  8
PROFIL
 10
0.0
 20
0.0
 30
0.0
 70
   128
 71
   586
 72
   587
 73
   584
  0
VERTEX
  5
12D2
  8
PROFIL
 10
0.0
 20
0.0
 30
0.0
 70
   128
 71
   588
 72
   587
 73
   586
  0
VERTEX
  5
12D3
  8
PROFIL
 10
0.0
 20
0.0
 30
0.0
 70
   128
 71
   588
 72
   589
 73
   587
  0
VERTEX
  5
12D4
  8
PROFIL
 10
0.0
 20
0.0
 30
0.0
 70
   128
 71
   590
 72
   589
 73
   588
  0
VERTEX
  5
12D5
  8
PROFIL
 10
0.0
 20
0.0
 30
0.0
 70
   128
 71
   590
 72
   591
 73
   589
  0
VERTEX
  5
12D6
  8
PROFIL
 10
0.0
 20
0.0
 30
0.0
 70
   128
 71
   592
 72
   591
 73
   590
  0
VERTEX
  5
12D7
  8
PROFIL
 10
0.0
 20
0.0
 30
0.0
 70
   128
 71
   593
 72
   591
 73
   592
  0
VERTEX
  5
12D8
  8
PROFIL
 10
0.0
 20
0.0
 30
0.0
 70
   128
 71
   593
 72
   594
 73
   591
  0
VERTEX
  5
12D9
  8
PROFIL
 10
0.0
 20
0.0
 30
0.0
 70
   128
 71
   593
 72
   595
 73
   594
  0
VERTEX
  5
12DA
  8
PROFIL
 10
0.0
 20
0.0
 30
0.0
 70
   128
 71
   596
 72
   595
 73
   593
  0
VERTEX
  5
12DB
  8
PROFIL
 10
0.0
 20
0.0
 30
0.0
 70
   128
 71
   581
 72
   595
 73
   596
  0
VERTEX
  5
12DC
  8
PROFIL
 10
0.0
 20
0.0
 30
0.0
 70
   128
 71
   581
 72
   597
 73
   595
  0
VERTEX
  5
12DD
  8
PROFIL
 10
0.0
 20
0.0
 30
0.0
 70
   128
 71
   581
 72
   580
 73
   597
  0
SEQEND
  5
12DE
  8
PROFIL
  0
POLYLINE
  5
12E0
  8
KORPUS
 66
     1
 10
0.0
 20
0.0
 30
0.0
 70
    64
 71
    24
 72
    12
1001
AVE_ENTITY_MATERIAL
1002
{
1000

1002
{
1071
        0
1070
     0
1070
     0
1002
{
1070
     0
1070
     0
1070
     0
1040
0.0
1002
}
1070
     0
1070
     0
1002
{
1002
}
1002
}
1002
{
1002
}
1002
{
1002
}
1011
0.0
1021
0.0
1031
0.0
1021
0.0
1031
0.0
1011
1.0
1021
0.0
1031
0.0
1021
0.0
1031
0.0
1011
0.0
1021
0.0
1031
0.0
1021
1.0
1031
0.0
1011
0.0
1021
0.0
1031
0.0
1021
0.0
1031
1.0
1002
}
  0
VERTEX
  5
12E1
  8
KORPUS
 10
982.0
 20
70.0
 30
270.0
 70
   192
  0
VERTEX
  5
12E2
  8
KORPUS
 10
982.0
 20
88.0
 30
350.0
 70
   192
  0
VERTEX
  5
12E3
  8
KORPUS
 10
982.0
 20
70.0
 30
350.0
 70
   192
  0
VERTEX
  5
12E4
  8
KORPUS
 10
982.0
 20
88.0
 30
270.0
 70
   192
  0
VERTEX
  5
12E5
  8
KORPUS
 10
18.0
 20
88.000083923339844
 30
270.0
 70
   192
  0
VERTEX
  5
12E6
  8
KORPUS
 10
982.0
 20
70.0
 30
270.0
 70
   192
  0
VERTEX
  5
12E7
  8
KORPUS
 10
18.0
 20
70.000083923339844
 30
270.0
 70
   192
  0
VERTEX
  5
12E8
  8
KORPUS
 10
982.0
 20
88.0
 30
270.0
 70
   192
  0
VERTEX
  5
12E9
  8
KORPUS
 10
18.0
 20
88.000091552734375
 30
350.0
 70
   192
  0
VERTEX
  5
12EA
  8
KORPUS
 10
18.0
 20
70.000083923339844
 30
270.0
 70
   192
  0
VERTEX
  5
12EB
  8
KORPUS
 10
18.0
 20
70.000091552734375
 30
350.0
 70
   192
  0
VERTEX
  5
12EC
  8
KORPUS
 10
18.0
 20
88.000083923339844
 30
270.0
 70
   192
  0
VERTEX
  5
12ED
  8
KORPUS
 10
982.0
 20
88.0
 30
350.0
 70
   192
  0
VERTEX
  5
12EE
  8
KORPUS
 10
18.0
 20
70.000091552734375
 30
350.0
 70
   192
  0
VERTEX
  5
12EF
  8
KORPUS
 10
982.0
 20
70.0
 30
350.0
 70
   192
  0
VERTEX
  5
12F0
  8
KORPUS
 10
18.0
 20
88.000091552734375
 30
350.0
 70
   192
  0
VERTEX
  5
12F1
  8
KORPUS
 10
982.0
 20
70.0
 30
350.0
 70
   192
  0
VERTEX
  5
12F2
  8
KORPUS
 10
18.0
 20
70.000083923339844
 30
270.0
 70
   192
  0
VERTEX
  5
12F3
  8
KORPUS
 10
982.0
 20
70.0
 30
270.0
 70
   192
  0
VERTEX
  5
12F4
  8
KORPUS
 10
18.0
 20
70.000091552734375
 30
350.0
 70
   192
  0
VERTEX
  5
12F5
  8
KORPUS
 10
982.0
 20
88.0
 30
350.0
 70
   192
  0
VERTEX
  5
12F6
  8
KORPUS
 10
18.0
 20
88.000083923339844
 30
270.0
 70
   192
  0
VERTEX
  5
12F7
  8
KORPUS
 10
18.0
 20
88.000091552734375
 30
350.0
 70
   192
  0
VERTEX
  5
12F8
  8
KORPUS
 10
982.0
 20
88.0
 30
270.0
 70
   192
  0
VERTEX
  5
12F9
  8
KORPUS
 10
0.0
 20
0.0
 30
0.0
 70
   128
 71
     1
 72
     2
 73
     3
  0
VERTEX
  5
12FA
  8
KORPUS
 10
0.0
 20
0.0
 30
0.0
 70
   128
 71
     2
 72
     1
 73
     4
  0
VERTEX
  5
12FB
  8
KORPUS
 10
0.0
 20
0.0
 30
0.0
 70
   128
 71
     5
 72
     6
 73
     7
  0
VERTEX
  5
12FC
  8
KORPUS
 10
0.0
 20
0.0
 30
0.0
 70
   128
 71
     6
 72
     5
 73
     8
  0
VERTEX
  5
12FD
  8
KORPUS
 10
0.0
 20
0.0
 30
0.0
 70
   128
 71
     9
 72
    10
 73
    11
  0
VERTEX
  5
12FE
  8
KORPUS
 10
0.0
 20
0.0
 30
0.0
 70
   128
 71
    10
 72
     9
 73
    12
  0
VERTEX
  5
12FF
  8
KORPUS
 10
0.0
 20
0.0
 30
0.0
 70
   128
 71
    13
 72
    14
 73
    15
  0
VERTEX
  5
1300
  8
KORPUS
 10
0.0
 20
0.0
 30
0.0
 70
   128
 71
    14
 72
    13
 73
    16
  0
VERTEX
  5
1301
  8
KORPUS
 10
0.0
 20
0.0
 30
0.0
 70
   128
 71
    17
 72
    18
 73
    19
  0
VERTEX
  5
1302
  8
KORPUS
 10
0.0
 20
0.0
 30
0.0
 70
   128
 71
    18
 72
    17
 73
    20
  0
VERTEX
  5
1303
  8
KORPUS
 10
0.0
 20
0.0
 30
0.0
 70
   128
 71
    21
 72
    22
 73
    23
  0
VERTEX
  5
1304
  8
KORPUS
 10
0.0
 20
0.0
 30
0.0
 70
   128
 71
    22
 72
    21
 73
    24
  0
SEQEND
  5
1305
  8
KORPUS
  0
POLYLINE
  5
1307
  8
KORPUS
 66
     1
 10
0.0
 20
0.0
 30
0.0
 70
    64
 71
    24
 72
    12
1001
AVE_ENTITY_MATERIAL
1002
{
1000

1002
{
1071
        0
1070
     0
1070
     0
1002
{
1070
     0
1070
     0
1070
     0
1040
0.0
1002
}
1070
     0
1070
     0
1002
{
1002
}
1002
}
1002
{
1002
}
1002
{
1002
}
1011
0.0
1021
0.0
1031
0.0
1021
0.0
1031
0.0
1011
1.0
1021
0.0
1031
0.0
1021
0.0
1031
0.0
1011
0.0
1021
0.0
1031
0.0
1021
1.0
1031
0.0
1011
0.0
1021
0.0
1031
0.0
1021
0.0
1031
1.0
1002
}
  0
VERTEX
  5
1308
  8
KORPUS
 10
982.0
 20
456.0
 30
18.0
 70
   192
  0
VERTEX
  5
1309
  8
KORPUS
 10
982.0
 20
474.0
 30
98.0
 70
   192
  0
VERTEX
  5
130A
  8
KORPUS
 10
982.0
 20
456.0
 30
98.0
 70
   192
  0
VERTEX
  5
130B
  8
KORPUS
 10
982.0
 20
474.0
 30
18.0
 70
   192
  0
VERTEX
  5
130C
  8
KORPUS
 10
18.0
 20
474.00009155273432
 30
18.0
 70
   192
  0
VERTEX
  5
130D
  8
KORPUS
 10
982.0
 20
456.0
 30
18.0
 70
   192
  0
VERTEX
  5
130E
  8
KORPUS
 10
18.0
 20
456.00009155273438
 30
18.0
 70
   192
  0
VERTEX
  5
130F
  8
KORPUS
 10
982.0
 20
474.0
 30
18.0
 70
   192
  0
VERTEX
  5
1310
  8
KORPUS
 10
18.0
 20
474.00009155273432
 30
98.0
 70
   192
  0
VERTEX
  5
1311
  8
KORPUS
 10
18.0
 20
456.00009155273438
 30
18.0
 70
   192
  0
VERTEX
  5
1312
  8
KORPUS
 10
18.0
 20
456.00009155273438
 30
98.0
 70
   192
  0
VERTEX
  5
1313
  8
KORPUS
 10
18.0
 20
474.00009155273432
 30
18.0
 70
   192
  0
VERTEX
  5
1314
  8
KORPUS
 10
982.0
 20
474.0
 30
98.0
 70
   192
  0
VERTEX
  5
1315
  8
KORPUS
 10
18.0
 20
456.00009155273438
 30
98.0
 70
   192
  0
VERTEX
  5
1316
  8
KORPUS
 10
982.0
 20
456.0
 30
98.0
 70
   192
  0
VERTEX
  5
1317
  8
KORPUS
 10
18.0
 20
474.00009155273432
 30
98.0
 70
   192
  0
VERTEX
  5
1318
  8
KORPUS
 10
982.0
 20
456.0
 30
98.0
 70
   192
  0
VERTEX
  5
1319
  8
KORPUS
 10
18.0
 20
456.00009155273438
 30
18.0
 70
   192
  0
VERTEX
  5
131A
  8
KORPUS
 10
982.0
 20
456.0
 30
18.0
 70
   192
  0
VERTEX
  5
131B
  8
KORPUS
 10
18.0
 20
456.00009155273438
 30
98.0
 70
   192
  0
VERTEX
  5
131C
  8
KORPUS
 10
982.0
 20
474.0
 30
98.0
 70
   192
  0
VERTEX
  5
131D
  8
KORPUS
 10
18.0
 20
474.00009155273432
 30
18.0
 70
   192
  0
VERTEX
  5
131E
  8
KORPUS
 10
18.0
 20
474.00009155273432
 30
98.0
 70
   192
  0
VERTEX
  5
131F
  8
KORPUS
 10
982.0
 20
474.0
 30
18.0
 70
   192
  0
VERTEX
  5
1320
  8
KORPUS
 10
0.0
 20
0.0
 30
0.0
 70
   128
 71
     1
 72
     2
 73
     3
  0
VERTEX
  5
1321
  8
KORPUS
 10
0.0
 20
0.0
 30
0.0
 70
   128
 71
     2
 72
     1
 73
     4
  0
VERTEX
  5
1322
  8
KORPUS
 10
0.0
 20
0.0
 30
0.0
 70
   128
 71
     5
 72
     6
 73
     7
  0
VERTEX
  5
1323
  8
KORPUS
 10
0.0
 20
0.0
 30
0.0
 70
   128
 71
     6
 72
     5
 73
     8
  0
VERTEX
  5
1324
  8
KORPUS
 10
0.0
 20
0.0
 30
0.0
 70
   128
 71
     9
 72
    10
 73
    11
  0
VERTEX
  5
1325
  8
KORPUS
 10
0.0
 20
0.0
 30
0.0
 70
   128
 71
    10
 72
     9
 73
    12
  0
VERTEX
  5
1326
  8
KORPUS
 10
0.0
 20
0.0
 30
0.0
 70
   128
 71
    13
 72
    14
 73
    15
  0
VERTEX
  5
1327
  8
KORPUS
 10
0.0
 20
0.0
 30
0.0
 70
   128
 71
    14
 72
    13
 73
    16
  0
VERTEX
  5
1328
  8
KORPUS
 10
0.0
 20
0.0
 30
0.0
 70
   128
 71
    17
 72
    18
 73
    19
  0
VERTEX
  5
1329
  8
KORPUS
 10
0.0
 20
0.0
 30
0.0
 70
   128
 71
    18
 72
    17
 73
    20
  0
VERTEX
  5
132A
  8
KORPUS
 10
0.0
 20
0.0
 30
0.0
 70
   128
 71
    21
 72
    22
 73
    23
  0
VERTEX
  5
132B
  8
KORPUS
 10
0.0
 20
0.0
 30
0.0
 70
   128
 71
    22
 72
    21
 73
    24
  0
SEQEND
  5
132C
  8
KORPUS
  0
POLYLINE
  5
132E
  8
KORPUS
 66
     1
 10
0.0
 20
0.0
 30
0.0
 70
    64
 71
    24
 72
    12
1001
AVE_ENTITY_MATERIAL
1002
{
1000

1002
{
1071
        0
1070
     0
1070
     0
1002
{
1070
     0
1070
     0
1070
     0
1040
0.0
1002
}
1070
     0
1070
     0
1002
{
1002
}
1002
}
1002
{
1002
}
1002
{
1002
}
1011
0.0
1021
0.0
1031
0.0
1021
0.0
1031
0.0
1011
1.0
1021
0.0
1031
0.0
1021
0.0
1031
0.0
1011
0.0
1021
0.0
1031
0.0
1021
1.0
1031
0.0
1011
0.0
1021
0.0
1031
0.0
1021
0.0
1031
1.0
1002
}
  0
VERTEX
  5
132F
  8
KORPUS
 10
18.0
 20
474.0
 30
270.0
 70
   192
  0
VERTEX
  5
1330
  8
KORPUS
 10
18.0
 20
456.0
 30
350.0
 70
   192
  0
VERTEX
  5
1331
  8
KORPUS
 10
18.0
 20
474.0
 30
350.0
 70
   192
  0
VERTEX
  5
1332
  8
KORPUS
 10
18.0
 20
456.0
 30
270.0
 70
   192
  0
VERTEX
  5
1333
  8
KORPUS
 10
982.0
 20
456.0
 30
270.0
 70
   192
  0
VERTEX
  5
1334
  8
KORPUS
 10
18.0
 20
474.0
 30
270.0
 70
   192
  0
VERTEX
  5
1335
  8
KORPUS
 10
982.0
 20
474.0
 30
270.0
 70
   192
  0
VERTEX
  5
1336
  8
KORPUS
 10
18.0
 20
456.0
 30
270.0
 70
   192
  0
VERTEX
  5
1337
  8
KORPUS
 10
982.0
 20
456.0
 30
350.0
 70
   192
  0
VERTEX
  5
1338
  8
KORPUS
 10
982.0
 20
474.0
 30
270.0
 70
   192
  0
VERTEX
  5
1339
  8
KORPUS
 10
982.0
 20
474.0
 30
350.0
 70
   192
  0
VERTEX
  5
133A
  8
KORPUS
 10
982.0
 20
456.0
 30
270.0
 70
   192
  0
VERTEX
  5
133B
  8
KORPUS
 10
18.0
 20
456.0
 30
350.0
 70
   192
  0
VERTEX
  5
133C
  8
KORPUS
 10
982.0
 20
474.0
 30
350.0
 70
   192
  0
VERTEX
  5
133D
  8
KORPUS
 10
18.0
 20
474.0
 30
350.0
 70
   192
  0
VERTEX
  5
133E
  8
KORPUS
 10
982.0
 20
456.0
 30
350.0
 70
   192
  0
VERTEX
  5
133F
  8
KORPUS
 10
18.0
 20
474.0
 30
350.0
 70
   192
  0
VERTEX
  5
1340
  8
KORPUS
 10
982.0
 20
474.0
 30
270.0
 70
   192
  0
VERTEX
  5
1341
  8
KORPUS
 10
18.0
 20
474.0
 30
270.0
 70
   192
  0
VERTEX
  5
1342
  8
KORPUS
 10
982.0
 20
474.0
 30
350.0
 70
   192
  0
VERTEX
  5
1343
  8
KORPUS
 10
18.0
 20
456.0
 30
350.0
 70
   192
  0
VERTEX
  5
1344
  8
KORPUS
 10
982.0
 20
456.0
 30
270.0
 70
   192
  0
VERTEX
  5
1345
  8
KORPUS
 10
982.0
 20
456.0
 30
350.0
 70
   192
  0
VERTEX
  5
1346
  8
KORPUS
 10
18.0
 20
456.0
 30
270.0
 70
   192
  0
VERTEX
  5
1347
  8
KORPUS
 10
0.0
 20
0.0
 30
0.0
 70
   128
 71
     1
 72
     2
 73
     3
  0
VERTEX
  5
1348
  8
KORPUS
 10
0.0
 20
0.0
 30
0.0
 70
   128
 71
     2
 72
     1
 73
     4
  0
VERTEX
  5
1349
  8
KORPUS
 10
0.0
 20
0.0
 30
0.0
 70
   128
 71
     5
 72
     6
 73
     7
  0
VERTEX
  5
134A
  8
KORPUS
 10
0.0
 20
0.0
 30
0.0
 70
   128
 71
     6
 72
     5
 73
     8
  0
VERTEX
  5
134B
  8
KORPUS
 10
0.0
 20
0.0
 30
0.0
 70
   128
 71
     9
 72
    10
 73
    11
  0
VERTEX
  5
134C
  8
KORPUS
 10
0.0
 20
0.0
 30
0.0
 70
   128
 71
    10
 72
     9
 73
    12
  0
VERTEX
  5
134D
  8
KORPUS
 10
0.0
 20
0.0
 30
0.0
 70
   128
 71
    13
 72
    14
 73
    15
  0
VERTEX
  5
134E
  8
KORPUS
 10
0.0
 20
0.0
 30
0.0
 70
   128
 71
    14
 72
    13
 73
    16
  0
VERTEX
  5
134F
  8
KORPUS
 10
0.0
 20
0.0
 30
0.0
 70
   128
 71
    17
 72
    18
 73
    19
  0
VERTEX
  5
1350
  8
KORPUS
 10
0.0
 20
0.0
 30
0.0
 70
   128
 71
    18
 72
    17
 73
    20
  0
VERTEX
  5
1351
  8
KORPUS
 10
0.0
 20
0.0
 30
0.0
 70
   128
 71
    21
 72
    22
 73
    23
  0
VERTEX
  5
1352
  8
KORPUS
 10
0.0
 20
0.0
 30
0.0
 70
   128
 71
    22
 72
    21
 73
    24
  0
SEQEND
  5
1353
  8
KORPUS
  0
POLYLINE
  5
1355
  8
SUPLIK
 66
     1
 10
0.0
 20
0.0
 30
0.0
 70
    64
 71
    24
 72
    12
1001
AVE_ENTITY_MATERIAL
1002
{
1000

1002
{
1071
        0
1070
     0
1070
     0
1002
{
1070
     0
1070
     0
1070
     0
1040
0.0
1002
}
1070
     0
1070
     0
1002
{
1002
}
1002
}
1002
{
1002
}
1002
{
1002
}
1011
0.0
1021
0.0
1031
0.0
1021
0.0
1031
0.0
1011
1.0
1021
0.0
1031
0.0
1021
0.0
1031
0.0
1011
0.0
1021
0.0
1031
0.0
1021
1.0
1031
0.0
1011
0.0
1021
0.0
1031
0.0
1021
0.0
1031
1.0
1002
}
  0
VERTEX
  5
1356
  8
SUPLIK
 10
43.385002136230469
 20
18.0
 30
54.5
 70
   192
  0
VERTEX
  5
1357
  8
SUPLIK
 10
43.385002136230469
 20
342.0
 30
38.5
 70
   192
  0
VERTEX
  5
1358
  8
SUPLIK
 10
43.385002136230469
 20
18.0
 30
38.5
 70
   192
  0
VERTEX
  5
1359
  8
SUPLIK
 10
43.385002136230469
 20
342.0
 30
54.5
 70
   192
  0
VERTEX
  5
135A
  8
SUPLIK
 10
956.61499023437511
 20
18.0
 30
54.5
 70
   192
  0
VERTEX
  5
135B
  8
SUPLIK
 10
43.385002136230469
 20
18.0
 30
38.5
 70
   192
  0
VERTEX
  5
135C
  8
SUPLIK
 10
956.61499023437511
 20
18.0
 30
38.5
 70
   192
  0
VERTEX
  5
135D
  8
SUPLIK
 10
43.385002136230469
 20
18.0
 30
54.5
 70
   192
  0
VERTEX
  5
135E
  8
SUPLIK
 10
956.61499023437511
 20
342.0
 30
54.5
 70
   192
  0
VERTEX
  5
135F
  8
SUPLIK
 10
956.61499023437511
 20
18.0
 30
38.5
 70
   192
  0
VERTEX
  5
1360
  8
SUPLIK
 10
956.61499023437511
 20
342.0
 30
38.5
 70
   192
  0
VERTEX
  5
1361
  8
SUPLIK
 10
956.61499023437511
 20
18.0
 30
54.5
 70
   192
  0
VERTEX
  5
1362
  8
SUPLIK
 10
43.385002136230469
 20
342.0
 30
54.5
 70
   192
  0
VERTEX
  5
1363
  8
SUPLIK
 10
956.61499023437511
 20
342.0
 30
38.5
 70
   192
  0
VERTEX
  5
1364
  8
SUPLIK
 10
43.385002136230469
 20
342.0
 30
38.5
 70
   192
  0
VERTEX
  5
1365
  8
SUPLIK
 10
956.61499023437511
 20
342.0
 30
54.5
 70
   192
  0
VERTEX
  5
1366
  8
SUPLIK
 10
43.385002136230469
 20
342.0
 30
38.5
 70
   192
  0
VERTEX
  5
1367
  8
SUPLIK
 10
956.61499023437511
 20
18.0
 30
38.5
 70
   192
  0
VERTEX
  5
1368
  8
SUPLIK
 10
43.385002136230469
 20
18.0
 30
38.5
 70
   192
  0
VERTEX
  5
1369
  8
SUPLIK
 10
956.61499023437511
 20
342.0
 30
38.5
 70
   192
  0
VERTEX
  5
136A
  8
SUPLIK
 10
43.385002136230469
 20
342.0
 30
54.5
 70
   192
  0
VERTEX
  5
136B
  8
SUPLIK
 10
956.61499023437511
 20
18.0
 30
54.5
 70
   192
  0
VERTEX
  5
136C
  8
SUPLIK
 10
956.61499023437511
 20
342.0
 30
54.5
 70
   192
  0
VERTEX
  5
136D
  8
SUPLIK
 10
43.385002136230469
 20
18.0
 30
54.5
 70
   192
  0
VERTEX
  5
136E
  8
SUPLIK
 10
0.0
 20
0.0
 30
0.0
 70
   128
 71
     1
 72
     2
 73
     3
  0
VERTEX
  5
136F
  8
SUPLIK
 10
0.0
 20
0.0
 30
0.0
 70
   128
 71
     2
 72
     1
 73
     4
  0
VERTEX
  5
1370
  8
SUPLIK
 10
0.0
 20
0.0
 30
0.0
 70
   128
 71
     5
 72
     6
 73
     7
  0
VERTEX
  5
1371
  8
SUPLIK
 10
0.0
 20
0.0
 30
0.0
 70
   128
 71
     6
 72
     5
 73
     8
  0
VERTEX
  5
1372
  8
SUPLIK
 10
0.0
 20
0.0
 30
0.0
 70
   128
 71
     9
 72
    10
 73
    11
  0
VERTEX
  5
1373
  8
SUPLIK
 10
0.0
 20
0.0
 30
0.0
 70
   128
 71
    10
 72
     9
 73
    12
  0
VERTEX
  5
1374
  8
SUPLIK
 10
0.0
 20
0.0
 30
0.0
 70
   128
 71
    13
 72
    14
 73
    15
  0
VERTEX
  5
1375
  8
SUPLIK
 10
0.0
 20
0.0
 30
0.0
 70
   128
 71
    14
 72
    13
 73
    16
  0
VERTEX
  5
1376
  8
SUPLIK
 10
0.0
 20
0.0
 30
0.0
 70
   128
 71
    17
 72
    18
 73
    19
  0
VERTEX
  5
1377
  8
SUPLIK
 10
0.0
 20
0.0
 30
0.0
 70
   128
 71
    18
 72
    17
 73
    20
  0
VERTEX
  5
1378
  8
SUPLIK
 10
0.0
 20
0.0
 30
0.0
 70
   128
 71
    21
 72
    22
 73
    23
  0
VERTEX
  5
1379
  8
SUPLIK
 10
0.0
 20
0.0
 30
0.0
 70
   128
 71
    22
 72
    21
 73
    24
  0
SEQEND
  5
137A
  8
SUPLIK
  0
POLYLINE
  5
137C
  8
SUPLIK
 66
     1
 10
0.0
 20
0.0
 30
0.0
 70
    64
 71
    24
 72
    12
1001
AVE_ENTITY_MATERIAL
1002
{
1000

1002
{
1071
        0
1070
     0
1070
     0
1002
{
1070
     0
1070
     0
1070
     0
1040
0.0
1002
}
1070
     0
1070
     0
1002
{
1002
}
1002
}
1002
{
1002
}
1002
{
1002
}
1011
0.0
1021
0.0
1031
0.0
1021
0.0
1031
0.0
1011
1.0
1021
0.0
1031
0.0
1021
0.0
1031
0.0
1011
0.0
1021
0.0
1031
0.0
1021
1.0
1031
0.0
1011
0.0
1021
0.0
1031
0.0
1021
0.0
1031
1.0
1002
}
  0
VERTEX
  5
137D
  8
SUPLIK
 10
956.61499023437511
 20
342.0
 30
159.5
 70
   192
  0
VERTEX
  5
137E
  8
SUPLIK
 10
43.385002136230469
 20
358.0
 30
159.5
 70
   192
  0
VERTEX
  5
137F
  8
SUPLIK
 10
43.385002136230469
 20
342.0
 30
159.5
 70
   192
  0
VERTEX
  5
1380
  8
SUPLIK
 10
956.61499023437511
 20
358.0
 30
159.5
 70
   192
  0
VERTEX
  5
1381
  8
SUPLIK
 10
43.385002136230469
 20
358.0
 30
159.5
 70
   192
  0
VERTEX
  5
1382
  8
SUPLIK
 10
43.385002136230469
 20
342.0
 30
159.0
 70
   192
  0
VERTEX
  5
1383
  8
SUPLIK
 10
43.385002136230469
 20
342.0
 30
159.5
 70
   192
  0
VERTEX
  5
1384
  8
SUPLIK
 10
43.385002136230469
 20
358.0
 30
159.0
 70
   192
  0
VERTEX
  5
1385
  8
SUPLIK
 10
43.385002136230469
 20
342.0
 30
159.0
 70
   192
  0
VERTEX
  5
1386
  8
SUPLIK
 10
956.61499023437511
 20
358.0
 30
159.0
 70
   192
  0
VERTEX
  5
1387
  8
SUPLIK
 10
956.61499023437511
 20
342.0
 30
159.0
 70
   192
  0
VERTEX
  5
1388
  8
SUPLIK
 10
43.385002136230469
 20
358.0
 30
159.0
 70
   192
  0
VERTEX
  5
1389
  8
SUPLIK
 10
956.61499023437511
 20
358.0
 30
159.0
 70
   192
  0
VERTEX
  5
138A
  8
SUPLIK
 10
956.61499023437511
 20
342.0
 30
159.5
 70
   192
  0
VERTEX
  5
138B
  8
SUPLIK
 10
956.61499023437511
 20
342.0
 30
159.0
 70
   192
  0
VERTEX
  5
138C
  8
SUPLIK
 10
956.61499023437511
 20
358.0
 30
159.5
 70
   192
  0
VERTEX
  5
138D
  8
SUPLIK
 10
956.61499023437511
 20
342.0
 30
159.5
 70
   192
  0
VERTEX
  5
138E
  8
SUPLIK
 10
43.385002136230469
 20
342.0
 30
159.0
 70
   192
  0
VERTEX
  5
138F
  8
SUPLIK
 10
956.61499023437511
 20
342.0
 30
159.0
 70
   192
  0
VERTEX
  5
1390
  8
SUPLIK
 10
43.385002136230469
 20
342.0
 30
159.5
 70
   192
  0
VERTEX
  5
1391
  8
SUPLIK
 10
43.385002136230469
 20
358.0
 30
159.0
 70
   192
  0
VERTEX
  5
1392
  8
SUPLIK
 10
956.61499023437511
 20
358.0
 30
159.5
 70
   192
  0
VERTEX
  5
1393
  8
SUPLIK
 10
956.61499023437511
 20
358.0
 30
159.0
 70
   192
  0
VERTEX
  5
1394
  8
SUPLIK
 10
43.385002136230469
 20
358.0
 30
159.5
 70
   192
  0
VERTEX
  5
1395
  8
SUPLIK
 10
0.0
 20
0.0
 30
0.0
 70
   128
 71
     1
 72
     2
 73
     3
  0
VERTEX
  5
1396
  8
SUPLIK
 10
0.0
 20
0.0
 30
0.0
 70
   128
 71
     2
 72
     1
 73
     4
  0
VERTEX
  5
1397
  8
SUPLIK
 10
0.0
 20
0.0
 30
0.0
 70
   128
 71
     5
 72
     6
 73
     7
  0
VERTEX
  5
1398
  8
SUPLIK
 10
0.0
 20
0.0
 30
0.0
 70
   128
 71
     6
 72
     5
 73
     8
  0
VERTEX
  5
1399
  8
SUPLIK
 10
0.0
 20
0.0
 30
0.0
 70
   128
 71
     9
 72
    10
 73
    11
  0
VERTEX
  5
139A
  8
SUPLIK
 10
0.0
 20
0.0
 30
0.0
 70
   128
 71
    10
 72
     9
 73
    12
  0
VERTEX
  5
139B
  8
SUPLIK
 10
0.0
 20
0.0
 30
0.0
 70
   128
 71
    13
 72
    14
 73
    15
  0
VERTEX
  5
139C
  8
SUPLIK
 10
0.0
 20
0.0
 30
0.0
 70
   128
 71
    14
 72
    13
 73
    16
  0
VERTEX
  5
139D
  8
SUPLIK
 10
0.0
 20
0.0
 30
0.0
 70
   128
 71
    17
 72
    18
 73
    19
  0
VERTEX
  5
139E
  8
SUPLIK
 10
0.0
 20
0.0
 30
0.0
 70
   128
 71
    18
 72
    17
 73
    20
  0
VERTEX
  5
139F
  8
SUPLIK
 10
0.0
 20
0.0
 30
0.0
 70
   128
 71
    21
 72
    22
 73
    23
  0
VERTEX
  5
13A0
  8
SUPLIK
 10
0.0
 20
0.0
 30
0.0
 70
   128
 71
    22
 72
    21
 73
    24
  0
SEQEND
  5
13A1
  8
SUPLIK
  0
POLYLINE
  5
13A3
  8
SUPLIK
 66
     1
 10
0.0
 20
0.0
 30
0.0
 70
    64
 71
    24
 72
    12
1001
AVE_ENTITY_MATERIAL
1002
{
1000

1002
{
1071
        0
1070
     0
1070
     0
1002
{
1070
     0
1070
     0
1070
     0
1040
0.0
1002
}
1070
     0
1070
     0
1002
{
1002
}
1002
}
1002
{
1002
}
1002
{
1002
}
1011
0.0
1021
0.0
1031
0.0
1021
0.0
1031
0.0
1011
1.0
1021
0.0
1031
0.0
1021
0.0
1031
0.0
1011
0.0
1021
0.0
1031
0.0
1021
1.0
1031
0.0
1011
0.0
1021
0.0
1031
0.0
1021
0.0
1031
1.0
1002
}
  0
VERTEX
  5
13A4
  8
SUPLIK
 10
43.385002136230469
 20
358.0
 30
39.0
 70
   192
  0
VERTEX
  5
13A5
  8
SUPLIK
 10
43.385002136230469
 20
342.0
 30
159.0
 70
   192
  0
VERTEX
  5
13A6
  8
SUPLIK
 10
43.385002136230469
 20
358.0
 30
159.0
 70
   192
  0
VERTEX
  5
13A7
  8
SUPLIK
 10
43.385002136230469
 20
342.0
 30
39.0
 70
   192
  0
VERTEX
  5
13A8
  8
SUPLIK
 10
956.61499023437511
 20
342.0
 30
39.0
 70
   192
  0
VERTEX
  5
13A9
  8
SUPLIK
 10
956.61499023437511
 20
358.0
 30
159.0
 70
   192
  0
VERTEX
  5
13AA
  8
SUPLIK
 10
956.61499023437511
 20
342.0
 30
159.0
 70
   192
  0
VERTEX
  5
13AB
  8
SUPLIK
 10
956.61499023437511
 20
358.0
 30
39.0
 70
   192
  0
VERTEX
  5
13AC
  8
SUPLIK
 10
956.61499023437511
 20
358.0
 30
39.0
 70
   192
  0
VERTEX
  5
13AD
  8
SUPLIK
 10
43.385002136230469
 20
358.0
 30
159.0
 70
   192
  0
VERTEX
  5
13AE
  8
SUPLIK
 10
956.61499023437511
 20
358.0
 30
159.0
 70
   192
  0
VERTEX
  5
13AF
  8
SUPLIK
 10
43.385002136230469
 20
358.0
 30
39.0
 70
   192
  0
VERTEX
  5
13B0
  8
SUPLIK
 10
43.385002136230469
 20
342.0
 30
39.0
 70
   192
  0
VERTEX
  5
13B1
  8
SUPLIK
 10
956.61499023437511
 20
342.0
 30
159.0
 70
   192
  0
VERTEX
  5
13B2
  8
SUPLIK
 10
43.385002136230469
 20
342.0
 30
159.0
 70
   192
  0
VERTEX
  5
13B3
  8
SUPLIK
 10
956.61499023437511
 20
342.0
 30
39.0
 70
   192
  0
VERTEX
  5
13B4
  8
SUPLIK
 10
43.385002136230469
 20
342.0
 30
159.0
 70
   192
  0
VERTEX
  5
13B5
  8
SUPLIK
 10
956.61499023437511
 20
358.0
 30
159.0
 70
   192
  0
VERTEX
  5
13B6
  8
SUPLIK
 10
43.385002136230469
 20
358.0
 30
159.0
 70
   192
  0
VERTEX
  5
13B7
  8
SUPLIK
 10
956.61499023437511
 20
342.0
 30
159.0
 70
   192
  0
VERTEX
  5
13B8
  8
SUPLIK
 10
956.61499023437511
 20
342.0
 30
39.0
 70
   192
  0
VERTEX
  5
13B9
  8
SUPLIK
 10
43.385002136230469
 20
358.0
 30
39.0
 70
   192
  0
VERTEX
  5
13BA
  8
SUPLIK
 10
956.61499023437511
 20
358.0
 30
39.0
 70
   192
  0
VERTEX
  5
13BB
  8
SUPLIK
 10
43.385002136230469
 20
342.0
 30
39.0
 70
   192
  0
VERTEX
  5
13BC
  8
SUPLIK
 10
0.0
 20
0.0
 30
0.0
 70
   128
 71
     1
 72
     2
 73
     3
  0
VERTEX
  5
13BD
  8
SUPLIK
 10
0.0
 20
0.0
 30
0.0
 70
   128
 71
     2
 72
     1
 73
     4
  0
VERTEX
  5
13BE
  8
SUPLIK
 10
0.0
 20
0.0
 30
0.0
 70
   128
 71
     5
 72
     6
 73
     7
  0
VERTEX
  5
13BF
  8
SUPLIK
 10
0.0
 20
0.0
 30
0.0
 70
   128
 71
     6
 72
     5
 73
     8
  0
VERTEX
  5
13C0
  8
SUPLIK
 10
0.0
 20
0.0
 30
0.0
 70
   128
 71
     9
 72
    10
 73
    11
  0
VERTEX
  5
13C1
  8
SUPLIK
 10
0.0
 20
0.0
 30
0.0
 70
   128
 71
    10
 72
     9
 73
    12
  0
VERTEX
  5
13C2
  8
SUPLIK
 10
0.0
 20
0.0
 30
0.0
 70
   128
 71
    13
 72
    14
 73
    15
  0
VERTEX
  5
13C3
  8
SUPLIK
 10
0.0
 20
0.0
 30
0.0
 70
   128
 71
    14
 72
    13
 73
    16
  0
VERTEX
  5
13C4
  8
SUPLIK
 10
0.0
 20
0.0
 30
0.0
 70
   128
 71
    17
 72
    18
 73
    19
  0
VERTEX
  5
13C5
  8
SUPLIK
 10
0.0
 20
0.0
 30
0.0
 70
   128
 71
    18
 72
    17
 73
    20
  0
VERTEX
  5
13C6
  8
SUPLIK
 10
0.0
 20
0.0
 30
0.0
 70
   128
 71
    21
 72
    22
 73
    23
  0
VERTEX
  5
13C7
  8
SUPLIK
 10
0.0
 20
0.0
 30
0.0
 70
   128
 71
    22
 72
    21
 73
    24
  0
SEQEND
  5
13C8
  8
SUPLIK
  0
POLYLINE
  5
13CA
  8
SUPLIK
 66
     1
 10
0.0
 20
0.0
 30
0.0
 70
    64
 71
    24
 72
    12
1001
AVE_ENTITY_MATERIAL
1002
{
1000

1002
{
1071
        0
1070
     0
1070
     0
1002
{
1070
     0
1070
     0
1070
     0
1040
0.0
1002
}
1070
     0
1070
     0
1002
{
1002
}
1002
}
1002
{
1002
}
1002
{
1002
}
1011
0.0
1021
0.0
1031
0.0
1021
0.0
1031
0.0
1011
1.0
1021
0.0
1031
0.0
1021
0.0
1031
0.0
1011
0.0
1021
0.0
1031
0.0
1021
1.0
1031
0.0
1011
0.0
1021
0.0
1031
0.0
1021
0.0
1031
1.0
1002
}
  0
VERTEX
  5
13CB
  8
SUPLIK
 10
43.385002136230469
 20
342.0
 30
38.5
 70
   192
  0
VERTEX
  5
13CC
  8
SUPLIK
 10
956.61499023437511
 20
358.0
 30
38.5
 70
   192
  0
VERTEX
  5
13CD
  8
SUPLIK
 10
956.61499023437511
 20
342.0
 30
38.5
 70
   192
  0
VERTEX
  5
13CE
  8
SUPLIK
 10
43.385002136230469
 20
358.0
 30
38.5
 70
   192
  0
VERTEX
  5
13CF
  8
SUPLIK
 10
956.61499023437511
 20
358.0
 30
38.5
 70
   192
  0
VERTEX
  5
13D0
  8
SUPLIK
 10
956.61499023437511
 20
342.0
 30
39.0
 70
   192
  0
VERTEX
  5
13D1
  8
SUPLIK
 10
956.61499023437511
 20
342.0
 30
38.5
 70
   192
  0
VERTEX
  5
13D2
  8
SUPLIK
 10
956.61499023437511
 20
358.0
 30
39.0
 70
   192
  0
VERTEX
  5
13D3
  8
SUPLIK
 10
956.61499023437511
 20
342.0
 30
39.0
 70
   192
  0
VERTEX
  5
13D4
  8
SUPLIK
 10
43.385002136230469
 20
358.0
 30
39.0
 70
   192
  0
VERTEX
  5
13D5
  8
SUPLIK
 10
43.385002136230469
 20
342.0
 30
39.0
 70
   192
  0
VERTEX
  5
13D6
  8
SUPLIK
 10
956.61499023437511
 20
358.0
 30
39.0
 70
   192
  0
VERTEX
  5
13D7
  8
SUPLIK
 10
43.385002136230469
 20
358.0
 30
39.0
 70
   192
  0
VERTEX
  5
13D8
  8
SUPLIK
 10
43.385002136230469
 20
342.0
 30
38.5
 70
   192
  0
VERTEX
  5
13D9
  8
SUPLIK
 10
43.385002136230469
 20
342.0
 30
39.0
 70
   192
  0
VERTEX
  5
13DA
  8
SUPLIK
 10
43.385002136230469
 20
358.0
 30
38.5
 70
   192
  0
VERTEX
  5
13DB
  8
SUPLIK
 10
956.61499023437511
 20
342.0
 30
38.5
 70
   192
  0
VERTEX
  5
13DC
  8
SUPLIK
 10
43.385002136230469
 20
342.0
 30
39.0
 70
   192
  0
VERTEX
  5
13DD
  8
SUPLIK
 10
43.385002136230469
 20
342.0
 30
38.5
 70
   192
  0
VERTEX
  5
13DE
  8
SUPLIK
 10
956.61499023437511
 20
342.0
 30
39.0
 70
   192
  0
VERTEX
  5
13DF
  8
SUPLIK
 10
956.61499023437511
 20
358.0
 30
38.5
 70
   192
  0
VERTEX
  5
13E0
  8
SUPLIK
 10
43.385002136230469
 20
358.0
 30
39.0
 70
   192
  0
VERTEX
  5
13E1
  8
SUPLIK
 10
956.61499023437511
 20
358.0
 30
39.0
 70
   192
  0
VERTEX
  5
13E2
  8
SUPLIK
 10
43.385002136230469
 20
358.0
 30
38.5
 70
   192
  0
VERTEX
  5
13E3
  8
SUPLIK
 10
0.0
 20
0.0
 30
0.0
 70
   128
 71
     1
 72
     2
 73
     3
  0
VERTEX
  5
13E4
  8
SUPLIK
 10
0.0
 20
0.0
 30
0.0
 70
   128
 71
     2
 72
     1
 73
     4
  0
VERTEX
  5
13E5
  8
SUPLIK
 10
0.0
 20
0.0
 30
0.0
 70
   128
 71
     5
 72
     6
 73
     7
  0
VERTEX
  5
13E6
  8
SUPLIK
 10
0.0
 20
0.0
 30
0.0
 70
   128
 71
     6
 72
     5
 73
     8
  0
VERTEX
  5
13E7
  8
SUPLIK
 10
0.0
 20
0.0
 30
0.0
 70
   128
 71
     9
 72
    10
 73
    11
  0
VERTEX
  5
13E8
  8
SUPLIK
 10
0.0
 20
0.0
 30
0.0
 70
   128
 71
    10
 72
     9
 73
    12
  0
VERTEX
  5
13E9
  8
SUPLIK
 10
0.0
 20
0.0
 30
0.0
 70
   128
 71
    13
 72
    14
 73
    15
  0
VERTEX
  5
13EA
  8
SUPLIK
 10
0.0
 20
0.0
 30
0.0
 70
   128
 71
    14
 72
    13
 73
    16
  0
VERTEX
  5
13EB
  8
SUPLIK
 10
0.0
 20
0.0
 30
0.0
 70
   128
 71
    17
 72
    18
 73
    19
  0
VERTEX
  5
13EC
  8
SUPLIK
 10
0.0
 20
0.0
 30
0.0
 70
   128
 71
    18
 72
    17
 73
    20
  0
VERTEX
  5
13ED
  8
SUPLIK
 10
0.0
 20
0.0
 30
0.0
 70
   128
 71
    21
 72
    22
 73
    23
  0
VERTEX
  5
13EE
  8
SUPLIK
 10
0.0
 20
0.0
 30
0.0
 70
   128
 71
    22
 72
    21
 73
    24
  0
SEQEND
  5
13EF
  8
SUPLIK
  0
POLYLINE
  5
13F1
  8
CELO
 66
     1
 10
0.0
 20
0.0
 30
0.0
 70
    64
 71
   585
 72
   601
1001
AVE_ENTITY_MATERIAL
1002
{
1000

1002
{
1071
        0
1070
     0
1070
     0
1002
{
1070
     0
1070
     0
1070
     0
1040
0.0
1002
}
1070
     0
1070
     0
1002
{
1002
}
1002
}
1002
{
1002
}
1002
{
1002
}
1011
0.0
1021
0.0
1031
0.0
1021
0.0
1031
0.0
1011
1.0
1021
0.0
1031
0.0
1021
0.0
1031
0.0
1011
0.0
1021
0.0
1031
0.0
1021
1.0
1031
0.0
1011
0.0
1021
0.0
1031
0.0
1021
0.0
1031
1.0
1002
}
  0
VERTEX
  5
13F2
  8
CELO
 10
123.7080383300781
 20
5.999985694885253
 30
322.31427001953131
 70
   192
  0
VERTEX
  5
13F3
  8
CELO
 10
126.76247406005859
 20
-0.0000133514404297
 30
322.0
 70
   192
  0
VERTEX
  5
13F4
  8
CELO
 10
126.76247406005859
 20
5.999985694885253
 30
322.0
 70
   192
  0
VERTEX
  5
13F5
  8
CELO
 10
112.0807571411132
 20
-0.0000152587890625
 30
333.92636108398437
 70
   192
  0
VERTEX
  5
13F6
  8
CELO
 10
111.76247406005859
 20
15.99998474121093
 30
337.0
 70
   192
  0
VERTEX
  5
13F7
  8
CELO
 10
111.76247406005859
 20
-0.0000152587890625
 30
337.0
 70
   192
  0
VERTEX
  5
13F8
  8
CELO
 10
112.02317810058589
 20
15.99998569488525
 30
334.215576171875
 70
   192
  0
VERTEX
  5
13F9
  8
CELO
 10
112.7962112426758
 20
15.99998569488525
 30
331.52792358398437
 70
   192
  0
VERTEX
  5
13FA
  8
CELO
 10
112.9963455200195
 20
-0.0000152587890625
 30
331.04232788085937
 70
   192
  0
VERTEX
  5
13FB
  8
CELO
 10
114.2392272949219
 20
14.36457443237304
 30
328.74359130859369
 70
   192
  0
VERTEX
  5
13FC
  8
CELO
 10
114.40293884277339
 20
-0.0000152587890625
 30
328.50048828125
 70
   192
  0
VERTEX
  5
13FD
  8
CELO
 10
115.19089508056641
 20
13.286012649536129
 30
327.4554443359375
 70
   192
  0
VERTEX
  5
13FE
  8
CELO
 10
116.155876159668
 20
-0.0000133514404297
 30
326.39340209960937
 70
   192
  0
VERTEX
  5
13FF
  8
CELO
 10
116.2810974121093
 20
12.05045127868652
 30
326.26962280273437
 70
   192
  0
VERTEX
  5
1400
  8
CELO
 10
117.49217224121089
 20
10.677901268005369
 30
325.20758056640631
 70
   192
  0
VERTEX
  5
1401
  8
CELO
 10
118.26295471191401
 20
-0.0000133514404297
 30
324.64047241210937
 70
   192
  0
VERTEX
  5
1402
  8
CELO
 10
118.80230712890619
 20
9.1930789947509766
 30
324.28640747070312
 70
   192
  0
VERTEX
  5
1403
  8
CELO
 10
120.804817199707
 20
-0.0000133514404297
 30
323.23388671875
 70
   192
  0
VERTEX
  5
1404
  8
CELO
 10
121.6197433471679
 20
5.999985694885253
 30
322.90914916992187
 70
   192
  0
VERTEX
  5
1405
  8
CELO
 10
123.6888351440429
 20
-0.0000133514404297
 30
322.31829833984381
 70
   192
  0
VERTEX
  5
1406
  8
CELO
 10
873.23754882812489
 20
-0.0000133514404297
 30
322.0
 70
   192
  0
VERTEX
  5
1407
  8
CELO
 10
875.84875488281239
 20
5.999985694885253
 30
322.22903442382812
 70
   192
  0
VERTEX
  5
1408
  8
CELO
 10
873.23754882812489
 20
5.999985694885253
 30
322.0
 70
   192
  0
VERTEX
  5
1409
  8
CELO
 10
888.23754882812489
 20
15.99998474121093
 30
337.0
 70
   192
  0
VERTEX
  5
140A
  8
CELO
 10
887.91925048828125
 20
-0.0000152587890625
 30
333.92636108398437
 70
   192
  0
VERTEX
  5
140B
  8
CELO
 10
888.23754882812489
 20
-0.0000152587890625
 30
337.0
 70
   192
  0
VERTEX
  5
140C
  8
CELO
 10
887.9241943359375
 20
15.99998569488525
 30
333.95022583007812
 70
   192
  0
VERTEX
  5
140D
  8
CELO
 10
887.20379638671875
 20
15.99998569488525
 30
331.52792358398437
 70
   192
  0
VERTEX
  5
140E
  8
CELO
 10
887.00366210937489
 20
-0.0000152587890625
 30
331.04232788085937
 70
   192
  0
VERTEX
  5
140F
  8
CELO
 10
885.76080322265625
 20
14.36457443237304
 30
328.74359130859369
 70
   192
  0
VERTEX
  5
1410
  8
CELO
 10
885.5970458984375
 20
-0.0000152587890625
 30
328.50048828125
 70
   192
  0
VERTEX
  5
1411
  8
CELO
 10
884.80908203124989
 20
13.286012649536129
 30
327.4554443359375
 70
   192
  0
VERTEX
  5
1412
  8
CELO
 10
883.84411621093739
 20
-0.0000133514404297
 30
326.39340209960937
 70
   192
  0
VERTEX
  5
1413
  8
CELO
 10
883.7188720703125
 20
12.05045127868652
 30
326.26962280273437
 70
   192
  0
VERTEX
  5
1414
  8
CELO
 10
882.5078125
 20
10.677901268005369
 30
325.20758056640631
 70
   192
  0
VERTEX
  5
1415
  8
CELO
 10
881.73706054687511
 20
-0.0000133514404297
 30
324.64047241210937
 70
   192
  0
VERTEX
  5
1416
  8
CELO
 10
881.19769287109375
 20
9.1930789947509766
 30
324.28640747070312
 70
   192
  0
VERTEX
  5
1417
  8
CELO
 10
879.19519042968739
 20
-0.0000133514404297
 30
323.23388671875
 70
   192
  0
VERTEX
  5
1418
  8
CELO
 10
878.3802490234375
 20
5.999985694885253
 30
322.90914916992187
 70
   192
  0
VERTEX
  5
1419
  8
CELO
 10
876.3111572265625
 20
-0.0000133514404297
 30
322.31829833984381
 70
   192
  0
VERTEX
  5
141A
  8
CELO
 10
873.23754882812489
 20
-0.0000133514404297
 30
322.0
 70
   192
  0
VERTEX
  5
141B
  8
CELO
 10
126.76247406005859
 20
5.999985694885253
 30
322.0
 70
   192
  0
VERTEX
  5
141C
  8
CELO
 10
126.76247406005859
 20
-0.0000133514404297
 30
322.0
 70
   192
  0
VERTEX
  5
141D
  8
CELO
 10
873.23754882812489
 20
5.999985694885253
 30
322.0
 70
   192
  0
VERTEX
  5
141E
  8
CELO
 10
981.9066162109375
 20
17.999984741210941
 30
347.0
 70
   192
  0
VERTEX
  5
141F
  8
CELO
 10
975.27679443359375
 20
3.032176971435546
 30
347.0
 70
   192
  0
VERTEX
  5
1420
  8
CELO
 10
982.2447509765625
 20
6.7558794021606436
 30
347.0
 70
   192
  0
VERTEX
  5
1421
  8
CELO
 10
988.23754882812489
 20
11.669044494628899
 30
347.0
 70
   192
  0
VERTEX
  5
1422
  8
CELO
 10
960.0
 20
-0.0000152587890625
 30
347.0
 70
   192
  0
VERTEX
  5
1423
  8
CELO
 10
890.23754882812489
 20
17.999984741210941
 30
347.0
 70
   192
  0
VERTEX
  5
1424
  8
CELO
 10
890.23754882812489
 20
-0.0000152587890625
 30
347.0
 70
   192
  0
VERTEX
  5
1425
  8
CELO
 10
967.712890625
 20
0.7506389617919922
 30
347.0
 70
   192
  0
VERTEX
  5
1426
  8
CELO
 10
975.27679443359375
 20
3.0321922302246089
 30
-0.0000006542636584
 70
   192
  0
VERTEX
  5
1427
  8
CELO
 10
981.9066162109375
 20
18.0
 30
0.0
 70
   192
  0
VERTEX
  5
1428
  8
CELO
 10
982.2447509765625
 20
6.755894660949707
 30
-0.0000004914954275
 70
   192
  0
VERTEX
  5
1429
  8
CELO
 10
988.23754882812489
 20
11.669059753417971
 30
-0.0000002767341698
 70
   192
  0
VERTEX
  5
142A
  8
CELO
 10
18.093414306640621
 20
18.0
 30
0.0
 70
   192
  0
VERTEX
  5
142B
  8
CELO
 10
17.7552375793457
 20
6.755894660949707
 30
-0.0000004914954275
 70
   192
  0
VERTEX
  5
142C
  8
CELO
 10
11.76247406005859
 20
11.669059753417971
 30
-0.0000002767341698
 70
   192
  0
VERTEX
  5
142D
  8
CELO
 10
24.723180770874031
 20
3.0321922302246089
 30
-0.0000006542636584
 70
   192
  0
VERTEX
  5
142E
  8
CELO
 10
32.287094116210937
 20
0.7506542205810547
 30
-0.0000007539928788
 70
   192
  0
VERTEX
  5
142F
  8
CELO
 10
40.0
 20
0.0
 30
-0.0000007868050034
 70
   192
  0
VERTEX
  5
1430
  8
CELO
 10
960.0
 20
0.0
 30
-0.0000007868050034
 70
   192
  0
VERTEX
  5
1431
  8
CELO
 10
967.712890625
 20
0.7506542205810547
 30
-0.0000007539928788
 70
   192
  0
VERTEX
  5
1432
  8
CELO
 10
24.723180770874031
 20
3.032176971435546
 30
347.0
 70
   192
  0
VERTEX
  5
1433
  8
CELO
 10
18.093414306640621
 20
17.999984741210941
 30
347.0
 70
   192
  0
VERTEX
  5
1434
  8
CELO
 10
17.7552375793457
 20
6.7558794021606436
 30
347.0
 70
   192
  0
VERTEX
  5
1435
  8
CELO
 10
11.76247406005859
 20
11.669044494628899
 30
347.0
 70
   192
  0
VERTEX
  5
1436
  8
CELO
 10
109.76247406005859
 20
-0.0000152587890625
 30
347.0
 70
   192
  0
VERTEX
  5
1437
  8
CELO
 10
109.76247406005859
 20
17.999984741210941
 30
347.0
 70
   192
  0
VERTEX
  5
1438
  8
CELO
 10
40.0
 20
-0.0000152587890625
 30
347.0
 70
   192
  0
VERTEX
  5
1439
  8
CELO
 10
32.287094116210937
 20
0.7506389617919922
 30
347.0
 70
   192
  0
VERTEX
  5
143A
  8
CELO
 10
18.093414306640621
 20
18.0
 30
0.0
 70
   192
  0
VERTEX
  5
143B
  8
CELO
 10
118.554328918457
 20
17.99998664855957
 30
294.445068359375
 70
   192
  0
VERTEX
  5
143C
  8
CELO
 10
121.2410507202148
 20
17.99998664855957
 30
293.05316162109381
 70
   192
  0
VERTEX
  5
143D
  8
CELO
 10
981.9066162109375
 20
17.999984741210941
 30
347.0
 70
   192
  0
VERTEX
  5
143E
  8
CELO
 10
890.23754882812489
 20
17.999984741210941
 30
337.0
 70
   192
  0
VERTEX
  5
143F
  8
CELO
 10
890.23754882812489
 20
17.999984741210941
 30
347.0
 70
   192
  0
VERTEX
  5
1440
  8
CELO
 10
981.9066162109375
 20
18.0
 30
0.0
 70
   192
  0
VERTEX
  5
1441
  8
CELO
 10
889.72991943359375
 20
17.999984741210941
 30
332.87689208984381
 70
   192
  0
VERTEX
  5
1442
  8
CELO
 10
888.23754882812489
 20
17.999984741210941
 30
329.0
 70
   192
  0
VERTEX
  5
1443
  8
CELO
 10
888.23754882812489
 20
17.99998664855957
 30
307.0
 70
   192
  0
VERTEX
  5
1444
  8
CELO
 10
887.98712158203125
 20
17.99998664855957
 30
304.27056884765631
 70
   192
  0
VERTEX
  5
1445
  8
CELO
 10
887.18432617187489
 20
17.99998664855957
 30
301.47857666015619
 70
   192
  0
VERTEX
  5
1446
  8
CELO
 10
885.79248046874989
 20
17.99998664855957
 30
298.79183959960937
 70
   192
  0
VERTEX
  5
1447
  8
CELO
 10
883.84411621093739
 20
17.99998664855957
 30
296.39340209960937
 70
   192
  0
VERTEX
  5
1448
  8
CELO
 10
881.44567871093739
 20
17.99998664855957
 30
294.445068359375
 70
   192
  0
VERTEX
  5
1449
  8
CELO
 10
878.75897216796875
 20
17.99998664855957
 30
293.05316162109381
 70
   192
  0
VERTEX
  5
144A
  8
CELO
 10
875.96697998046875
 20
17.99998664855957
 30
292.25042724609369
 70
   192
  0
VERTEX
  5
144B
  8
CELO
 10
873.23754882812489
 20
17.99998664855957
 30
292.0
 70
   192
  0
VERTEX
  5
144C
  8
CELO
 10
126.76247406005859
 20
17.99998664855957
 30
292.0
 70
   192
  0
VERTEX
  5
144D
  8
CELO
 10
124.0330276489258
 20
17.99998664855957
 30
292.25042724609369
 70
   192
  0
VERTEX
  5
144E
  8
CELO
 10
109.76247406005859
 20
17.999984741210941
 30
337.0
 70
   192
  0
VERTEX
  5
144F
  8
CELO
 10
18.093414306640621
 20
17.999984741210941
 30
347.0
 70
   192
  0
VERTEX
  5
1450
  8
CELO
 10
109.76247406005859
 20
17.999984741210941
 30
347.0
 70
   192
  0
VERTEX
  5
1451
  8
CELO
 10
110.2700500488281
 20
17.999984741210941
 30
332.87689208984381
 70
   192
  0
VERTEX
  5
1452
  8
CELO
 10
111.76247406005859
 20
17.999984741210941
 30
329.0
 70
   192
  0
VERTEX
  5
1453
  8
CELO
 10
111.76247406005859
 20
17.99998664855957
 30
307.0
 70
   192
  0
VERTEX
  5
1454
  8
CELO
 10
112.0128936767578
 20
17.99998664855957
 30
304.27056884765631
 70
   192
  0
VERTEX
  5
1455
  8
CELO
 10
112.81565093994141
 20
17.99998664855957
 30
301.47857666015619
 70
   192
  0
VERTEX
  5
1456
  8
CELO
 10
114.20754241943359
 20
17.99998664855957
 30
298.79183959960937
 70
   192
  0
VERTEX
  5
1457
  8
CELO
 10
116.155876159668
 20
17.99998664855957
 30
296.39340209960937
 70
   192
  0
VERTEX
  5
1458
  8
CELO
 10
40.0
 20
0.0
 30
-0.0000007868050034
 70
   192
  0
VERTEX
  5
1459
  8
CELO
 10
878.75897216796875
 20
-0.0000133514404297
 30
323.05316162109369
 70
   192
  0
VERTEX
  5
145A
  8
CELO
 10
875.96697998046875
 20
-0.0000133514404297
 30
322.25042724609381
 70
   192
  0
VERTEX
  5
145B
  8
CELO
 10
109.76247406005859
 20
-0.0000152587890625
 30
347.0
 70
   192
  0
VERTEX
  5
145C
  8
CELO
 10
40.0
 20
-0.0000152587890625
 30
347.0
 70
   192
  0
VERTEX
  5
145D
  8
CELO
 10
960.0
 20
-0.0000152587890625
 30
347.0
 70
   192
  0
VERTEX
  5
145E
  8
CELO
 10
960.0
 20
0.0
 30
-0.0000007868050034
 70
   192
  0
VERTEX
  5
145F
  8
CELO
 10
110.12640380859369
 20
-0.0000152587890625
 30
346.96661376953131
 70
   192
  0
VERTEX
  5
1460
  8
CELO
 10
110.498664855957
 20
-0.0000152587890625
 30
346.85958862304687
 70
   192
  0
VERTEX
  5
1461
  8
CELO
 10
110.8568954467773
 20
-0.0000152587890625
 30
346.67398071289062
 70
   192
  0
VERTEX
  5
1462
  8
CELO
 10
111.1766891479492
 20
-0.0000152587890625
 30
346.41421508789062
 70
   192
  0
VERTEX
  5
1463
  8
CELO
 10
111.43646240234369
 20
-0.0000152587890625
 30
346.09442138671869
 70
   192
  0
VERTEX
  5
1464
  8
CELO
 10
111.62204742431641
 20
-0.0000152587890625
 30
345.73617553710937
 70
   192
  0
VERTEX
  5
1465
  8
CELO
 10
111.7290878295898
 20
-0.0000152587890625
 30
345.36392211914062
 70
   192
  0
VERTEX
  5
1466
  8
CELO
 10
111.76247406005859
 20
-0.0000152587890625
 30
345.0
 70
   192
  0
VERTEX
  5
1467
  8
CELO
 10
111.76247406005859
 20
-0.0000152587890625
 30
337.0
 70
   192
  0
VERTEX
  5
1468
  8
CELO
 10
112.0128936767578
 20
-0.0000152587890625
 30
334.27056884765619
 70
   192
  0
VERTEX
  5
1469
  8
CELO
 10
112.81565093994141
 20
-0.0000152587890625
 30
331.47857666015631
 70
   192
  0
VERTEX
  5
146A
  8
CELO
 10
114.20754241943359
 20
-0.0000152587890625
 30
328.79183959960937
 70
   192
  0
VERTEX
  5
146B
  8
CELO
 10
116.155876159668
 20
-0.0000133514404297
 30
326.39340209960937
 70
   192
  0
VERTEX
  5
146C
  8
CELO
 10
118.554328918457
 20
-0.0000133514404297
 30
324.445068359375
 70
   192
  0
VERTEX
  5
146D
  8
CELO
 10
121.2410507202148
 20
-0.0000133514404297
 30
323.05316162109369
 70
   192
  0
VERTEX
  5
146E
  8
CELO
 10
124.0330276489258
 20
-0.0000133514404297
 30
322.25042724609381
 70
   192
  0
VERTEX
  5
146F
  8
CELO
 10
126.76247406005859
 20
-0.0000133514404297
 30
322.0
 70
   192
  0
VERTEX
  5
1470
  8
CELO
 10
873.23754882812489
 20
-0.0000133514404297
 30
322.0
 70
   192
  0
VERTEX
  5
1471
  8
CELO
 10
888.27093505859375
 20
-0.0000152587890625
 30
345.36392211914062
 70
   192
  0
VERTEX
  5
1472
  8
CELO
 10
888.56353759765625
 20
-0.0000152587890625
 30
346.09442138671869
 70
   192
  0
VERTEX
  5
1473
  8
CELO
 10
888.37792968749989
 20
-0.0000152587890625
 30
345.73617553710937
 70
   192
  0
VERTEX
  5
1474
  8
CELO
 10
888.82330322265625
 20
-0.0000152587890625
 30
346.41421508789062
 70
   192
  0
VERTEX
  5
1475
  8
CELO
 10
889.14312744140625
 20
-0.0000152587890625
 30
346.67398071289062
 70
   192
  0
VERTEX
  5
1476
  8
CELO
 10
888.23754882812489
 20
-0.0000152587890625
 30
345.0
 70
   192
  0
VERTEX
  5
1477
  8
CELO
 10
889.50134277343739
 20
-0.0000152587890625
 30
346.85958862304687
 70
   192
  0
VERTEX
  5
1478
  8
CELO
 10
889.87359619140625
 20
-0.0000152587890625
 30
346.96661376953131
 70
   192
  0
VERTEX
  5
1479
  8
CELO
 10
890.23754882812489
 20
-0.0000152587890625
 30
347.0
 70
   192
  0
VERTEX
  5
147A
  8
CELO
 10
888.23754882812489
 20
-0.0000152587890625
 30
337.0
 70
   192
  0
VERTEX
  5
147B
  8
CELO
 10
887.98712158203125
 20
-0.0000152587890625
 30
334.27056884765619
 70
   192
  0
VERTEX
  5
147C
  8
CELO
 10
887.18432617187489
 20
-0.0000152587890625
 30
331.47857666015631
 70
   192
  0
VERTEX
  5
147D
  8
CELO
 10
885.79248046874989
 20
-0.0000152587890625
 30
328.79183959960937
 70
   192
  0
VERTEX
  5
147E
  8
CELO
 10
883.84411621093739
 20
-0.0000133514404297
 30
326.39340209960937
 70
   192
  0
VERTEX
  5
147F
  8
CELO
 10
881.44567871093739
 20
-0.0000133514404297
 30
324.445068359375
 70
   192
  0
VERTEX
  5
1480
  8
CELO
 10
988.23754882812489
 20
11.669059753417971
 30
-0.0000002767341698
 70
   192
  0
VERTEX
  5
1481
  8
CELO
 10
987.8118896484375
 20
11.25106620788574
 30
347.0
 70
   192
  0
VERTEX
  5
1482
  8
CELO
 10
987.8118896484375
 20
11.251081466674799
 30
-0.000000295004611
 70
   192
  0
VERTEX
  5
1483
  8
CELO
 10
960.0
 20
0.0
 30
-0.0000007868050034
 70
   192
  0
VERTEX
  5
1484
  8
CELO
 10
960.5965576171875
 20
0.0044326782226563
 30
347.0
 70
   192
  0
VERTEX
  5
1485
  8
CELO
 10
960.0
 20
-0.0000152587890625
 30
347.0
 70
   192
  0
VERTEX
  5
1486
  8
CELO
 10
960.5965576171875
 20
0.0044479370117188
 30
-0.000000786610542
 70
   192
  0
VERTEX
  5
1487
  8
CELO
 10
968.29498291015625
 20
0.8695392608642578
 30
-0.0000007487961966
 70
   192
  0
VERTEX
  5
1488
  8
CELO
 10
968.29498291015625
 20
0.8695240020751953
 30
347.0
 70
   192
  0
VERTEX
  5
1489
  8
CELO
 10
975.27679443359375
 20
3.0321922302246089
 30
-0.0000006542636584
 70
   192
  0
VERTEX
  5
148A
  8
CELO
 10
975.27679443359375
 20
3.032176971435546
 30
347.0
 70
   192
  0
VERTEX
  5
148B
  8
CELO
 10
981.74853515624989
 20
6.4291725158691397
 30
-0.0000005057769386
 70
   192
  0
VERTEX
  5
148C
  8
CELO
 10
981.74853515624989
 20
6.4291572570800781
 30
347.0
 70
   192
  0
VERTEX
  5
148D
  8
CELO
 10
988.23754882812489
 20
11.669044494628899
 30
347.0
 70
   192
  0
VERTEX
  5
148E
  8
CELO
 10
40.0
 20
-0.0000152587890625
 30
347.0
 70
   192
  0
VERTEX
  5
148F
  8
CELO
 10
39.403446197509773
 20
0.0044479370117188
 30
-0.000000786610542
 70
   192
  0
VERTEX
  5
1490
  8
CELO
 10
40.0
 20
0.0
 30
-0.0000007868050034
 70
   192
  0
VERTEX
  5
1491
  8
CELO
 10
11.76247406005859
 20
11.669059753417971
 30
-0.0000002767341698
 70
   192
  0
VERTEX
  5
1492
  8
CELO
 10
12.18813800811767
 20
11.25106620788574
 30
347.0
 70
   192
  0
VERTEX
  5
1493
  8
CELO
 10
11.76247406005859
 20
11.669044494628899
 30
347.0
 70
   192
  0
VERTEX
  5
1494
  8
CELO
 10
12.18813800811767
 20
11.251081466674799
 30
-0.000000295004611
 70
   192
  0
VERTEX
  5
1495
  8
CELO
 10
18.251447677612301
 20
6.4291725158691397
 30
-0.0000005057769386
 70
   192
  0
VERTEX
  5
1496
  8
CELO
 10
18.251447677612301
 20
6.4291572570800781
 30
347.0
 70
   192
  0
VERTEX
  5
1497
  8
CELO
 10
24.723180770874031
 20
3.0321922302246089
 30
-0.0000006542636584
 70
   192
  0
VERTEX
  5
1498
  8
CELO
 10
24.723180770874031
 20
3.032176971435546
 30
347.0
 70
   192
  0
VERTEX
  5
1499
  8
CELO
 10
31.704996109008789
 20
0.8695392608642578
 30
-0.0000007487961966
 70
   192
  0
VERTEX
  5
149A
  8
CELO
 10
31.704996109008789
 20
0.8695240020751953
 30
347.0
 70
   192
  0
VERTEX
  5
149B
  8
CELO
 10
39.403446197509773
 20
0.0044326782226563
 30
347.0
 70
   192
  0
VERTEX
  5
149C
  8
CELO
 10
988.23754882812489
 20
11.669059753417971
 30
-0.0000002767341698
 70
   192
  0
VERTEX
  5
149D
  8
CELO
 10
981.9066162109375
 20
17.999984741210941
 30
347.0
 70
   192
  0
VERTEX
  5
149E
  8
CELO
 10
988.23754882812489
 20
11.669044494628899
 30
347.0
 70
   192
  0
VERTEX
  5
149F
  8
CELO
 10
981.9066162109375
 20
18.0
 30
0.0
 70
   192
  0
VERTEX
  5
14A0
  8
CELO
 10
18.093414306640621
 20
17.999984741210941
 30
347.0
 70
   192
  0
VERTEX
  5
14A1
  8
CELO
 10
11.76247406005859
 20
11.669059753417971
 30
-0.0000002767341698
 70
   192
  0
VERTEX
  5
14A2
  8
CELO
 10
11.76247406005859
 20
11.669044494628899
 30
347.0
 70
   192
  0
VERTEX
  5
14A3
  8
CELO
 10
18.093414306640621
 20
18.0
 30
0.0
 70
   192
  0
VERTEX
  5
14A4
  8
CELO
 10
111.76247406005859
 20
-0.0000152587890625
 30
337.0
 70
   192
  0
VERTEX
  5
14A5
  8
CELO
 10
111.76247406005859
 20
15.99998474121093
 30
345.0
 70
   192
  0
VERTEX
  5
14A6
  8
CELO
 10
111.76247406005859
 20
-0.0000152587890625
 30
345.0
 70
   192
  0
VERTEX
  5
14A7
  8
CELO
 10
111.76247406005859
 20
15.99998474121093
 30
337.0
 70
   192
  0
VERTEX
  5
14A8
  8
CELO
 10
888.23754882812489
 20
15.99998474121093
 30
345.0
 70
   192
  0
VERTEX
  5
14A9
  8
CELO
 10
888.23754882812489
 20
-0.0000152587890625
 30
337.0
 70
   192
  0
VERTEX
  5
14AA
  8
CELO
 10
888.23754882812489
 20
-0.0000152587890625
 30
345.0
 70
   192
  0
VERTEX
  5
14AB
  8
CELO
 10
888.23754882812489
 20
15.99998474121093
 30
337.0
 70
   192
  0
VERTEX
  5
14AC
  8
CELO
 10
873.23754882812489
 20
7.9999866485595703
 30
302.0
 70
   192
  0
VERTEX
  5
14AD
  8
CELO
 10
875.07800292968739
 20
7.9999866485595703
 30
302.35104370117187
 70
   192
  0
VERTEX
  5
14AE
  8
CELO
 10
874.14733886718761
 20
7.9999866485595703
 30
302.08346557617187
 70
   192
  0
VERTEX
  5
14AF
  8
CELO
 10
878.237548828125
 20
7.9999866485595703
 30
307.0
 70
   192
  0
VERTEX
  5
14B0
  8
CELO
 10
873.23754882812489
 20
7.999985694885253
 30
320.0
 70
   192
  0
VERTEX
  5
14B1
  8
CELO
 10
878.237548828125
 20
7.999985694885253
 30
320.75192260742187
 70
   192
  0
VERTEX
  5
14B2
  8
CELO
 10
126.76247406005859
 20
7.999985694885253
 30
320.0
 70
   192
  0
VERTEX
  5
14B3
  8
CELO
 10
121.76247406005859
 20
7.9999866485595703
 30
307.0
 70
   192
  0
VERTEX
  5
14B4
  8
CELO
 10
121.76247406005859
 20
7.999985694885253
 30
320.75192260742187
 70
   192
  0
VERTEX
  5
14B5
  8
CELO
 10
121.845947265625
 20
7.9999866485595703
 30
306.09017944335937
 70
   192
  0
VERTEX
  5
14B6
  8
CELO
 10
122.1135330200195
 20
7.9999866485595703
 30
305.15951538085937
 70
   192
  0
VERTEX
  5
14B7
  8
CELO
 10
122.57749938964839
 20
7.9999866485595703
 30
304.26394653320312
 70
   192
  0
VERTEX
  5
14B8
  8
CELO
 10
123.22694396972651
 20
7.9999866485595703
 30
303.4644775390625
 70
   192
  0
VERTEX
  5
14B9
  8
CELO
 10
124.02642822265619
 20
7.9999866485595703
 30
302.81503295898437
 70
   192
  0
VERTEX
  5
14BA
  8
CELO
 10
124.9219970703125
 20
7.9999866485595703
 30
302.35104370117187
 70
   192
  0
VERTEX
  5
14BB
  8
CELO
 10
125.8526611328125
 20
7.9999866485595703
 30
302.08346557617187
 70
   192
  0
VERTEX
  5
14BC
  8
CELO
 10
126.76247406005859
 20
7.9999866485595703
 30
302.0
 70
   192
  0
VERTEX
  5
14BD
  8
CELO
 10
878.154052734375
 20
7.9999866485595703
 30
306.09017944335937
 70
   192
  0
VERTEX
  5
14BE
  8
CELO
 10
877.886474609375
 20
7.9999866485595703
 30
305.15951538085937
 70
   192
  0
VERTEX
  5
14BF
  8
CELO
 10
877.42248535156239
 20
7.9999866485595703
 30
304.26394653320312
 70
   192
  0
VERTEX
  5
14C0
  8
CELO
 10
876.7730712890625
 20
7.9999866485595703
 30
303.4644775390625
 70
   192
  0
VERTEX
  5
14C1
  8
CELO
 10
875.97357177734375
 20
7.9999866485595703
 30
302.81503295898437
 70
   192
  0
VERTEX
  5
14C2
  8
CELO
 10
881.25701904296875
 20
11.019449234008791
 30
322.857666015625
 70
   192
  0
VERTEX
  5
14C3
  8
CELO
 10
878.237548828125
 20
7.999985694885253
 30
320.75192260742187
 70
   192
  0
VERTEX
  5
14C4
  8
CELO
 10
878.17987060546864
 20
7.9423551559448242
 30
321.233154296875
 70
   192
  0
VERTEX
  5
14C5
  8
CELO
 10
878.237548828125
 20
7.9999866485595703
 30
307.0
 70
   192
  0
VERTEX
  5
14C6
  8
CELO
 10
888.23754882812489
 20
17.999984741210941
 30
329.0
 70
   192
  0
VERTEX
  5
14C7
  8
CELO
 10
888.23754882812489
 20
17.99998664855957
 30
307.0
 70
   192
  0
VERTEX
  5
14C8
  8
CELO
 10
887.82995605468739
 20
17.59242057800293
 30
330.96786499023437
 70
   192
  0
VERTEX
  5
14C9
  8
CELO
 10
886.19549560546864
 20
15.95795059204101
 30
327.92031860351562
 70
   192
  0
VERTEX
  5
14CA
  8
CELO
 10
887.74310302734375
 20
17.505578994750969
 30
331.03680419921869
 70
   192
  0
VERTEX
  5
14CB
  8
CELO
 10
887.90435791015625
 20
17.666788101196289
 30
330.87423706054687
 70
   192
  0
VERTEX
  5
14CC
  8
CELO
 10
888.01824951171875
 20
17.780708312988281
 30
330.64373779296869
 70
   192
  0
VERTEX
  5
14CD
  8
CELO
 10
888.15423583984375
 20
17.916690826416009
 30
330.115966796875
 70
   192
  0
VERTEX
  5
14CE
  8
CELO
 10
883.992431640625
 20
13.754885673522949
 30
325.12933349609381
 70
   192
  0
VERTEX
  5
14CF
  8
CELO
 10
873.23754882812489
 20
7.9999866485595703
 30
302.0
 70
   192
  0
VERTEX
  5
14D0
  8
CELO
 10
875.96697998046875
 20
17.99998664855957
 30
292.25042724609369
 70
   192
  0
VERTEX
  5
14D1
  8
CELO
 10
873.23754882812489
 20
17.99998664855957
 30
292.0
 70
   192
  0
VERTEX
  5
14D2
  8
CELO
 10
888.23754882812489
 20
17.99998664855957
 30
307.0
 70
   192
  0
VERTEX
  5
14D3
  8
CELO
 10
878.13140869140625
 20
7.9999866485595703
 30
305.9754638671875
 70
   192
  0
VERTEX
  5
14D4
  8
CELO
 10
878.237548828125
 20
7.9999866485595703
 30
307.0
 70
   192
  0
VERTEX
  5
14D5
  8
CELO
 10
887.98712158203125
 20
17.99998664855957
 30
304.27056884765631
 70
   192
  0
VERTEX
  5
14D6
  8
CELO
 10
887.18432617187489
 20
17.99998664855957
 30
301.47857666015619
 70
   192
  0
VERTEX
  5
14D7
  8
CELO
 10
877.82623291015625
 20
7.9999866485595703
 30
305.01409912109381
 70
   192
  0
VERTEX
  5
14D8
  8
CELO
 10
885.79248046874989
 20
17.99998664855957
 30
298.79183959960937
 70
   192
  0
VERTEX
  5
14D9
  8
CELO
 10
877.35736083984375
 20
7.9999866485595703
 30
304.16683959960937
 70
   192
  0
VERTEX
  5
14DA
  8
CELO
 10
884.8828125
 20
17.99998664855957
 30
297.5455322265625
 70
   192
  0
VERTEX
  5
14DB
  8
CELO
 10
876.7730712890625
 20
7.9999866485595703
 30
303.4644775390625
 70
   192
  0
VERTEX
  5
14DC
  8
CELO
 10
883.84411621093739
 20
17.99998664855957
 30
296.39340209960937
 70
   192
  0
VERTEX
  5
14DD
  8
CELO
 10
876.0706787109375
 20
7.9999866485595703
 30
302.88015747070312
 70
   192
  0
VERTEX
  5
14DE
  8
CELO
 10
882.6920166015625
 20
17.99998664855957
 30
295.35470581054687
 70
   192
  0
VERTEX
  5
14DF
  8
CELO
 10
881.44567871093739
 20
17.99998664855957
 30
294.445068359375
 70
   192
  0
VERTEX
  5
14E0
  8
CELO
 10
875.223388671875
 20
7.9999866485595703
 30
302.41128540039062
 70
   192
  0
VERTEX
  5
14E1
  8
CELO
 10
878.75897216796875
 20
17.99998664855957
 30
293.05316162109381
 70
   192
  0
VERTEX
  5
14E2
  8
CELO
 10
874.2620849609375
 20
7.9999866485595703
 30
302.10610961914062
 70
   192
  0
VERTEX
  5
14E3
  8
CELO
 10
873.23754882812489
 20
7.9999866485595703
 30
302.0
 70
   192
  0
VERTEX
  5
14E4
  8
CELO
 10
126.76247406005859
 20
17.99998664855957
 30
292.0
 70
   192
  0
VERTEX
  5
14E5
  8
CELO
 10
126.76247406005859
 20
7.9999866485595703
 30
302.0
 70
   192
  0
VERTEX
  5
14E6
  8
CELO
 10
873.23754882812489
 20
17.99998664855957
 30
292.0
 70
   192
  0
VERTEX
  5
14E7
  8
CELO
 10
121.76247406005859
 20
7.9999866485595703
 30
307.0
 70
   192
  0
VERTEX
  5
14E8
  8
CELO
 10
112.0128936767578
 20
17.99998664855957
 30
304.27056884765631
 70
   192
  0
VERTEX
  5
14E9
  8
CELO
 10
111.76247406005859
 20
17.99998664855957
 30
307.0
 70
   192
  0
VERTEX
  5
14EA
  8
CELO
 10
126.76247406005859
 20
17.99998664855957
 30
292.0
 70
   192
  0
VERTEX
  5
14EB
  8
CELO
 10
125.73793029785151
 20
7.9999866485595703
 30
302.10610961914062
 70
   192
  0
VERTEX
  5
14EC
  8
CELO
 10
126.76247406005859
 20
7.9999866485595703
 30
302.0
 70
   192
  0
VERTEX
  5
14ED
  8
CELO
 10
124.0330276489258
 20
17.99998664855957
 30
292.25042724609369
 70
   192
  0
VERTEX
  5
14EE
  8
CELO
 10
121.2410507202148
 20
17.99998664855957
 30
293.05316162109381
 70
   192
  0
VERTEX
  5
14EF
  8
CELO
 10
124.77658843994141
 20
7.9999866485595703
 30
302.41128540039062
 70
   192
  0
VERTEX
  5
14F0
  8
CELO
 10
118.554328918457
 20
17.99998664855957
 30
294.445068359375
 70
   192
  0
VERTEX
  5
14F1
  8
CELO
 10
123.92929840087891
 20
7.9999866485595703
 30
302.88015747070312
 70
   192
  0
VERTEX
  5
14F2
  8
CELO
 10
117.30799865722651
 20
17.99998664855957
 30
295.35470581054687
 70
   192
  0
VERTEX
  5
14F3
  8
CELO
 10
123.22694396972651
 20
7.9999866485595703
 30
303.4644775390625
 70
   192
  0
VERTEX
  5
14F4
  8
CELO
 10
116.155876159668
 20
17.99998664855957
 30
296.39340209960937
 70
   192
  0
VERTEX
  5
14F5
  8
CELO
 10
122.6426315307617
 20
7.9999866485595703
 30
304.16683959960937
 70
   192
  0
VERTEX
  5
14F6
  8
CELO
 10
115.1171798706055
 20
17.99998664855957
 30
297.5455322265625
 70
   192
  0
VERTEX
  5
14F7
  8
CELO
 10
114.20754241943359
 20
17.99998664855957
 30
298.79183959960937
 70
   192
  0
VERTEX
  5
14F8
  8
CELO
 10
122.17376708984369
 20
7.9999866485595703
 30
305.01409912109381
 70
   192
  0
VERTEX
  5
14F9
  8
CELO
 10
112.81565093994141
 20
17.99998664855957
 30
301.47857666015619
 70
   192
  0
VERTEX
  5
14FA
  8
CELO
 10
121.8685684204101
 20
7.9999866485595703
 30
305.9754638671875
 70
   192
  0
VERTEX
  5
14FB
  8
CELO
 10
121.76247406005859
 20
7.999985694885253
 30
320.75192260742187
 70
   192
  0
VERTEX
  5
14FC
  8
CELO
 10
118.7430114746093
 20
11.019449234008791
 30
322.857666015625
 70
   192
  0
VERTEX
  5
14FD
  8
CELO
 10
121.8201065063476
 20
7.9423551559448242
 30
321.233154296875
 70
   192
  0
VERTEX
  5
14FE
  8
CELO
 10
111.76247406005859
 20
17.999984741210941
 30
329.0
 70
   192
  0
VERTEX
  5
14FF
  8
CELO
 10
121.76247406005859
 20
7.9999866485595703
 30
307.0
 70
   192
  0
VERTEX
  5
1500
  8
CELO
 10
111.76247406005859
 20
17.99998664855957
 30
307.0
 70
   192
  0
VERTEX
  5
1501
  8
CELO
 10
113.8045120239258
 20
15.95795059204101
 30
327.92031860351562
 70
   192
  0
VERTEX
  5
1502
  8
CELO
 10
112.1702880859375
 20
17.592168807983398
 30
330.96823120117187
 70
   192
  0
VERTEX
  5
1503
  8
CELO
 10
112.2568817138672
 20
17.505578994750969
 30
331.03680419921869
 70
   192
  0
VERTEX
  5
1504
  8
CELO
 10
112.095947265625
 20
17.6665153503418
 30
330.8746337890625
 70
   192
  0
VERTEX
  5
1505
  8
CELO
 10
111.98178863525391
 20
17.780668258666989
 30
330.64407348632812
 70
   192
  0
VERTEX
  5
1506
  8
CELO
 10
111.8460235595703
 20
17.916435241699219
 30
330.11688232421869
 70
   192
  0
VERTEX
  5
1507
  8
CELO
 10
116.0075759887695
 20
13.754885673522949
 30
325.12933349609381
 70
   192
  0
VERTEX
  5
1508
  8
CELO
 10
888.23754882812489
 20
-0.0000152587890625
 30
345.0
 70
   192
  0
VERTEX
  5
1509
  8
CELO
 10
888.27093505859375
 20
16.363910675048832
 30
345.36392211914062
 70
   192
  0
VERTEX
  5
150A
  8
CELO
 10
888.23754882812489
 20
15.99998474121093
 30
345.0
 70
   192
  0
VERTEX
  5
150B
  8
CELO
 10
889.87359619140625
 20
17.966594696044918
 30
346.96661376953131
 70
   192
  0
VERTEX
  5
150C
  8
CELO
 10
890.23754882812489
 20
-0.0000152587890625
 30
347.0
 70
   192
  0
VERTEX
  5
150D
  8
CELO
 10
890.23754882812489
 20
17.999984741210941
 30
347.0
 70
   192
  0
VERTEX
  5
150E
  8
CELO
 10
889.87359619140625
 20
-0.0000152587890625
 30
346.96661376953131
 70
   192
  0
VERTEX
  5
150F
  8
CELO
 10
889.50134277343739
 20
17.859561920166009
 30
346.85958862304687
 70
   192
  0
VERTEX
  5
1510
  8
CELO
 10
889.50134277343739
 20
-0.0000152587890625
 30
346.85958862304687
 70
   192
  0
VERTEX
  5
1511
  8
CELO
 10
889.14312744140625
 20
17.67397499084473
 30
346.67398071289062
 70
   192
  0
VERTEX
  5
1512
  8
CELO
 10
889.14312744140625
 20
-0.0000152587890625
 30
346.67398071289062
 70
   192
  0
VERTEX
  5
1513
  8
CELO
 10
888.9769287109375
 20
17.552690505981442
 30
346.55270385742187
 70
   192
  0
VERTEX
  5
1514
  8
CELO
 10
888.82330322265625
 20
-0.0000152587890625
 30
346.41421508789062
 70
   192
  0
VERTEX
  5
1515
  8
CELO
 10
888.82330322265625
 20
17.41419792175293
 30
346.41421508789062
 70
   192
  0
VERTEX
  5
1516
  8
CELO
 10
888.68481445312489
 20
17.26058197021484
 30
346.26058959960937
 70
   192
  0
VERTEX
  5
1517
  8
CELO
 10
888.56353759765625
 20
-0.0000152587890625
 30
346.09442138671869
 70
   192
  0
VERTEX
  5
1518
  8
CELO
 10
888.56353759765625
 20
17.094404220581051
 30
346.09442138671869
 70
   192
  0
VERTEX
  5
1519
  8
CELO
 10
888.37792968749989
 20
-0.0000152587890625
 30
345.73617553710937
 70
   192
  0
VERTEX
  5
151A
  8
CELO
 10
888.37792968749989
 20
16.736173629760739
 30
345.73617553710937
 70
   192
  0
VERTEX
  5
151B
  8
CELO
 10
888.27093505859375
 20
-0.0000152587890625
 30
345.36392211914062
 70
   192
  0
VERTEX
  5
151C
  8
CELO
 10
888.9769287109375
 20
17.552690505981442
 30
346.55270385742187
 70
   192
  0
VERTEX
  5
151D
  8
CELO
 10
888.82330322265625
 20
17.41419792175293
 30
337.0
 70
   192
  0
VERTEX
  5
151E
  8
CELO
 10
888.82330322265625
 20
17.41419792175293
 30
346.41421508789062
 70
   192
  0
VERTEX
  5
151F
  8
CELO
 10
888.23754882812489
 20
15.99998474121093
 30
345.0
 70
   192
  0
VERTEX
  5
1520
  8
CELO
 10
888.27093505859375
 20
16.363910675048832
 30
337.0
 70
   192
  0
VERTEX
  5
1521
  8
CELO
 10
888.23754882812489
 20
15.99998474121093
 30
337.0
 70
   192
  0
VERTEX
  5
1522
  8
CELO
 10
888.27093505859375
 20
16.363910675048832
 30
345.36392211914062
 70
   192
  0
VERTEX
  5
1523
  8
CELO
 10
888.37792968749989
 20
16.736173629760739
 30
345.73617553710937
 70
   192
  0
VERTEX
  5
1524
  8
CELO
 10
888.37792968749989
 20
16.736175537109371
 30
337.0
 70
   192
  0
VERTEX
  5
1525
  8
CELO
 10
888.56353759765625
 20
17.094404220581051
 30
346.09442138671869
 70
   192
  0
VERTEX
  5
1526
  8
CELO
 10
888.56353759765625
 20
17.094404220581051
 30
337.0
 70
   192
  0
VERTEX
  5
1527
  8
CELO
 10
888.68481445312489
 20
17.26058197021484
 30
346.26058959960937
 70
   192
  0
VERTEX
  5
1528
  8
CELO
 10
890.23754882812489
 20
17.999984741210941
 30
337.0
 70
   192
  0
VERTEX
  5
1529
  8
CELO
 10
889.87359619140625
 20
17.966594696044918
 30
346.96661376953131
 70
   192
  0
VERTEX
  5
152A
  8
CELO
 10
890.23754882812489
 20
17.999984741210941
 30
347.0
 70
   192
  0
VERTEX
  5
152B
  8
CELO
 10
889.87359619140625
 20
17.966596603393551
 30
337.0
 70
   192
  0
VERTEX
  5
152C
  8
CELO
 10
889.50134277343739
 20
17.859561920166009
 30
346.85958862304687
 70
   192
  0
VERTEX
  5
152D
  8
CELO
 10
889.50134277343739
 20
17.859561920166009
 30
337.0
 70
   192
  0
VERTEX
  5
152E
  8
CELO
 10
889.14312744140625
 20
17.67397499084473
 30
346.67398071289062
 70
   192
  0
VERTEX
  5
152F
  8
CELO
 10
889.14312744140625
 20
17.673976898193359
 30
337.0
 70
   192
  0
VERTEX
  5
1530
  8
CELO
 10
888.8824462890625
 20
17.970525741577148
 30
331.27935791015619
 70
   192
  0
VERTEX
  5
1531
  8
CELO
 10
888.15423583984375
 20
17.916690826416009
 30
330.115966796875
 70
   192
  0
VERTEX
  5
1532
  8
CELO
 10
889.334716796875
 20
17.957548141479489
 30
332.98565673828131
 70
   192
  0
VERTEX
  5
1533
  8
CELO
 10
888.21899414062511
 20
17.981441497802731
 30
329.56173706054687
 70
   192
  0
VERTEX
  5
1534
  8
CELO
 10
888.69219970703125
 20
17.999984741210941
 30
329.91815185546869
 70
   192
  0
VERTEX
  5
1535
  8
CELO
 10
888.23754882812489
 20
17.999984741210941
 30
329.0
 70
   192
  0
VERTEX
  5
1536
  8
CELO
 10
888.2515869140625
 20
16.409805297851559
 30
336.0767822265625
 70
   192
  0
VERTEX
  5
1537
  8
CELO
 10
888.23754882812489
 20
15.99998474121093
 30
337.0
 70
   192
  0
VERTEX
  5
1538
  8
CELO
 10
888.27093505859375
 20
16.363910675048832
 30
337.0
 70
   192
  0
VERTEX
  5
1539
  8
CELO
 10
888.21148681640625
 20
15.99998474121093
 30
336.11627197265619
 70
   192
  0
VERTEX
  5
153A
  8
CELO
 10
890.207763671875
 20
17.999984741210941
 30
335.99484252929687
 70
   192
  0
VERTEX
  5
153B
  8
CELO
 10
889.87359619140625
 20
17.966596603393551
 30
337.0
 70
   192
  0
VERTEX
  5
153C
  8
CELO
 10
890.23754882812489
 20
17.999984741210941
 30
337.0
 70
   192
  0
VERTEX
  5
153D
  8
CELO
 10
887.83294677734375
 20
16.409805297851559
 30
333.36016845703131
 70
   192
  0
VERTEX
  5
153E
  8
CELO
 10
887.7972412109375
 20
15.99998569488525
 30
333.3924560546875
 70
   192
  0
VERTEX
  5
153F
  8
CELO
 10
887.20379638671875
 20
15.99998569488525
 30
331.52792358398437
 70
   192
  0
VERTEX
  5
1540
  8
CELO
 10
887.2183837890625
 20
16.420209884643551
 30
331.44320678710937
 70
   192
  0
VERTEX
  5
1541
  8
CELO
 10
887.95141601562489
 20
16.794340133666989
 30
333.33062744140619
 70
   192
  0
VERTEX
  5
1542
  8
CELO
 10
887.31634521484375
 20
16.82417106628418
 30
331.32958984375
 70
   192
  0
VERTEX
  5
1543
  8
CELO
 10
888.13336181640614
 20
17.133255004882809
 30
333.28524780273437
 70
   192
  0
VERTEX
  5
1544
  8
CELO
 10
887.4935302734375
 20
17.191059112548832
 30
331.1923828125
 70
   192
  0
VERTEX
  5
1545
  8
CELO
 10
888.36016845703125
 20
17.414199829101559
 30
333.22869873046881
 70
   192
  0
VERTEX
  5
1546
  8
CELO
 10
887.610107421875
 20
17.356184005737301
 30
331.1163330078125
 70
   192
  0
VERTEX
  5
1547
  8
CELO
 10
887.74310302734375
 20
17.505578994750969
 30
331.03680419921869
 70
   192
  0
VERTEX
  5
1548
  8
CELO
 10
888.63275146484375
 20
17.64792442321777
 30
333.16073608398437
 70
   192
  0
VERTEX
  5
1549
  8
CELO
 10
887.82995605468739
 20
17.59242057800293
 30
330.96786499023437
 70
   192
  0
VERTEX
  5
154A
  8
CELO
 10
887.90435791015625
 20
17.666788101196289
 30
330.87423706054687
 70
   192
  0
VERTEX
  5
154B
  8
CELO
 10
888.96160888671875
 20
17.835468292236332
 30
333.07870483398438
 70
   192
  0
VERTEX
  5
154C
  8
CELO
 10
888.01824951171875
 20
17.780708312988281
 30
330.64373779296869
 70
   192
  0
VERTEX
  5
154D
  8
CELO
 10
888.37792968749989
 20
16.736175537109371
 30
337.0
 70
   192
  0
VERTEX
  5
154E
  8
CELO
 10
888.37347412109375
 20
16.794340133666989
 30
336.06927490234381
 70
   192
  0
VERTEX
  5
154F
  8
CELO
 10
888.56353759765625
 20
17.094404220581051
 30
337.0
 70
   192
  0
VERTEX
  5
1550
  8
CELO
 10
888.56066894531239
 20
17.133255004882809
 30
336.05776977539062
 70
   192
  0
VERTEX
  5
1551
  8
CELO
 10
888.82330322265625
 20
17.41419792175293
 30
337.0
 70
   192
  0
VERTEX
  5
1552
  8
CELO
 10
888.7939453125
 20
17.414199829101559
 30
336.04342651367187
 70
   192
  0
VERTEX
  5
1553
  8
CELO
 10
889.14312744140625
 20
17.673976898193359
 30
337.0
 70
   192
  0
VERTEX
  5
1554
  8
CELO
 10
889.0743408203125
 20
17.64792442321777
 30
336.02618408203119
 70
   192
  0
VERTEX
  5
1555
  8
CELO
 10
889.50134277343739
 20
17.859561920166009
 30
337.0
 70
   192
  0
VERTEX
  5
1556
  8
CELO
 10
889.41259765625
 20
17.835468292236332
 30
336.00537109375
 70
   192
  0
VERTEX
  5
1557
  8
CELO
 10
889.79644775390625
 20
17.957546234130859
 30
335.98178100585937
 70
   192
  0
VERTEX
  5
1558
  8
CELO
 10
889.73223876953125
 20
17.999984741210941
 30
332.88616943359369
 70
   192
  0
VERTEX
  5
1559
  8
CELO
 10
878.111328125
 20
7.8317089080810538
 30
321.5531005859375
 70
   192
  0
VERTEX
  5
155A
  8
CELO
 10
880.90032958984375
 20
10.66279125213623
 30
322.62612915039062
 70
   192
  0
VERTEX
  5
155B
  8
CELO
 10
878.17987060546864
 20
7.9423551559448242
 30
321.233154296875
 70
   192
  0
VERTEX
  5
155C
  8
CELO
 10
880.8260498046875
 20
10.465900421142569
 30
323.17852783203119
 70
   192
  0
VERTEX
  5
155D
  8
CELO
 10
878.07073974609375
 20
7.6687984466552734
 30
321.85479736328131
 70
   192
  0
VERTEX
  5
155E
  8
CELO
 10
881.19769287109375
 20
9.1930789947509766
 30
324.28640747070312
 70
   192
  0
VERTEX
  5
155F
  8
CELO
 10
878.1829833984375
 20
6.6353111267089844
 30
322.72897338867188
 70
   192
  0
VERTEX
  5
1560
  8
CELO
 10
878.3802490234375
 20
5.999985694885253
 30
322.90914916992187
 70
   192
  0
VERTEX
  5
1561
  8
CELO
 10
880.85064697265625
 20
10.133241653442379
 30
323.66387939453131
 70
   192
  0
VERTEX
  5
1562
  8
CELO
 10
878.07452392578125
 20
7.2122926712036133
 30
322.3695068359375
 70
   192
  0
VERTEX
  5
1563
  8
CELO
 10
881.00506591796875
 20
9.726750373840332
 30
324.06106567382812
 70
   192
  0
VERTEX
  5
1564
  8
CELO
 10
883.7188720703125
 20
12.05045127868652
 30
326.26962280273437
 70
   192
  0
VERTEX
  5
1565
  8
CELO
 10
883.63409423828125
 20
12.56448078155517
 30
326.08856201171869
 70
   192
  0
VERTEX
  5
1566
  8
CELO
 10
885.76080322265625
 20
14.36457443237304
 30
328.74359130859369
 70
   192
  0
VERTEX
  5
1567
  8
CELO
 10
885.75909423828114
 20
14.85407829284668
 30
328.63973999023437
 70
   192
  0
VERTEX
  5
1568
  8
CELO
 10
887.20379638671875
 20
15.99998569488525
 30
331.52792358398437
 70
   192
  0
VERTEX
  5
1569
  8
CELO
 10
887.2183837890625
 20
16.420209884643551
 30
331.44320678710937
 70
   192
  0
VERTEX
  5
156A
  8
CELO
 10
886.119140625
 20
15.88160991668701
 30
327.80059814453119
 70
   192
  0
VERTEX
  5
156B
  8
CELO
 10
887.4935302734375
 20
17.191059112548832
 30
331.1923828125
 70
   192
  0
VERTEX
  5
156C
  8
CELO
 10
887.74310302734375
 20
17.505578994750969
 30
331.03680419921869
 70
   192
  0
VERTEX
  5
156D
  8
CELO
 10
887.31634521484375
 20
16.82417106628418
 30
331.32958984375
 70
   192
  0
VERTEX
  5
156E
  8
CELO
 10
885.7801513671875
 20
15.239059448242189
 30
328.377197265625
 70
   192
  0
VERTEX
  5
156F
  8
CELO
 10
885.89544677734375
 20
15.58095455169677
 30
328.08154296875
 70
   192
  0
VERTEX
  5
1570
  8
CELO
 10
883.790283203125
 20
13.552755355834959
 30
324.92559814453119
 70
   192
  0
VERTEX
  5
1571
  8
CELO
 10
883.63104248046875
 20
13.29664993286133
 30
325.35330200195312
 70
   192
  0
VERTEX
  5
1572
  8
CELO
 10
883.5767822265625
 20
12.958534240722649
 30
325.74899291992187
 70
   192
  0
VERTEX
  5
1573
  8
CELO
 10
873.23754882812489
 20
7.9665966033935538
 30
320.36392211914062
 70
   192
  0
VERTEX
  5
1574
  8
CELO
 10
875.73150634765625
 20
7.8952112197875968
 30
320.83004760742188
 70
   192
  0
VERTEX
  5
1575
  8
CELO
 10
875.76135253906239
 20
7.950230598449707
 30
320.63681030273437
 70
   192
  0
VERTEX
  5
1576
  8
CELO
 10
878.27178955078125
 20
6.3209333419799796
 30
322.84231567382812
 70
   192
  0
VERTEX
  5
1577
  8
CELO
 10
875.84399414062489
 20
5.999985694885253
 30
322.22817993164062
 70
   192
  0
VERTEX
  5
1578
  8
CELO
 10
878.3802490234375
 20
5.999985694885253
 30
322.90914916992187
 70
   192
  0
VERTEX
  5
1579
  8
CELO
 10
873.23754882812489
 20
6.3639116287231436
 30
321.96661376953131
 70
   192
  0
VERTEX
  5
157A
  8
CELO
 10
873.23754882812489
 20
5.999985694885253
 30
322.0
 70
   192
  0
VERTEX
  5
157B
  8
CELO
 10
875.765625
 20
7.999985694885253
 30
320.18902587890631
 70
   192
  0
VERTEX
  5
157C
  8
CELO
 10
873.23754882812489
 20
7.999985694885253
 30
320.0
 70
   192
  0
VERTEX
  5
157D
  8
CELO
 10
878.22320556640625
 20
7.9856891632080069
 30
320.99609375
 70
   192
  0
VERTEX
  5
157E
  8
CELO
 10
878.237548828125
 20
7.999985694885253
 30
320.75192260742187
 70
   192
  0
VERTEX
  5
157F
  8
CELO
 10
875.7965087890625
 20
6.3655214309692383
 30
322.18569946289062
 70
   192
  0
VERTEX
  5
1580
  8
CELO
 10
875.7462158203125
 20
6.5238943099975577
 30
322.14044189453119
 70
   192
  0
VERTEX
  5
1581
  8
CELO
 10
873.23754882812489
 20
6.736175537109375
 30
321.85958862304687
 70
   192
  0
VERTEX
  5
1582
  8
CELO
 10
875.75659179687489
 20
6.7157907485961914
 30
322.07867431640631
 70
   192
  0
VERTEX
  5
1583
  8
CELO
 10
878.11669921875
 20
6.9345006942749023
 30
322.57070922851562
 70
   192
  0
VERTEX
  5
1584
  8
CELO
 10
875.7139892578125
 20
6.8654146194457999
 30
322.00619506835937
 70
   192
  0
VERTEX
  5
1585
  8
CELO
 10
875.72906494140625
 20
7.0364608764648429
 30
321.91485595703119
 70
   192
  0
VERTEX
  5
1586
  8
CELO
 10
878.07452392578125
 20
7.2122926712036133
 30
322.3695068359375
 70
   192
  0
VERTEX
  5
1587
  8
CELO
 10
875.6949462890625
 20
7.1732845306396484
 30
321.8172607421875
 70
   192
  0
VERTEX
  5
1588
  8
CELO
 10
875.71331787109375
 20
7.3174848556518546
 30
321.70379638671881
 70
   192
  0
VERTEX
  5
1589
  8
CELO
 10
873.23754882812489
 20
7.0944051742553711
 30
321.67398071289062
 70
   192
  0
VERTEX
  5
158A
  8
CELO
 10
878.058837890625
 20
7.4594078063964844
 30
322.12933349609369
 70
   192
  0
VERTEX
  5
158B
  8
CELO
 10
875.68896484375
 20
7.4369783401489249
 30
321.58477783203131
 70
   192
  0
VERTEX
  5
158C
  8
CELO
 10
875.71026611328125
 20
7.5568761825561523
 30
321.4508056640625
 70
   192
  0
VERTEX
  5
158D
  8
CELO
 10
873.23754882812489
 20
7.4141988754272461
 30
321.41421508789063
 70
   192
  0
VERTEX
  5
158E
  8
CELO
 10
878.07073974609375
 20
7.6687984466552734
 30
321.85479736328131
 70
   192
  0
VERTEX
  5
158F
  8
CELO
 10
875.69726562499989
 20
7.658421516418457
 30
321.30947875976562
 70
   192
  0
VERTEX
  5
1590
  8
CELO
 10
875.72265624999989
 20
7.7579603195190421
 30
321.14730834960937
 70
   192
  0
VERTEX
  5
1591
  8
CELO
 10
873.23754882812489
 20
7.6739768981933594
 30
321.09442138671869
 70
   192
  0
VERTEX
  5
1592
  8
CELO
 10
878.111328125
 20
7.8317089080810538
 30
321.5531005859375
 70
   192
  0
VERTEX
  5
1593
  8
CELO
 10
875.7215576171875
 20
7.8336915969848633
 30
320.99002075195312
 70
   192
  0
VERTEX
  5
1594
  8
CELO
 10
875.76556396484375
 20
7.973547935485839
 30
320.516845703125
 70
   192
  0
VERTEX
  5
1595
  8
CELO
 10
878.17987060546864
 20
7.9423551559448242
 30
321.233154296875
 70
   192
  0
VERTEX
  5
1596
  8
CELO
 10
878.1829833984375
 20
6.6353111267089844
 30
322.72897338867188
 70
   192
  0
VERTEX
  5
1597
  8
CELO
 10
873.23754882812489
 20
7.8595619201660147
 30
320.73617553710937
 70
   192
  0
VERTEX
  5
1598
  8
CELO
 10
126.76247406005859
 20
7.999985694885253
 30
320.0
 70
   192
  0
VERTEX
  5
1599
  8
CELO
 10
873.23754882812489
 20
7.9665966033935538
 30
320.36392211914062
 70
   192
  0
VERTEX
  5
159A
  8
CELO
 10
873.23754882812489
 20
7.999985694885253
 30
320.0
 70
   192
  0
VERTEX
  5
159B
  8
CELO
 10
873.23754882812489
 20
5.999985694885253
 30
322.0
 70
   192
  0
VERTEX
  5
159C
  8
CELO
 10
126.76247406005859
 20
6.3639116287231436
 30
321.96661376953131
 70
   192
  0
VERTEX
  5
159D
  8
CELO
 10
126.76247406005859
 20
5.999985694885253
 30
322.0
 70
   192
  0
VERTEX
  5
159E
  8
CELO
 10
873.23754882812489
 20
6.3639116287231436
 30
321.96661376953131
 70
   192
  0
VERTEX
  5
159F
  8
CELO
 10
126.76247406005859
 20
6.736175537109375
 30
321.85958862304687
 70
   192
  0
VERTEX
  5
15A0
  8
CELO
 10
873.23754882812489
 20
6.736175537109375
 30
321.85958862304687
 70
   192
  0
VERTEX
  5
15A1
  8
CELO
 10
126.76247406005859
 20
7.0944051742553711
 30
321.67398071289062
 70
   192
  0
VERTEX
  5
15A2
  8
CELO
 10
873.23754882812489
 20
7.0944051742553711
 30
321.67398071289062
 70
   192
  0
VERTEX
  5
15A3
  8
CELO
 10
873.23754882812489
 20
7.4141988754272461
 30
321.41421508789063
 70
   192
  0
VERTEX
  5
15A4
  8
CELO
 10
126.76247406005859
 20
7.4141988754272461
 30
321.41421508789063
 70
   192
  0
VERTEX
  5
15A5
  8
CELO
 10
126.76247406005859
 20
7.6739768981933594
 30
321.09442138671869
 70
   192
  0
VERTEX
  5
15A6
  8
CELO
 10
873.23754882812489
 20
7.6739768981933594
 30
321.09442138671869
 70
   192
  0
VERTEX
  5
15A7
  8
CELO
 10
126.76247406005859
 20
7.8595619201660147
 30
320.73617553710937
 70
   192
  0
VERTEX
  5
15A8
  8
CELO
 10
873.23754882812489
 20
7.8595619201660147
 30
320.73617553710937
 70
   192
  0
VERTEX
  5
15A9
  8
CELO
 10
126.76247406005859
 20
7.9665966033935538
 30
320.36392211914062
 70
   192
  0
VERTEX
  5
15AA
  8
CELO
 10
124.2344589233398
 20
7.973547935485839
 30
320.516845703125
 70
   192
  0
VERTEX
  5
15AB
  8
CELO
 10
121.8201065063476
 20
7.9423551559448242
 30
321.233154296875
 70
   192
  0
VERTEX
  5
15AC
  8
CELO
 10
124.23866271972651
 20
7.950230598449707
 30
320.63681030273437
 70
   192
  0
VERTEX
  5
15AD
  8
CELO
 10
124.15602111816401
 20
5.999985694885253
 30
322.22817993164062
 70
   192
  0
VERTEX
  5
15AE
  8
CELO
 10
121.7282333374023
 20
6.3209333419799796
 30
322.84231567382812
 70
   192
  0
VERTEX
  5
15AF
  8
CELO
 10
121.6197433471679
 20
5.999985694885253
 30
322.90914916992187
 70
   192
  0
VERTEX
  5
15B0
  8
CELO
 10
126.76247406005859
 20
6.4098043441772461
 30
321.95755004882812
 70
   192
  0
VERTEX
  5
15B1
  8
CELO
 10
126.76247406005859
 20
5.999985694885253
 30
322.0
 70
   192
  0
VERTEX
  5
15B2
  8
CELO
 10
124.23435974121089
 20
7.999985694885253
 30
320.18902587890631
 70
   192
  0
VERTEX
  5
15B3
  8
CELO
 10
126.76247406005859
 20
7.9575471878051749
 30
320.40982055664062
 70
   192
  0
VERTEX
  5
15B4
  8
CELO
 10
126.76247406005859
 20
7.999985694885253
 30
320.0
 70
   192
  0
VERTEX
  5
15B5
  8
CELO
 10
121.7767715454101
 20
7.9856891632080069
 30
320.99609375
 70
   192
  0
VERTEX
  5
15B6
  8
CELO
 10
121.76247406005859
 20
7.999985694885253
 30
320.75192260742187
 70
   192
  0
VERTEX
  5
15B7
  8
CELO
 10
124.203498840332
 20
6.3655214309692383
 30
322.18569946289062
 70
   192
  0
VERTEX
  5
15B8
  8
CELO
 10
124.25380706787109
 20
6.5238943099975577
 30
322.14044189453119
 70
   192
  0
VERTEX
  5
15B9
  8
CELO
 10
126.76247406005859
 20
6.7943401336669922
 30
321.83547973632812
 70
   192
  0
VERTEX
  5
15BA
  8
CELO
 10
124.24338531494141
 20
6.7157907485961914
 30
322.07867431640631
 70
   192
  0
VERTEX
  5
15BB
  8
CELO
 10
121.88331604003901
 20
6.9345006942749023
 30
322.57070922851562
 70
   192
  0
VERTEX
  5
15BC
  8
CELO
 10
124.2860412597656
 20
6.8654146194457999
 30
322.00619506835937
 70
   192
  0
VERTEX
  5
15BD
  8
CELO
 10
124.2709503173828
 20
7.0364608764648429
 30
321.91485595703119
 70
   192
  0
VERTEX
  5
15BE
  8
CELO
 10
121.92547607421869
 20
7.2122926712036133
 30
322.3695068359375
 70
   192
  0
VERTEX
  5
15BF
  8
CELO
 10
124.305061340332
 20
7.1732845306396484
 30
321.8172607421875
 70
   192
  0
VERTEX
  5
15C0
  8
CELO
 10
126.76247406005859
 20
7.1332550048828116
 30
321.64794921875
 70
   192
  0
VERTEX
  5
15C1
  8
CELO
 10
124.2866973876953
 20
7.3174848556518546
 30
321.70379638671881
 70
   192
  0
VERTEX
  5
15C2
  8
CELO
 10
121.94118499755859
 20
7.4594078063964844
 30
322.12933349609369
 70
   192
  0
VERTEX
  5
15C3
  8
CELO
 10
124.3110275268554
 20
7.4369783401489249
 30
321.58477783203131
 70
   192
  0
VERTEX
  5
15C4
  8
CELO
 10
126.76247406005859
 20
7.4141988754272461
 30
321.41421508789063
 70
   192
  0
VERTEX
  5
15C5
  8
CELO
 10
124.2897262573242
 20
7.5568761825561523
 30
321.4508056640625
 70
   192
  0
VERTEX
  5
15C6
  8
CELO
 10
121.9292678833008
 20
7.6687984466552734
 30
321.85479736328131
 70
   192
  0
VERTEX
  5
15C7
  8
CELO
 10
124.30274963378901
 20
7.658421516418457
 30
321.30947875976562
 70
   192
  0
VERTEX
  5
15C8
  8
CELO
 10
126.76247406005859
 20
7.6479244232177734
 30
321.13327026367187
 70
   192
  0
VERTEX
  5
15C9
  8
CELO
 10
124.27732849121089
 20
7.7579603195190421
 30
321.14730834960937
 70
   192
  0
VERTEX
  5
15CA
  8
CELO
 10
121.8886795043945
 20
7.8317089080810538
 30
321.5531005859375
 70
   192
  0
VERTEX
  5
15CB
  8
CELO
 10
124.27842712402339
 20
7.8336915969848633
 30
320.99002075195312
 70
   192
  0
VERTEX
  5
15CC
  8
CELO
 10
124.2684707641601
 20
7.8952112197875968
 30
320.83004760742188
 70
   192
  0
VERTEX
  5
15CD
  8
CELO
 10
121.8170166015625
 20
6.6353111267089844
 30
322.72897338867188
 70
   192
  0
VERTEX
  5
15CE
  8
CELO
 10
126.76247406005859
 20
7.8354692459106436
 30
320.79434204101562
 70
   192
  0
VERTEX
  5
15CF
  8
CELO
 10
118.7430114746093
 20
11.019449234008791
 30
322.857666015625
 70
   192
  0
VERTEX
  5
15D0
  8
CELO
 10
121.8886795043945
 20
7.8317089080810538
 30
321.5531005859375
 70
   192
  0
VERTEX
  5
15D1
  8
CELO
 10
121.8201065063476
 20
7.9423551559448242
 30
321.233154296875
 70
   192
  0
VERTEX
  5
15D2
  8
CELO
 10
119.1739196777344
 20
10.465900421142569
 30
323.17852783203119
 70
   192
  0
VERTEX
  5
15D3
  8
CELO
 10
121.9292678833008
 20
7.6687984466552734
 30
321.85479736328131
 70
   192
  0
VERTEX
  5
15D4
  8
CELO
 10
119.1493301391601
 20
10.133241653442379
 30
323.66387939453131
 70
   192
  0
VERTEX
  5
15D5
  8
CELO
 10
121.92547607421869
 20
7.2122926712036133
 30
322.3695068359375
 70
   192
  0
VERTEX
  5
15D6
  8
CELO
 10
118.9949417114258
 20
9.726750373840332
 30
324.06106567382812
 70
   192
  0
VERTEX
  5
15D7
  8
CELO
 10
121.8170166015625
 20
6.6353111267089844
 30
322.72897338867188
 70
   192
  0
VERTEX
  5
15D8
  8
CELO
 10
118.80230712890619
 20
9.1930789947509766
 30
324.28640747070312
 70
   192
  0
VERTEX
  5
15D9
  8
CELO
 10
121.6197433471679
 20
5.999985694885253
 30
322.90914916992187
 70
   192
  0
VERTEX
  5
15DA
  8
CELO
 10
116.2810974121093
 20
12.05045127868652
 30
326.26962280273437
 70
   192
  0
VERTEX
  5
15DB
  8
CELO
 10
116.3658752441406
 20
12.56448078155517
 30
326.08856201171869
 70
   192
  0
VERTEX
  5
15DC
  8
CELO
 10
114.2392272949219
 20
14.36457443237304
 30
328.74359130859369
 70
   192
  0
VERTEX
  5
15DD
  8
CELO
 10
114.24090576171869
 20
14.85407829284668
 30
328.63973999023437
 70
   192
  0
VERTEX
  5
15DE
  8
CELO
 10
112.7962112426758
 20
15.99998569488525
 30
331.52792358398437
 70
   192
  0
VERTEX
  5
15DF
  8
CELO
 10
112.781623840332
 20
16.420198440551761
 30
331.44320678710937
 70
   192
  0
VERTEX
  5
15E0
  8
CELO
 10
112.5064697265625
 20
17.191057205200192
 30
331.1923828125
 70
   192
  0
VERTEX
  5
15E1
  8
CELO
 10
113.8045120239258
 20
15.95795059204101
 30
327.92031860351562
 70
   192
  0
VERTEX
  5
15E2
  8
CELO
 10
112.2568817138672
 20
17.505578994750969
 30
331.03680419921869
 70
   192
  0
VERTEX
  5
15E3
  8
CELO
 10
114.21986389160151
 20
15.239059448242189
 30
328.377197265625
 70
   192
  0
VERTEX
  5
15E4
  8
CELO
 10
112.6836471557617
 20
16.824172973632809
 30
331.32958984375
 70
   192
  0
VERTEX
  5
15E5
  8
CELO
 10
114.1045761108398
 20
15.58095455169677
 30
328.08154296875
 70
   192
  0
VERTEX
  5
15E6
  8
CELO
 10
116.0075759887695
 20
13.754885673522949
 30
325.12933349609381
 70
   192
  0
VERTEX
  5
15E7
  8
CELO
 10
116.3689804077148
 20
13.29664993286133
 30
325.35330200195312
 70
   192
  0
VERTEX
  5
15E8
  8
CELO
 10
116.4232482910156
 20
12.958534240722649
 30
325.74899291992187
 70
   192
  0
VERTEX
  5
15E9
  8
CELO
 10
111.7290878295898
 20
16.363910675048832
 30
345.36392211914062
 70
   192
  0
VERTEX
  5
15EA
  8
CELO
 10
111.76247406005859
 20
9.7040262222290021
 30
345.0
 70
   192
  0
VERTEX
  5
15EB
  8
CELO
 10
111.76247406005859
 20
15.99998474121093
 30
345.0
 70
   192
  0
VERTEX
  5
15EC
  8
CELO
 10
109.76247406005859
 20
-0.0000152587890625
 30
347.0
 70
   192
  0
VERTEX
  5
15ED
  8
CELO
 10
110.12640380859369
 20
17.966594696044918
 30
346.96661376953131
 70
   192
  0
VERTEX
  5
15EE
  8
CELO
 10
109.76247406005859
 20
17.999984741210941
 30
347.0
 70
   192
  0
VERTEX
  5
15EF
  8
CELO
 10
110.1722946166992
 20
-0.0000152587890625
 30
346.95755004882812
 70
   192
  0
VERTEX
  5
15F0
  8
CELO
 10
110.498664855957
 20
17.859561920166009
 30
346.85958862304687
 70
   192
  0
VERTEX
  5
15F1
  8
CELO
 10
110.5568313598633
 20
-0.0000152587890625
 30
346.83547973632812
 70
   192
  0
VERTEX
  5
15F2
  8
CELO
 10
110.8568954467773
 20
17.67397499084473
 30
346.67398071289062
 70
   192
  0
VERTEX
  5
15F3
  8
CELO
 10
110.8957443237304
 20
-0.0000152587890625
 30
346.64794921875
 70
   192
  0
VERTEX
  5
15F4
  8
CELO
 10
111.0230712890625
 20
17.552690505981442
 30
346.55270385742187
 70
   192
  0
VERTEX
  5
15F5
  8
CELO
 10
111.1766891479492
 20
-0.0000152587890625
 30
346.41421508789062
 70
   192
  0
VERTEX
  5
15F6
  8
CELO
 10
111.1766891479492
 20
17.41419792175293
 30
346.41421508789062
 70
   192
  0
VERTEX
  5
15F7
  8
CELO
 10
111.3151779174804
 20
17.26058197021484
 30
346.26058959960937
 70
   192
  0
VERTEX
  5
15F8
  8
CELO
 10
111.41041564941401
 20
-0.0000152587890625
 30
346.13327026367187
 70
   192
  0
VERTEX
  5
15F9
  8
CELO
 10
111.43646240234369
 20
17.094404220581051
 30
346.09442138671869
 70
   192
  0
VERTEX
  5
15FA
  8
CELO
 10
111.59796142578119
 20
-0.0000152587890625
 30
345.79434204101562
 70
   192
  0
VERTEX
  5
15FB
  8
CELO
 10
111.62204742431641
 20
16.736173629760739
 30
345.73617553710937
 70
   192
  0
VERTEX
  5
15FC
  8
CELO
 10
111.7200393676758
 20
-0.0000152587890625
 30
345.40982055664062
 70
   192
  0
VERTEX
  5
15FD
  8
CELO
 10
111.76247406005859
 20
-0.0000152587890625
 30
345.0
 70
   192
  0
VERTEX
  5
15FE
  8
CELO
 10
111.1177444458008
 20
17.97049522399902
 30
331.2794189453125
 70
   192
  0
VERTEX
  5
15FF
  8
CELO
 10
111.8460235595703
 20
17.916435241699219
 30
330.11688232421869
 70
   192
  0
VERTEX
  5
1600
  8
CELO
 10
111.7813262939453
 20
17.981134414672852
 30
329.56185913085937
 70
   192
  0
VERTEX
  5
1601
  8
CELO
 10
110.9002151489258
 20
17.999984741210941
 30
330.8853759765625
 70
   192
  0
VERTEX
  5
1602
  8
CELO
 10
111.76247406005859
 20
17.999984741210941
 30
329.0
 70
   192
  0
VERTEX
  5
1603
  8
CELO
 10
110.2035675048828
 20
17.957546234130859
 30
335.98178100585937
 70
   192
  0
VERTEX
  5
1604
  8
CELO
 10
109.76247406005859
 20
17.999984741210941
 30
337.0
 70
   192
  0
VERTEX
  5
1605
  8
CELO
 10
110.1722946166992
 20
17.957546234130859
 30
337.0
 70
   192
  0
VERTEX
  5
1606
  8
CELO
 10
109.88889312744141
 20
17.999984741210941
 30
334.9306640625
 70
   192
  0
VERTEX
  5
1607
  8
CELO
 10
110.6652908325195
 20
17.957548141479489
 30
332.98568725585937
 70
   192
  0
VERTEX
  5
1608
  8
CELO
 10
110.2700500488281
 20
17.999984741210941
 30
332.87689208984381
 70
   192
  0
VERTEX
  5
1609
  8
CELO
 10
111.79074859619141
 20
15.99998474121093
 30
336.07937622070312
 70
   192
  0
VERTEX
  5
160A
  8
CELO
 10
111.7200393676758
 20
16.40980339050293
 30
337.0
 70
   192
  0
VERTEX
  5
160B
  8
CELO
 10
111.76247406005859
 20
15.99998474121093
 30
337.0
 70
   192
  0
VERTEX
  5
160C
  8
CELO
 10
110.58737945556641
 20
17.835468292236332
 30
336.00537109375
 70
   192
  0
VERTEX
  5
160D
  8
CELO
 10
110.5568313598633
 20
17.835468292236332
 30
337.0
 70
   192
  0
VERTEX
  5
160E
  8
CELO
 10
110.8957443237304
 20
17.64792442321777
 30
337.0
 70
   192
  0
VERTEX
  5
160F
  8
CELO
 10
110.9256591796875
 20
17.64792442321777
 30
336.02618408203119
 70
   192
  0
VERTEX
  5
1610
  8
CELO
 10
111.20606994628901
 20
17.414199829101559
 30
336.04342651367187
 70
   192
  0
VERTEX
  5
1611
  8
CELO
 10
111.1766891479492
 20
17.41419792175293
 30
337.0
 70
   192
  0
VERTEX
  5
1612
  8
CELO
 10
111.43935394287109
 20
17.133255004882809
 30
336.05776977539062
 70
   192
  0
VERTEX
  5
1613
  8
CELO
 10
111.41041564941401
 20
17.133255004882809
 30
337.0
 70
   192
  0
VERTEX
  5
1614
  8
CELO
 10
111.59796142578119
 20
16.794340133666989
 30
337.0
 70
   192
  0
VERTEX
  5
1615
  8
CELO
 10
111.6265487670898
 20
16.794340133666989
 30
336.06927490234381
 70
   192
  0
VERTEX
  5
1616
  8
CELO
 10
111.74839782714839
 20
16.409805297851559
 30
336.0767822265625
 70
   192
  0
VERTEX
  5
1617
  8
CELO
 10
112.20827484130859
 20
15.99998569488525
 30
333.37020874023438
 70
   192
  0
VERTEX
  5
1618
  8
CELO
 10
112.1670379638672
 20
16.409805297851559
 30
333.36016845703131
 70
   192
  0
VERTEX
  5
1619
  8
CELO
 10
112.7962112426758
 20
15.99998569488525
 30
331.52792358398437
 70
   192
  0
VERTEX
  5
161A
  8
CELO
 10
112.781623840332
 20
16.420198440551761
 30
331.44320678710937
 70
   192
  0
VERTEX
  5
161B
  8
CELO
 10
112.0485916137695
 20
16.794340133666989
 30
333.33062744140619
 70
   192
  0
VERTEX
  5
161C
  8
CELO
 10
112.6836471557617
 20
16.824172973632809
 30
331.32958984375
 70
   192
  0
VERTEX
  5
161D
  8
CELO
 10
111.8666152954101
 20
17.133255004882809
 30
333.28524780273437
 70
   192
  0
VERTEX
  5
161E
  8
CELO
 10
112.5064697265625
 20
17.191057205200192
 30
331.1923828125
 70
   192
  0
VERTEX
  5
161F
  8
CELO
 10
111.6398391723633
 20
17.414199829101559
 30
333.22869873046881
 70
   192
  0
VERTEX
  5
1620
  8
CELO
 10
112.38986968994141
 20
17.356184005737301
 30
331.1163330078125
 70
   192
  0
VERTEX
  5
1621
  8
CELO
 10
112.2568817138672
 20
17.505578994750969
 30
331.03680419921869
 70
   192
  0
VERTEX
  5
1622
  8
CELO
 10
111.3672409057617
 20
17.64792442321777
 30
333.16073608398437
 70
   192
  0
VERTEX
  5
1623
  8
CELO
 10
112.1702880859375
 20
17.592168807983398
 30
330.96823120117187
 70
   192
  0
VERTEX
  5
1624
  8
CELO
 10
112.095947265625
 20
17.6665153503418
 30
330.8746337890625
 70
   192
  0
VERTEX
  5
1625
  8
CELO
 10
111.0383987426758
 20
17.835468292236332
 30
333.07870483398438
 70
   192
  0
VERTEX
  5
1626
  8
CELO
 10
111.98178863525391
 20
17.780668258666989
 30
330.64407348632812
 70
   192
  0
VERTEX
  5
1627
  8
CELO
 10
111.76247406005859
 20
15.99998474121093
 30
337.0
 70
   192
  0
VERTEX
  5
1628
  8
CELO
 10
111.7290878295898
 20
16.363910675048832
 30
345.36392211914062
 70
   192
  0
VERTEX
  5
1629
  8
CELO
 10
111.76247406005859
 20
15.99998474121093
 30
345.0
 70
   192
  0
VERTEX
  5
162A
  8
CELO
 10
109.76247406005859
 20
17.999984741210941
 30
347.0
 70
   192
  0
VERTEX
  5
162B
  8
CELO
 10
110.1722946166992
 20
17.957546234130859
 30
337.0
 70
   192
  0
VERTEX
  5
162C
  8
CELO
 10
109.76247406005859
 20
17.999984741210941
 30
337.0
 70
   192
  0
VERTEX
  5
162D
  8
CELO
 10
110.12640380859369
 20
17.966594696044918
 30
346.96661376953131
 70
   192
  0
VERTEX
  5
162E
  8
CELO
 10
110.498664855957
 20
17.859561920166009
 30
346.85958862304687
 70
   192
  0
VERTEX
  5
162F
  8
CELO
 10
110.5568313598633
 20
17.835468292236332
 30
337.0
 70
   192
  0
VERTEX
  5
1630
  8
CELO
 10
110.8568954467773
 20
17.67397499084473
 30
346.67398071289062
 70
   192
  0
VERTEX
  5
1631
  8
CELO
 10
110.8957443237304
 20
17.64792442321777
 30
337.0
 70
   192
  0
VERTEX
  5
1632
  8
CELO
 10
111.0230712890625
 20
17.552690505981442
 30
346.55270385742187
 70
   192
  0
VERTEX
  5
1633
  8
CELO
 10
111.1766891479492
 20
17.41419792175293
 30
337.0
 70
   192
  0
VERTEX
  5
1634
  8
CELO
 10
111.1766891479492
 20
17.41419792175293
 30
346.41421508789062
 70
   192
  0
VERTEX
  5
1635
  8
CELO
 10
111.3151779174804
 20
17.26058197021484
 30
346.26058959960937
 70
   192
  0
VERTEX
  5
1636
  8
CELO
 10
111.41041564941401
 20
17.133255004882809
 30
337.0
 70
   192
  0
VERTEX
  5
1637
  8
CELO
 10
111.43646240234369
 20
17.094404220581051
 30
346.09442138671869
 70
   192
  0
VERTEX
  5
1638
  8
CELO
 10
111.59796142578119
 20
16.794340133666989
 30
337.0
 70
   192
  0
VERTEX
  5
1639
  8
CELO
 10
111.62204742431641
 20
16.736173629760739
 30
345.73617553710937
 70
   192
  0
VERTEX
  5
163A
  8
CELO
 10
111.7200393676758
 20
16.40980339050293
 30
337.0
 70
   192
  0
VERTEX
  5
163B
  8
CELO
 10
0.0
 20
0.0
 30
0.0
 70
   128
 71
     1
 72
     2
 73
     3
  0
VERTEX
  5
163C
  8
CELO
 10
0.0
 20
0.0
 30
0.0
 70
   128
 71
     4
 72
     5
 73
     6
  0
VERTEX
  5
163D
  8
CELO
 10
0.0
 20
0.0
 30
0.0
 70
   128
 71
     4
 72
     7
 73
     5
  0
VERTEX
  5
163E
  8
CELO
 10
0.0
 20
0.0
 30
0.0
 70
   128
 71
     4
 72
     8
 73
     7
  0
VERTEX
  5
163F
  8
CELO
 10
0.0
 20
0.0
 30
0.0
 70
   128
 71
     9
 72
     8
 73
     4
  0
VERTEX
  5
1640
  8
CELO
 10
0.0
 20
0.0
 30
0.0
 70
   128
 71
     9
 72
    10
 73
     8
  0
VERTEX
  5
1641
  8
CELO
 10
0.0
 20
0.0
 30
0.0
 70
   128
 71
    11
 72
    10
 73
     9
  0
VERTEX
  5
1642
  8
CELO
 10
0.0
 20
0.0
 30
0.0
 70
   128
 71
    11
 72
    12
 73
    10
  0
VERTEX
  5
1643
  8
CELO
 10
0.0
 20
0.0
 30
0.0
 70
   128
 71
    13
 72
    12
 73
    11
  0
VERTEX
  5
1644
  8
CELO
 10
0.0
 20
0.0
 30
0.0
 70
   128
 71
    13
 72
    14
 73
    12
  0
VERTEX
  5
1645
  8
CELO
 10
0.0
 20
0.0
 30
0.0
 70
   128
 71
    13
 72
    15
 73
    14
  0
VERTEX
  5
1646
  8
CELO
 10
0.0
 20
0.0
 30
0.0
 70
   128
 71
    16
 72
    15
 73
    13
  0
VERTEX
  5
1647
  8
CELO
 10
0.0
 20
0.0
 30
0.0
 70
   128
 71
    16
 72
    17
 73
    15
  0
VERTEX
  5
1648
  8
CELO
 10
0.0
 20
0.0
 30
0.0
 70
   128
 71
    18
 72
    17
 73
    16
  0
VERTEX
  5
1649
  8
CELO
 10
0.0
 20
0.0
 30
0.0
 70
   128
 71
    18
 72
    19
 73
    17
  0
VERTEX
  5
164A
  8
CELO
 10
0.0
 20
0.0
 30
0.0
 70
   128
 71
    20
 72
    19
 73
    18
  0
VERTEX
  5
164B
  8
CELO
 10
0.0
 20
0.0
 30
0.0
 70
   128
 71
    20
 72
     1
 73
    19
  0
VERTEX
  5
164C
  8
CELO
 10
0.0
 20
0.0
 30
0.0
 70
   128
 71
     2
 72
     1
 73
    20
  0
VERTEX
  5
164D
  8
CELO
 10
0.0
 20
0.0
 30
0.0
 70
   128
 71
    21
 72
    22
 73
    23
  0
VERTEX
  5
164E
  8
CELO
 10
0.0
 20
0.0
 30
0.0
 70
   128
 71
    24
 72
    25
 73
    26
  0
VERTEX
  5
164F
  8
CELO
 10
0.0
 20
0.0
 30
0.0
 70
   128
 71
    27
 72
    25
 73
    24
  0
VERTEX
  5
1650
  8
CELO
 10
0.0
 20
0.0
 30
0.0
 70
   128
 71
    28
 72
    25
 73
    27
  0
VERTEX
  5
1651
  8
CELO
 10
0.0
 20
0.0
 30
0.0
 70
   128
 71
    28
 72
    29
 73
    25
  0
VERTEX
  5
1652
  8
CELO
 10
0.0
 20
0.0
 30
0.0
 70
   128
 71
    30
 72
    29
 73
    28
  0
VERTEX
  5
1653
  8
CELO
 10
0.0
 20
0.0
 30
0.0
 70
   128
 71
    30
 72
    31
 73
    29
  0
VERTEX
  5
1654
  8
CELO
 10
0.0
 20
0.0
 30
0.0
 70
   128
 71
    32
 72
    31
 73
    30
  0
VERTEX
  5
1655
  8
CELO
 10
0.0
 20
0.0
 30
0.0
 70
   128
 71
    32
 72
    33
 73
    31
  0
VERTEX
  5
1656
  8
CELO
 10
0.0
 20
0.0
 30
0.0
 70
   128
 71
    34
 72
    33
 73
    32
  0
VERTEX
  5
1657
  8
CELO
 10
0.0
 20
0.0
 30
0.0
 70
   128
 71
    35
 72
    33
 73
    34
  0
VERTEX
  5
1658
  8
CELO
 10
0.0
 20
0.0
 30
0.0
 70
   128
 71
    35
 72
    36
 73
    33
  0
VERTEX
  5
1659
  8
CELO
 10
0.0
 20
0.0
 30
0.0
 70
   128
 71
    37
 72
    36
 73
    35
  0
VERTEX
  5
165A
  8
CELO
 10
0.0
 20
0.0
 30
0.0
 70
   128
 71
    37
 72
    38
 73
    36
  0
VERTEX
  5
165B
  8
CELO
 10
0.0
 20
0.0
 30
0.0
 70
   128
 71
    39
 72
    38
 73
    37
  0
VERTEX
  5
165C
  8
CELO
 10
0.0
 20
0.0
 30
0.0
 70
   128
 71
    39
 72
    40
 73
    38
  0
VERTEX
  5
165D
  8
CELO
 10
0.0
 20
0.0
 30
0.0
 70
   128
 71
    22
 72
    40
 73
    39
  0
VERTEX
  5
165E
  8
CELO
 10
0.0
 20
0.0
 30
0.0
 70
   128
 71
    22
 72
    21
 73
    40
  0
VERTEX
  5
165F
  8
CELO
 10
0.0
 20
0.0
 30
0.0
 70
   128
 71
    41
 72
    42
 73
    43
  0
VERTEX
  5
1660
  8
CELO
 10
0.0
 20
0.0
 30
0.0
 70
   128
 71
    42
 72
    41
 73
    44
  0
VERTEX
  5
1661
  8
CELO
 10
0.0
 20
0.0
 30
0.0
 70
   128
 71
    45
 72
    46
 73
    47
  0
VERTEX
  5
1662
  8
CELO
 10
0.0
 20
0.0
 30
0.0
 70
   128
 71
    45
 72
    47
 73
    48
  0
VERTEX
  5
1663
  8
CELO
 10
0.0
 20
0.0
 30
0.0
 70
   128
 71
    49
 72
    50
 73
    51
  0
VERTEX
  5
1664
  8
CELO
 10
0.0
 20
0.0
 30
0.0
 70
   128
 71
    49
 72
    45
 73
    50
  0
VERTEX
  5
1665
  8
CELO
 10
0.0
 20
0.0
 30
0.0
 70
   128
 71
    52
 72
    45
 73
    49
  0
VERTEX
  5
1666
  8
CELO
 10
0.0
 20
0.0
 30
0.0
 70
   128
 71
    46
 72
    45
 73
    52
  0
VERTEX
  5
1667
  8
CELO
 10
0.0
 20
0.0
 30
0.0
 70
   128
 71
    53
 72
    54
 73
    55
  0
VERTEX
  5
1668
  8
CELO
 10
0.0
 20
0.0
 30
0.0
 70
   128
 71
    55
 72
    54
 73
    56
  0
VERTEX
  5
1669
  8
CELO
 10
0.0
 20
0.0
 30
0.0
 70
   128
 71
    57
 72
    58
 73
    59
  0
VERTEX
  5
166A
  8
CELO
 10
0.0
 20
0.0
 30
0.0
 70
   128
 71
    54
 72
    58
 73
    57
  0
VERTEX
  5
166B
  8
CELO
 10
0.0
 20
0.0
 30
0.0
 70
   128
 71
    54
 72
    60
 73
    58
  0
VERTEX
  5
166C
  8
CELO
 10
0.0
 20
0.0
 30
0.0
 70
   128
 71
    54
 72
    61
 73
    60
  0
VERTEX
  5
166D
  8
CELO
 10
0.0
 20
0.0
 30
0.0
 70
   128
 71
    54
 72
    62
 73
    61
  0
VERTEX
  5
166E
  8
CELO
 10
0.0
 20
0.0
 30
0.0
 70
   128
 71
    54
 72
    63
 73
    62
  0
VERTEX
  5
166F
  8
CELO
 10
0.0
 20
0.0
 30
0.0
 70
   128
 71
    54
 72
    64
 73
    63
  0
VERTEX
  5
1670
  8
CELO
 10
0.0
 20
0.0
 30
0.0
 70
   128
 71
    54
 72
    53
 73
    64
  0
VERTEX
  5
1671
  8
CELO
 10
0.0
 20
0.0
 30
0.0
 70
   128
 71
    65
 72
    66
 73
    67
  0
VERTEX
  5
1672
  8
CELO
 10
0.0
 20
0.0
 30
0.0
 70
   128
 71
    67
 72
    66
 73
    68
  0
VERTEX
  5
1673
  8
CELO
 10
0.0
 20
0.0
 30
0.0
 70
   128
 71
    66
 72
    69
 73
    70
  0
VERTEX
  5
1674
  8
CELO
 10
0.0
 20
0.0
 30
0.0
 70
   128
 71
    66
 72
    71
 73
    69
  0
VERTEX
  5
1675
  8
CELO
 10
0.0
 20
0.0
 30
0.0
 70
   128
 71
    66
 72
    72
 73
    71
  0
VERTEX
  5
1676
  8
CELO
 10
0.0
 20
0.0
 30
0.0
 70
   128
 71
    66
 72
    65
 73
    72
  0
VERTEX
  5
1677
  8
CELO
 10
0.0
 20
0.0
 30
0.0
 70
   128
 71
    73
 72
    74
 73
    75
  0
VERTEX
  5
1678
  8
CELO
 10
0.0
 20
0.0
 30
0.0
 70
   128
 71
    76
 72
    77
 73
    78
  0
VERTEX
  5
1679
  8
CELO
 10
0.0
 20
0.0
 30
0.0
 70
   128
 71
    79
 72
    77
 73
    76
  0
VERTEX
  5
167A
  8
CELO
 10
0.0
 20
0.0
 30
0.0
 70
   128
 71
    79
 72
    80
 73
    77
  0
VERTEX
  5
167B
  8
CELO
 10
0.0
 20
0.0
 30
0.0
 70
   128
 71
    79
 72
    81
 73
    80
  0
VERTEX
  5
167C
  8
CELO
 10
0.0
 20
0.0
 30
0.0
 70
   128
 71
    79
 72
    82
 73
    81
  0
VERTEX
  5
167D
  8
CELO
 10
0.0
 20
0.0
 30
0.0
 70
   128
 71
    79
 72
    83
 73
    82
  0
VERTEX
  5
167E
  8
CELO
 10
0.0
 20
0.0
 30
0.0
 70
   128
 71
    79
 72
    84
 73
    83
  0
VERTEX
  5
167F
  8
CELO
 10
0.0
 20
0.0
 30
0.0
 70
   128
 71
    79
 72
    85
 73
    84
  0
VERTEX
  5
1680
  8
CELO
 10
0.0
 20
0.0
 30
0.0
 70
   128
 71
    79
 72
    86
 73
    85
  0
VERTEX
  5
1681
  8
CELO
 10
0.0
 20
0.0
 30
0.0
 70
   128
 71
    79
 72
    87
 73
    86
  0
VERTEX
  5
1682
  8
CELO
 10
0.0
 20
0.0
 30
0.0
 70
   128
 71
    79
 72
    88
 73
    87
  0
VERTEX
  5
1683
  8
CELO
 10
0.0
 20
0.0
 30
0.0
 70
   128
 71
    73
 72
    88
 73
    79
  0
VERTEX
  5
1684
  8
CELO
 10
0.0
 20
0.0
 30
0.0
 70
   128
 71
    73
 72
    89
 73
    88
  0
VERTEX
  5
1685
  8
CELO
 10
0.0
 20
0.0
 30
0.0
 70
   128
 71
    73
 72
    90
 73
    89
  0
VERTEX
  5
1686
  8
CELO
 10
0.0
 20
0.0
 30
0.0
 70
   128
 71
    73
 72
    91
 73
    90
  0
VERTEX
  5
1687
  8
CELO
 10
0.0
 20
0.0
 30
0.0
 70
   128
 71
    73
 72
    92
 73
    91
  0
VERTEX
  5
1688
  8
CELO
 10
0.0
 20
0.0
 30
0.0
 70
   128
 71
    73
 72
    75
 73
    92
  0
VERTEX
  5
1689
  8
CELO
 10
0.0
 20
0.0
 30
0.0
 70
   128
 71
    93
 72
    94
 73
    95
  0
VERTEX
  5
168A
  8
CELO
 10
0.0
 20
0.0
 30
0.0
 70
   128
 71
    93
 72
    73
 73
    94
  0
VERTEX
  5
168B
  8
CELO
 10
0.0
 20
0.0
 30
0.0
 70
   128
 71
    96
 72
    73
 73
    93
  0
VERTEX
  5
168C
  8
CELO
 10
0.0
 20
0.0
 30
0.0
 70
   128
 71
    97
 72
    73
 73
    96
  0
VERTEX
  5
168D
  8
CELO
 10
0.0
 20
0.0
 30
0.0
 70
   128
 71
    98
 72
    73
 73
    97
  0
VERTEX
  5
168E
  8
CELO
 10
0.0
 20
0.0
 30
0.0
 70
   128
 71
    99
 72
    73
 73
    98
  0
VERTEX
  5
168F
  8
CELO
 10
0.0
 20
0.0
 30
0.0
 70
   128
 71
   100
 72
    73
 73
    99
  0
VERTEX
  5
1690
  8
CELO
 10
0.0
 20
0.0
 30
0.0
 70
   128
 71
   101
 72
    73
 73
   100
  0
VERTEX
  5
1691
  8
CELO
 10
0.0
 20
0.0
 30
0.0
 70
   128
 71
   102
 72
    73
 73
   101
  0
VERTEX
  5
1692
  8
CELO
 10
0.0
 20
0.0
 30
0.0
 70
   128
 71
    74
 72
    73
 73
   102
  0
VERTEX
  5
1693
  8
CELO
 10
0.0
 20
0.0
 30
0.0
 70
   128
 71
   103
 72
   104
 73
   105
  0
VERTEX
  5
1694
  8
CELO
 10
0.0
 20
0.0
 30
0.0
 70
   128
 71
   103
 72
   106
 73
   107
  0
VERTEX
  5
1695
  8
CELO
 10
0.0
 20
0.0
 30
0.0
 70
   128
 71
   108
 72
   103
 73
   109
  0
VERTEX
  5
1696
  8
CELO
 10
0.0
 20
0.0
 30
0.0
 70
   128
 71
   103
 72
   110
 73
   106
  0
VERTEX
  5
1697
  8
CELO
 10
0.0
 20
0.0
 30
0.0
 70
   128
 71
   103
 72
   111
 73
   110
  0
VERTEX
  5
1698
  8
CELO
 10
0.0
 20
0.0
 30
0.0
 70
   128
 71
   103
 72
   112
 73
   111
  0
VERTEX
  5
1699
  8
CELO
 10
0.0
 20
0.0
 30
0.0
 70
   128
 71
   103
 72
   113
 73
   112
  0
VERTEX
  5
169A
  8
CELO
 10
0.0
 20
0.0
 30
0.0
 70
   128
 71
   103
 72
   114
 73
   113
  0
VERTEX
  5
169B
  8
CELO
 10
0.0
 20
0.0
 30
0.0
 70
   128
 71
   103
 72
   115
 73
   114
  0
VERTEX
  5
169C
  8
CELO
 10
0.0
 20
0.0
 30
0.0
 70
   128
 71
   103
 72
   116
 73
   115
  0
VERTEX
  5
169D
  8
CELO
 10
0.0
 20
0.0
 30
0.0
 70
   128
 71
   103
 72
   117
 73
   116
  0
VERTEX
  5
169E
  8
CELO
 10
0.0
 20
0.0
 30
0.0
 70
   128
 71
   103
 72
   118
 73
   117
  0
VERTEX
  5
169F
  8
CELO
 10
0.0
 20
0.0
 30
0.0
 70
   128
 71
   103
 72
   119
 73
   118
  0
VERTEX
  5
16A0
  8
CELO
 10
0.0
 20
0.0
 30
0.0
 70
   128
 71
   103
 72
   120
 73
   119
  0
VERTEX
  5
16A1
  8
CELO
 10
0.0
 20
0.0
 30
0.0
 70
   128
 71
   103
 72
   121
 73
   120
  0
VERTEX
  5
16A2
  8
CELO
 10
0.0
 20
0.0
 30
0.0
 70
   128
 71
   103
 72
   122
 73
   121
  0
VERTEX
  5
16A3
  8
CELO
 10
0.0
 20
0.0
 30
0.0
 70
   128
 71
   103
 72
   123
 73
   122
  0
VERTEX
  5
16A4
  8
CELO
 10
0.0
 20
0.0
 30
0.0
 70
   128
 71
   103
 72
   124
 73
   123
  0
VERTEX
  5
16A5
  8
CELO
 10
0.0
 20
0.0
 30
0.0
 70
   128
 71
   103
 72
   125
 73
   124
  0
VERTEX
  5
16A6
  8
CELO
 10
0.0
 20
0.0
 30
0.0
 70
   128
 71
   103
 72
   126
 73
   125
  0
VERTEX
  5
16A7
  8
CELO
 10
0.0
 20
0.0
 30
0.0
 70
   128
 71
   103
 72
   127
 73
   126
  0
VERTEX
  5
16A8
  8
CELO
 10
0.0
 20
0.0
 30
0.0
 70
   128
 71
   103
 72
   105
 73
   127
  0
VERTEX
  5
16A9
  8
CELO
 10
0.0
 20
0.0
 30
0.0
 70
   128
 71
   128
 72
   129
 73
   130
  0
VERTEX
  5
16AA
  8
CELO
 10
0.0
 20
0.0
 30
0.0
 70
   128
 71
   128
 72
   131
 73
   129
  0
VERTEX
  5
16AB
  8
CELO
 10
0.0
 20
0.0
 30
0.0
 70
   128
 71
   128
 72
   132
 73
   131
  0
VERTEX
  5
16AC
  8
CELO
 10
0.0
 20
0.0
 30
0.0
 70
   128
 71
   133
 72
   132
 73
   128
  0
VERTEX
  5
16AD
  8
CELO
 10
0.0
 20
0.0
 30
0.0
 70
   128
 71
   133
 72
   134
 73
   132
  0
VERTEX
  5
16AE
  8
CELO
 10
0.0
 20
0.0
 30
0.0
 70
   128
 71
   133
 72
   135
 73
   134
  0
VERTEX
  5
16AF
  8
CELO
 10
0.0
 20
0.0
 30
0.0
 70
   128
 71
   133
 72
   136
 73
   135
  0
VERTEX
  5
16B0
  8
CELO
 10
0.0
 20
0.0
 30
0.0
 70
   128
 71
   137
 72
   136
 73
   133
  0
VERTEX
  5
16B1
  8
CELO
 10
0.0
 20
0.0
 30
0.0
 70
   128
 71
   137
 72
   108
 73
   136
  0
VERTEX
  5
16B2
  8
CELO
 10
0.0
 20
0.0
 30
0.0
 70
   128
 71
   138
 72
   108
 73
   137
  0
VERTEX
  5
16B3
  8
CELO
 10
0.0
 20
0.0
 30
0.0
 70
   128
 71
   139
 72
   108
 73
   138
  0
VERTEX
  5
16B4
  8
CELO
 10
0.0
 20
0.0
 30
0.0
 70
   128
 71
   140
 72
   108
 73
   139
  0
VERTEX
  5
16B5
  8
CELO
 10
0.0
 20
0.0
 30
0.0
 70
   128
 71
   141
 72
   108
 73
   140
  0
VERTEX
  5
16B6
  8
CELO
 10
0.0
 20
0.0
 30
0.0
 70
   128
 71
   142
 72
   108
 73
   141
  0
VERTEX
  5
16B7
  8
CELO
 10
0.0
 20
0.0
 30
0.0
 70
   128
 71
   104
 72
   108
 73
   142
  0
VERTEX
  5
16B8
  8
CELO
 10
0.0
 20
0.0
 30
0.0
 70
   128
 71
   104
 72
   103
 73
   108
  0
VERTEX
  5
16B9
  8
CELO
 10
0.0
 20
0.0
 30
0.0
 70
   128
 71
   143
 72
   144
 73
   145
  0
VERTEX
  5
16BA
  8
CELO
 10
0.0
 20
0.0
 30
0.0
 70
   128
 71
   146
 72
   147
 73
   148
  0
VERTEX
  5
16BB
  8
CELO
 10
0.0
 20
0.0
 30
0.0
 70
   128
 71
   149
 72
   147
 73
   146
  0
VERTEX
  5
16BC
  8
CELO
 10
0.0
 20
0.0
 30
0.0
 70
   128
 71
   150
 72
   147
 73
   149
  0
VERTEX
  5
16BD
  8
CELO
 10
0.0
 20
0.0
 30
0.0
 70
   128
 71
   150
 72
   151
 73
   147
  0
VERTEX
  5
16BE
  8
CELO
 10
0.0
 20
0.0
 30
0.0
 70
   128
 71
   152
 72
   151
 73
   150
  0
VERTEX
  5
16BF
  8
CELO
 10
0.0
 20
0.0
 30
0.0
 70
   128
 71
   152
 72
   153
 73
   151
  0
VERTEX
  5
16C0
  8
CELO
 10
0.0
 20
0.0
 30
0.0
 70
   128
 71
   154
 72
   153
 73
   152
  0
VERTEX
  5
16C1
  8
CELO
 10
0.0
 20
0.0
 30
0.0
 70
   128
 71
   154
 72
   155
 73
   153
  0
VERTEX
  5
16C2
  8
CELO
 10
0.0
 20
0.0
 30
0.0
 70
   128
 71
   154
 72
   144
 73
   155
  0
VERTEX
  5
16C3
  8
CELO
 10
0.0
 20
0.0
 30
0.0
 70
   128
 71
   145
 72
   144
 73
   154
  0
VERTEX
  5
16C4
  8
CELO
 10
0.0
 20
0.0
 30
0.0
 70
   128
 71
   144
 72
   143
 73
   156
  0
VERTEX
  5
16C5
  8
CELO
 10
0.0
 20
0.0
 30
0.0
 70
   128
 71
   157
 72
   158
 73
   159
  0
VERTEX
  5
16C6
  8
CELO
 10
0.0
 20
0.0
 30
0.0
 70
   128
 71
   160
 72
   161
 73
   162
  0
VERTEX
  5
16C7
  8
CELO
 10
0.0
 20
0.0
 30
0.0
 70
   128
 71
   163
 72
   161
 73
   160
  0
VERTEX
  5
16C8
  8
CELO
 10
0.0
 20
0.0
 30
0.0
 70
   128
 71
   164
 72
   161
 73
   163
  0
VERTEX
  5
16C9
  8
CELO
 10
0.0
 20
0.0
 30
0.0
 70
   128
 71
   164
 72
   165
 73
   161
  0
VERTEX
  5
16CA
  8
CELO
 10
0.0
 20
0.0
 30
0.0
 70
   128
 71
   166
 72
   165
 73
   164
  0
VERTEX
  5
16CB
  8
CELO
 10
0.0
 20
0.0
 30
0.0
 70
   128
 71
   166
 72
   167
 73
   165
  0
VERTEX
  5
16CC
  8
CELO
 10
0.0
 20
0.0
 30
0.0
 70
   128
 71
   168
 72
   167
 73
   166
  0
VERTEX
  5
16CD
  8
CELO
 10
0.0
 20
0.0
 30
0.0
 70
   128
 71
   168
 72
   169
 73
   167
  0
VERTEX
  5
16CE
  8
CELO
 10
0.0
 20
0.0
 30
0.0
 70
   128
 71
   158
 72
   169
 73
   168
  0
VERTEX
  5
16CF
  8
CELO
 10
0.0
 20
0.0
 30
0.0
 70
   128
 71
   158
 72
   170
 73
   169
  0
VERTEX
  5
16D0
  8
CELO
 10
0.0
 20
0.0
 30
0.0
 70
   128
 71
   158
 72
   157
 73
   170
  0
VERTEX
  5
16D1
  8
CELO
 10
0.0
 20
0.0
 30
0.0
 70
   128
 71
   171
 72
   172
 73
   173
  0
VERTEX
  5
16D2
  8
CELO
 10
0.0
 20
0.0
 30
0.0
 70
   128
 71
   172
 72
   171
 73
   174
  0
VERTEX
  5
16D3
  8
CELO
 10
0.0
 20
0.0
 30
0.0
 70
   128
 71
   175
 72
   176
 73
   177
  0
VERTEX
  5
16D4
  8
CELO
 10
0.0
 20
0.0
 30
0.0
 70
   128
 71
   176
 72
   175
 73
   178
  0
VERTEX
  5
16D5
  8
CELO
 10
0.0
 20
0.0
 30
0.0
 70
   128
 71
   179
 72
   180
 73
   181
  0
VERTEX
  5
16D6
  8
CELO
 10
0.0
 20
0.0
 30
0.0
 70
   128
 71
   180
 72
   179
 73
   182
  0
VERTEX
  5
16D7
  8
CELO
 10
0.0
 20
0.0
 30
0.0
 70
   128
 71
   183
 72
   184
 73
   185
  0
VERTEX
  5
16D8
  8
CELO
 10
0.0
 20
0.0
 30
0.0
 70
   128
 71
   184
 72
   183
 73
   186
  0
VERTEX
  5
16D9
  8
CELO
 10
0.0
 20
0.0
 30
0.0
 70
   128
 71
   187
 72
   188
 73
   189
  0
VERTEX
  5
16DA
  8
CELO
 10
0.0
 20
0.0
 30
0.0
 70
   128
 71
   190
 72
   191
 73
   192
  0
VERTEX
  5
16DB
  8
CELO
 10
0.0
 20
0.0
 30
0.0
 70
   128
 71
   193
 72
   194
 73
   195
  0
VERTEX
  5
16DC
  8
CELO
 10
0.0
 20
0.0
 30
0.0
 70
   128
 71
   191
 72
   194
 73
   193
  0
VERTEX
  5
16DD
  8
CELO
 10
0.0
 20
0.0
 30
0.0
 70
   128
 71
   191
 72
   196
 73
   194
  0
VERTEX
  5
16DE
  8
CELO
 10
0.0
 20
0.0
 30
0.0
 70
   128
 71
   191
 72
   197
 73
   196
  0
VERTEX
  5
16DF
  8
CELO
 10
0.0
 20
0.0
 30
0.0
 70
   128
 71
   191
 72
   198
 73
   197
  0
VERTEX
  5
16E0
  8
CELO
 10
0.0
 20
0.0
 30
0.0
 70
   128
 71
   191
 72
   199
 73
   198
  0
VERTEX
  5
16E1
  8
CELO
 10
0.0
 20
0.0
 30
0.0
 70
   128
 71
   191
 72
   200
 73
   199
  0
VERTEX
  5
16E2
  8
CELO
 10
0.0
 20
0.0
 30
0.0
 70
   128
 71
   191
 72
   201
 73
   200
  0
VERTEX
  5
16E3
  8
CELO
 10
0.0
 20
0.0
 30
0.0
 70
   128
 71
   191
 72
   202
 73
   201
  0
VERTEX
  5
16E4
  8
CELO
 10
0.0
 20
0.0
 30
0.0
 70
   128
 71
   191
 72
   203
 73
   202
  0
VERTEX
  5
16E5
  8
CELO
 10
0.0
 20
0.0
 30
0.0
 70
   128
 71
   191
 72
   187
 73
   203
  0
VERTEX
  5
16E6
  8
CELO
 10
0.0
 20
0.0
 30
0.0
 70
   128
 71
   190
 72
   187
 73
   191
  0
VERTEX
  5
16E7
  8
CELO
 10
0.0
 20
0.0
 30
0.0
 70
   128
 71
   204
 72
   187
 73
   190
  0
VERTEX
  5
16E8
  8
CELO
 10
0.0
 20
0.0
 30
0.0
 70
   128
 71
   205
 72
   187
 73
   204
  0
VERTEX
  5
16E9
  8
CELO
 10
0.0
 20
0.0
 30
0.0
 70
   128
 71
   206
 72
   187
 73
   205
  0
VERTEX
  5
16EA
  8
CELO
 10
0.0
 20
0.0
 30
0.0
 70
   128
 71
   207
 72
   187
 73
   206
  0
VERTEX
  5
16EB
  8
CELO
 10
0.0
 20
0.0
 30
0.0
 70
   128
 71
   208
 72
   187
 73
   207
  0
VERTEX
  5
16EC
  8
CELO
 10
0.0
 20
0.0
 30
0.0
 70
   128
 71
   188
 72
   187
 73
   208
  0
VERTEX
  5
16ED
  8
CELO
 10
0.0
 20
0.0
 30
0.0
 70
   128
 71
   209
 72
   210
 73
   211
  0
VERTEX
  5
16EE
  8
CELO
 10
0.0
 20
0.0
 30
0.0
 70
   128
 71
   212
 72
   213
 73
   214
  0
VERTEX
  5
16EF
  8
CELO
 10
0.0
 20
0.0
 30
0.0
 70
   128
 71
   215
 72
   216
 73
   217
  0
VERTEX
  5
16F0
  8
CELO
 10
0.0
 20
0.0
 30
0.0
 70
   128
 71
   218
 72
   216
 73
   215
  0
VERTEX
  5
16F1
  8
CELO
 10
0.0
 20
0.0
 30
0.0
 70
   128
 71
   219
 72
   216
 73
   218
  0
VERTEX
  5
16F2
  8
CELO
 10
0.0
 20
0.0
 30
0.0
 70
   128
 71
   220
 72
   216
 73
   219
  0
VERTEX
  5
16F3
  8
CELO
 10
0.0
 20
0.0
 30
0.0
 70
   128
 71
   213
 72
   216
 73
   220
  0
VERTEX
  5
16F4
  8
CELO
 10
0.0
 20
0.0
 30
0.0
 70
   128
 71
   212
 72
   216
 73
   213
  0
VERTEX
  5
16F5
  8
CELO
 10
0.0
 20
0.0
 30
0.0
 70
   128
 71
   212
 72
   221
 73
   216
  0
VERTEX
  5
16F6
  8
CELO
 10
0.0
 20
0.0
 30
0.0
 70
   128
 71
   212
 72
   209
 73
   221
  0
VERTEX
  5
16F7
  8
CELO
 10
0.0
 20
0.0
 30
0.0
 70
   128
 71
   210
 72
   209
 73
   212
  0
VERTEX
  5
16F8
  8
CELO
 10
0.0
 20
0.0
 30
0.0
 70
   128
 71
   222
 72
   223
 73
   224
  0
VERTEX
  5
16F9
  8
CELO
 10
0.0
 20
0.0
 30
0.0
 70
   128
 71
   225
 72
   226
 73
   227
  0
VERTEX
  5
16FA
  8
CELO
 10
0.0
 20
0.0
 30
0.0
 70
   128
 71
   228
 72
   226
 73
   225
  0
VERTEX
  5
16FB
  8
CELO
 10
0.0
 20
0.0
 30
0.0
 70
   128
 71
   229
 72
   226
 73
   228
  0
VERTEX
  5
16FC
  8
CELO
 10
0.0
 20
0.0
 30
0.0
 70
   128
 71
   229
 72
   230
 73
   226
  0
VERTEX
  5
16FD
  8
CELO
 10
0.0
 20
0.0
 30
0.0
 70
   128
 71
   231
 72
   230
 73
   229
  0
VERTEX
  5
16FE
  8
CELO
 10
0.0
 20
0.0
 30
0.0
 70
   128
 71
   231
 72
   232
 73
   230
  0
VERTEX
  5
16FF
  8
CELO
 10
0.0
 20
0.0
 30
0.0
 70
   128
 71
   233
 72
   232
 73
   231
  0
VERTEX
  5
1700
  8
CELO
 10
0.0
 20
0.0
 30
0.0
 70
   128
 71
   233
 72
   234
 73
   232
  0
VERTEX
  5
1701
  8
CELO
 10
0.0
 20
0.0
 30
0.0
 70
   128
 71
   235
 72
   234
 73
   233
  0
VERTEX
  5
1702
  8
CELO
 10
0.0
 20
0.0
 30
0.0
 70
   128
 71
   235
 72
   236
 73
   234
  0
VERTEX
  5
1703
  8
CELO
 10
0.0
 20
0.0
 30
0.0
 70
   128
 71
   237
 72
   236
 73
   235
  0
VERTEX
  5
1704
  8
CELO
 10
0.0
 20
0.0
 30
0.0
 70
   128
 71
   238
 72
   236
 73
   237
  0
VERTEX
  5
1705
  8
CELO
 10
0.0
 20
0.0
 30
0.0
 70
   128
 71
   238
 72
   239
 73
   236
  0
VERTEX
  5
1706
  8
CELO
 10
0.0
 20
0.0
 30
0.0
 70
   128
 71
   240
 72
   239
 73
   238
  0
VERTEX
  5
1707
  8
CELO
 10
0.0
 20
0.0
 30
0.0
 70
   128
 71
   240
 72
   241
 73
   239
  0
VERTEX
  5
1708
  8
CELO
 10
0.0
 20
0.0
 30
0.0
 70
   128
 71
   223
 72
   241
 73
   240
  0
VERTEX
  5
1709
  8
CELO
 10
0.0
 20
0.0
 30
0.0
 70
   128
 71
   223
 72
   222
 73
   241
  0
VERTEX
  5
170A
  8
CELO
 10
0.0
 20
0.0
 30
0.0
 70
   128
 71
   242
 72
   243
 73
   244
  0
VERTEX
  5
170B
  8
CELO
 10
0.0
 20
0.0
 30
0.0
 70
   128
 71
   243
 72
   242
 73
   245
  0
VERTEX
  5
170C
  8
CELO
 10
0.0
 20
0.0
 30
0.0
 70
   128
 71
   246
 72
   247
 73
   248
  0
VERTEX
  5
170D
  8
CELO
 10
0.0
 20
0.0
 30
0.0
 70
   128
 71
   249
 72
   250
 73
   251
  0
VERTEX
  5
170E
  8
CELO
 10
0.0
 20
0.0
 30
0.0
 70
   128
 71
   252
 72
   250
 73
   249
  0
VERTEX
  5
170F
  8
CELO
 10
0.0
 20
0.0
 30
0.0
 70
   128
 71
   253
 72
   250
 73
   252
  0
VERTEX
  5
1710
  8
CELO
 10
0.0
 20
0.0
 30
0.0
 70
   128
 71
   253
 72
   254
 73
   250
  0
VERTEX
  5
1711
  8
CELO
 10
0.0
 20
0.0
 30
0.0
 70
   128
 71
   255
 72
   254
 73
   253
  0
VERTEX
  5
1712
  8
CELO
 10
0.0
 20
0.0
 30
0.0
 70
   128
 71
   255
 72
   256
 73
   254
  0
VERTEX
  5
1713
  8
CELO
 10
0.0
 20
0.0
 30
0.0
 70
   128
 71
   257
 72
   256
 73
   255
  0
VERTEX
  5
1714
  8
CELO
 10
0.0
 20
0.0
 30
0.0
 70
   128
 71
   257
 72
   258
 73
   256
  0
VERTEX
  5
1715
  8
CELO
 10
0.0
 20
0.0
 30
0.0
 70
   128
 71
   259
 72
   258
 73
   257
  0
VERTEX
  5
1716
  8
CELO
 10
0.0
 20
0.0
 30
0.0
 70
   128
 71
   259
 72
   260
 73
   258
  0
VERTEX
  5
1717
  8
CELO
 10
0.0
 20
0.0
 30
0.0
 70
   128
 71
   261
 72
   260
 73
   259
  0
VERTEX
  5
1718
  8
CELO
 10
0.0
 20
0.0
 30
0.0
 70
   128
 71
   262
 72
   260
 73
   261
  0
VERTEX
  5
1719
  8
CELO
 10
0.0
 20
0.0
 30
0.0
 70
   128
 71
   262
 72
   263
 73
   260
  0
VERTEX
  5
171A
  8
CELO
 10
0.0
 20
0.0
 30
0.0
 70
   128
 71
   264
 72
   263
 73
   262
  0
VERTEX
  5
171B
  8
CELO
 10
0.0
 20
0.0
 30
0.0
 70
   128
 71
   264
 72
   265
 73
   263
  0
VERTEX
  5
171C
  8
CELO
 10
0.0
 20
0.0
 30
0.0
 70
   128
 71
   247
 72
   265
 73
   264
  0
VERTEX
  5
171D
  8
CELO
 10
0.0
 20
0.0
 30
0.0
 70
   128
 71
   247
 72
   246
 73
   265
  0
VERTEX
  5
171E
  8
CELO
 10
0.0
 20
0.0
 30
0.0
 70
   128
 71
   266
 72
   267
 73
   268
  0
VERTEX
  5
171F
  8
CELO
 10
0.0
 20
0.0
 30
0.0
 70
   128
 71
   269
 72
   270
 73
   271
  0
VERTEX
  5
1720
  8
CELO
 10
0.0
 20
0.0
 30
0.0
 70
   128
 71
   272
 72
   273
 73
   274
  0
VERTEX
  5
1721
  8
CELO
 10
0.0
 20
0.0
 30
0.0
 70
   128
 71
   272
 72
   275
 73
   273
  0
VERTEX
  5
1722
  8
CELO
 10
0.0
 20
0.0
 30
0.0
 70
   128
 71
   272
 72
   276
 73
   275
  0
VERTEX
  5
1723
  8
CELO
 10
0.0
 20
0.0
 30
0.0
 70
   128
 71
   272
 72
   277
 73
   276
  0
VERTEX
  5
1724
  8
CELO
 10
0.0
 20
0.0
 30
0.0
 70
   128
 71
   272
 72
   269
 73
   277
  0
VERTEX
  5
1725
  8
CELO
 10
0.0
 20
0.0
 30
0.0
 70
   128
 71
   272
 72
   270
 73
   269
  0
VERTEX
  5
1726
  8
CELO
 10
0.0
 20
0.0
 30
0.0
 70
   128
 71
   278
 72
   270
 73
   272
  0
VERTEX
  5
1727
  8
CELO
 10
0.0
 20
0.0
 30
0.0
 70
   128
 71
   267
 72
   270
 73
   278
  0
VERTEX
  5
1728
  8
CELO
 10
0.0
 20
0.0
 30
0.0
 70
   128
 71
   267
 72
   266
 73
   270
  0
VERTEX
  5
1729
  8
CELO
 10
0.0
 20
0.0
 30
0.0
 70
   128
 71
   279
 72
   280
 73
   281
  0
VERTEX
  5
172A
  8
CELO
 10
0.0
 20
0.0
 30
0.0
 70
   128
 71
   282
 72
   283
 73
   284
  0
VERTEX
  5
172B
  8
CELO
 10
0.0
 20
0.0
 30
0.0
 70
   128
 71
   282
 72
   285
 73
   283
  0
VERTEX
  5
172C
  8
CELO
 10
0.0
 20
0.0
 30
0.0
 70
   128
 71
   286
 72
   285
 73
   282
  0
VERTEX
  5
172D
  8
CELO
 10
0.0
 20
0.0
 30
0.0
 70
   128
 71
   286
 72
   287
 73
   285
  0
VERTEX
  5
172E
  8
CELO
 10
0.0
 20
0.0
 30
0.0
 70
   128
 71
   288
 72
   287
 73
   286
  0
VERTEX
  5
172F
  8
CELO
 10
0.0
 20
0.0
 30
0.0
 70
   128
 71
   288
 72
   289
 73
   287
  0
VERTEX
  5
1730
  8
CELO
 10
0.0
 20
0.0
 30
0.0
 70
   128
 71
   290
 72
   289
 73
   288
  0
VERTEX
  5
1731
  8
CELO
 10
0.0
 20
0.0
 30
0.0
 70
   128
 71
   290
 72
   291
 73
   289
  0
VERTEX
  5
1732
  8
CELO
 10
0.0
 20
0.0
 30
0.0
 70
   128
 71
   292
 72
   291
 73
   290
  0
VERTEX
  5
1733
  8
CELO
 10
0.0
 20
0.0
 30
0.0
 70
   128
 71
   293
 72
   291
 73
   292
  0
VERTEX
  5
1734
  8
CELO
 10
0.0
 20
0.0
 30
0.0
 70
   128
 71
   293
 72
   294
 73
   291
  0
VERTEX
  5
1735
  8
CELO
 10
0.0
 20
0.0
 30
0.0
 70
   128
 71
   295
 72
   294
 73
   293
  0
VERTEX
  5
1736
  8
CELO
 10
0.0
 20
0.0
 30
0.0
 70
   128
 71
   295
 72
   296
 73
   294
  0
VERTEX
  5
1737
  8
CELO
 10
0.0
 20
0.0
 30
0.0
 70
   128
 71
   297
 72
   296
 73
   295
  0
VERTEX
  5
1738
  8
CELO
 10
0.0
 20
0.0
 30
0.0
 70
   128
 71
   297
 72
   298
 73
   296
  0
VERTEX
  5
1739
  8
CELO
 10
0.0
 20
0.0
 30
0.0
 70
   128
 71
   280
 72
   298
 73
   297
  0
VERTEX
  5
173A
  8
CELO
 10
0.0
 20
0.0
 30
0.0
 70
   128
 71
   280
 72
   279
 73
   298
  0
VERTEX
  5
173B
  8
CELO
 10
0.0
 20
0.0
 30
0.0
 70
   128
 71
   299
 72
   300
 73
   301
  0
VERTEX
  5
173C
  8
CELO
 10
0.0
 20
0.0
 30
0.0
 70
   128
 71
   302
 72
   303
 73
   304
  0
VERTEX
  5
173D
  8
CELO
 10
0.0
 20
0.0
 30
0.0
 70
   128
 71
   305
 72
   303
 73
   302
  0
VERTEX
  5
173E
  8
CELO
 10
0.0
 20
0.0
 30
0.0
 70
   128
 71
   306
 72
   303
 73
   305
  0
VERTEX
  5
173F
  8
CELO
 10
0.0
 20
0.0
 30
0.0
 70
   128
 71
   306
 72
   307
 73
   303
  0
VERTEX
  5
1740
  8
CELO
 10
0.0
 20
0.0
 30
0.0
 70
   128
 71
   308
 72
   307
 73
   306
  0
VERTEX
  5
1741
  8
CELO
 10
0.0
 20
0.0
 30
0.0
 70
   128
 71
   308
 72
   309
 73
   307
  0
VERTEX
  5
1742
  8
CELO
 10
0.0
 20
0.0
 30
0.0
 70
   128
 71
   310
 72
   309
 73
   308
  0
VERTEX
  5
1743
  8
CELO
 10
0.0
 20
0.0
 30
0.0
 70
   128
 71
   310
 72
   300
 73
   309
  0
VERTEX
  5
1744
  8
CELO
 10
0.0
 20
0.0
 30
0.0
 70
   128
 71
   301
 72
   300
 73
   310
  0
VERTEX
  5
1745
  8
CELO
 10
0.0
 20
0.0
 30
0.0
 70
   128
 71
   311
 72
   312
 73
   313
  0
VERTEX
  5
1746
  8
CELO
 10
0.0
 20
0.0
 30
0.0
 70
   128
 71
   314
 72
   312
 73
   311
  0
VERTEX
  5
1747
  8
CELO
 10
0.0
 20
0.0
 30
0.0
 70
   128
 71
   314
 72
   315
 73
   312
  0
VERTEX
  5
1748
  8
CELO
 10
0.0
 20
0.0
 30
0.0
 70
   128
 71
   316
 72
   315
 73
   314
  0
VERTEX
  5
1749
  8
CELO
 10
0.0
 20
0.0
 30
0.0
 70
   128
 71
   316
 72
   317
 73
   315
  0
VERTEX
  5
174A
  8
CELO
 10
0.0
 20
0.0
 30
0.0
 70
   128
 71
   318
 72
   317
 73
   316
  0
VERTEX
  5
174B
  8
CELO
 10
0.0
 20
0.0
 30
0.0
 70
   128
 71
   318
 72
   299
 73
   317
  0
VERTEX
  5
174C
  8
CELO
 10
0.0
 20
0.0
 30
0.0
 70
   128
 71
   300
 72
   299
 73
   318
  0
VERTEX
  5
174D
  8
CELO
 10
0.0
 20
0.0
 30
0.0
 70
   128
 71
   319
 72
   320
 73
   321
  0
VERTEX
  5
174E
  8
CELO
 10
0.0
 20
0.0
 30
0.0
 70
   128
 71
   322
 72
   323
 73
   324
  0
VERTEX
  5
174F
  8
CELO
 10
0.0
 20
0.0
 30
0.0
 70
   128
 71
   325
 72
   326
 73
   327
  0
VERTEX
  5
1750
  8
CELO
 10
0.0
 20
0.0
 30
0.0
 70
   128
 71
   325
 72
   328
 73
   326
  0
VERTEX
  5
1751
  8
CELO
 10
0.0
 20
0.0
 30
0.0
 70
   128
 71
   329
 72
   330
 73
   331
  0
VERTEX
  5
1752
  8
CELO
 10
0.0
 20
0.0
 30
0.0
 70
   128
 71
   332
 72
   328
 73
   325
  0
VERTEX
  5
1753
  8
CELO
 10
0.0
 20
0.0
 30
0.0
 70
   128
 71
   332
 72
   333
 73
   328
  0
VERTEX
  5
1754
  8
CELO
 10
0.0
 20
0.0
 30
0.0
 70
   128
 71
   332
 72
   334
 73
   333
  0
VERTEX
  5
1755
  8
CELO
 10
0.0
 20
0.0
 30
0.0
 70
   128
 71
   332
 72
   335
 73
   334
  0
VERTEX
  5
1756
  8
CELO
 10
0.0
 20
0.0
 30
0.0
 70
   128
 71
   336
 72
   335
 73
   332
  0
VERTEX
  5
1757
  8
CELO
 10
0.0
 20
0.0
 30
0.0
 70
   128
 71
   336
 72
   337
 73
   335
  0
VERTEX
  5
1758
  8
CELO
 10
0.0
 20
0.0
 30
0.0
 70
   128
 71
   338
 72
   337
 73
   336
  0
VERTEX
  5
1759
  8
CELO
 10
0.0
 20
0.0
 30
0.0
 70
   128
 71
   338
 72
   339
 73
   337
  0
VERTEX
  5
175A
  8
CELO
 10
0.0
 20
0.0
 30
0.0
 70
   128
 71
   340
 72
   339
 73
   338
  0
VERTEX
  5
175B
  8
CELO
 10
0.0
 20
0.0
 30
0.0
 70
   128
 71
   340
 72
   341
 73
   339
  0
VERTEX
  5
175C
  8
CELO
 10
0.0
 20
0.0
 30
0.0
 70
   128
 71
   340
 72
   342
 73
   341
  0
VERTEX
  5
175D
  8
CELO
 10
0.0
 20
0.0
 30
0.0
 70
   128
 71
   343
 72
   342
 73
   340
  0
VERTEX
  5
175E
  8
CELO
 10
0.0
 20
0.0
 30
0.0
 70
   128
 71
   343
 72
   344
 73
   342
  0
VERTEX
  5
175F
  8
CELO
 10
0.0
 20
0.0
 30
0.0
 70
   128
 71
   343
 72
   345
 73
   344
  0
VERTEX
  5
1760
  8
CELO
 10
0.0
 20
0.0
 30
0.0
 70
   128
 71
   346
 72
   345
 73
   343
  0
VERTEX
  5
1761
  8
CELO
 10
0.0
 20
0.0
 30
0.0
 70
   128
 71
   346
 72
   347
 73
   345
  0
VERTEX
  5
1762
  8
CELO
 10
0.0
 20
0.0
 30
0.0
 70
   128
 71
   346
 72
   320
 73
   347
  0
VERTEX
  5
1763
  8
CELO
 10
0.0
 20
0.0
 30
0.0
 70
   128
 71
   321
 72
   320
 73
   346
  0
VERTEX
  5
1764
  8
CELO
 10
0.0
 20
0.0
 30
0.0
 70
   128
 71
   348
 72
   325
 73
   327
  0
VERTEX
  5
1765
  8
CELO
 10
0.0
 20
0.0
 30
0.0
 70
   128
 71
   348
 72
   349
 73
   325
  0
VERTEX
  5
1766
  8
CELO
 10
0.0
 20
0.0
 30
0.0
 70
   128
 71
   350
 72
   349
 73
   348
  0
VERTEX
  5
1767
  8
CELO
 10
0.0
 20
0.0
 30
0.0
 70
   128
 71
   350
 72
   351
 73
   349
  0
VERTEX
  5
1768
  8
CELO
 10
0.0
 20
0.0
 30
0.0
 70
   128
 71
   352
 72
   351
 73
   350
  0
VERTEX
  5
1769
  8
CELO
 10
0.0
 20
0.0
 30
0.0
 70
   128
 71
   352
 72
   353
 73
   351
  0
VERTEX
  5
176A
  8
CELO
 10
0.0
 20
0.0
 30
0.0
 70
   128
 71
   354
 72
   353
 73
   352
  0
VERTEX
  5
176B
  8
CELO
 10
0.0
 20
0.0
 30
0.0
 70
   128
 71
   354
 72
   355
 73
   353
  0
VERTEX
  5
176C
  8
CELO
 10
0.0
 20
0.0
 30
0.0
 70
   128
 71
   356
 72
   355
 73
   354
  0
VERTEX
  5
176D
  8
CELO
 10
0.0
 20
0.0
 30
0.0
 70
   128
 71
   356
 72
   357
 73
   355
  0
VERTEX
  5
176E
  8
CELO
 10
0.0
 20
0.0
 30
0.0
 70
   128
 71
   330
 72
   357
 73
   356
  0
VERTEX
  5
176F
  8
CELO
 10
0.0
 20
0.0
 30
0.0
 70
   128
 71
   330
 72
   358
 73
   357
  0
VERTEX
  5
1770
  8
CELO
 10
0.0
 20
0.0
 30
0.0
 70
   128
 71
   329
 72
   358
 73
   330
  0
VERTEX
  5
1771
  8
CELO
 10
0.0
 20
0.0
 30
0.0
 70
   128
 71
   359
 72
   358
 73
   329
  0
VERTEX
  5
1772
  8
CELO
 10
0.0
 20
0.0
 30
0.0
 70
   128
 71
   359
 72
   321
 73
   358
  0
VERTEX
  5
1773
  8
CELO
 10
0.0
 20
0.0
 30
0.0
 70
   128
 71
   323
 72
   321
 73
   359
  0
VERTEX
  5
1774
  8
CELO
 10
0.0
 20
0.0
 30
0.0
 70
   128
 71
   319
 72
   323
 73
   322
  0
VERTEX
  5
1775
  8
CELO
 10
0.0
 20
0.0
 30
0.0
 70
   128
 71
   320
 72
   319
 73
   322
  0
VERTEX
  5
1776
  8
CELO
 10
0.0
 20
0.0
 30
0.0
 70
   128
 71
   323
 72
   319
 73
   321
  0
VERTEX
  5
1777
  8
CELO
 10
0.0
 20
0.0
 30
0.0
 70
   128
 71
   358
 72
   346
 73
   357
  0
VERTEX
  5
1778
  8
CELO
 10
0.0
 20
0.0
 30
0.0
 70
   128
 71
   346
 72
   358
 73
   321
  0
VERTEX
  5
1779
  8
CELO
 10
0.0
 20
0.0
 30
0.0
 70
   128
 71
   357
 72
   343
 73
   355
  0
VERTEX
  5
177A
  8
CELO
 10
0.0
 20
0.0
 30
0.0
 70
   128
 71
   343
 72
   357
 73
   346
  0
VERTEX
  5
177B
  8
CELO
 10
0.0
 20
0.0
 30
0.0
 70
   128
 71
   355
 72
   340
 73
   353
  0
VERTEX
  5
177C
  8
CELO
 10
0.0
 20
0.0
 30
0.0
 70
   128
 71
   340
 72
   355
 73
   343
  0
VERTEX
  5
177D
  8
CELO
 10
0.0
 20
0.0
 30
0.0
 70
   128
 71
   353
 72
   338
 73
   351
  0
VERTEX
  5
177E
  8
CELO
 10
0.0
 20
0.0
 30
0.0
 70
   128
 71
   338
 72
   353
 73
   340
  0
VERTEX
  5
177F
  8
CELO
 10
0.0
 20
0.0
 30
0.0
 70
   128
 71
   351
 72
   336
 73
   349
  0
VERTEX
  5
1780
  8
CELO
 10
0.0
 20
0.0
 30
0.0
 70
   128
 71
   336
 72
   351
 73
   338
  0
VERTEX
  5
1781
  8
CELO
 10
0.0
 20
0.0
 30
0.0
 70
   128
 71
   349
 72
   332
 73
   325
  0
VERTEX
  5
1782
  8
CELO
 10
0.0
 20
0.0
 30
0.0
 70
   128
 71
   332
 72
   349
 73
   336
  0
VERTEX
  5
1783
  8
CELO
 10
0.0
 20
0.0
 30
0.0
 70
   128
 71
   360
 72
   361
 73
   362
  0
VERTEX
  5
1784
  8
CELO
 10
0.0
 20
0.0
 30
0.0
 70
   128
 71
   363
 72
   360
 73
   364
  0
VERTEX
  5
1785
  8
CELO
 10
0.0
 20
0.0
 30
0.0
 70
   128
 71
   365
 72
   366
 73
   367
  0
VERTEX
  5
1786
  8
CELO
 10
0.0
 20
0.0
 30
0.0
 70
   128
 71
   364
 72
   368
 73
   363
  0
VERTEX
  5
1787
  8
CELO
 10
0.0
 20
0.0
 30
0.0
 70
   128
 71
   369
 72
   368
 73
   364
  0
VERTEX
  5
1788
  8
CELO
 10
0.0
 20
0.0
 30
0.0
 70
   128
 71
   369
 72
   370
 73
   368
  0
VERTEX
  5
1789
  8
CELO
 10
0.0
 20
0.0
 30
0.0
 70
   128
 71
   366
 72
   370
 73
   369
  0
VERTEX
  5
178A
  8
CELO
 10
0.0
 20
0.0
 30
0.0
 70
   128
 71
   365
 72
   370
 73
   366
  0
VERTEX
  5
178B
  8
CELO
 10
0.0
 20
0.0
 30
0.0
 70
   128
 71
   371
 72
   370
 73
   365
  0
VERTEX
  5
178C
  8
CELO
 10
0.0
 20
0.0
 30
0.0
 70
   128
 71
   371
 72
   372
 73
   370
  0
VERTEX
  5
178D
  8
CELO
 10
0.0
 20
0.0
 30
0.0
 70
   128
 71
   373
 72
   372
 73
   371
  0
VERTEX
  5
178E
  8
CELO
 10
0.0
 20
0.0
 30
0.0
 70
   128
 71
   373
 72
   374
 73
   372
  0
VERTEX
  5
178F
  8
CELO
 10
0.0
 20
0.0
 30
0.0
 70
   128
 71
   375
 72
   374
 73
   373
  0
VERTEX
  5
1790
  8
CELO
 10
0.0
 20
0.0
 30
0.0
 70
   128
 71
   376
 72
   374
 73
   375
  0
VERTEX
  5
1791
  8
CELO
 10
0.0
 20
0.0
 30
0.0
 70
   128
 71
   377
 72
   378
 73
   379
  0
VERTEX
  5
1792
  8
CELO
 10
0.0
 20
0.0
 30
0.0
 70
   128
 71
   380
 72
   374
 73
   376
  0
VERTEX
  5
1793
  8
CELO
 10
0.0
 20
0.0
 30
0.0
 70
   128
 71
   380
 72
   381
 73
   374
  0
VERTEX
  5
1794
  8
CELO
 10
0.0
 20
0.0
 30
0.0
 70
   128
 71
   378
 72
   381
 73
   380
  0
VERTEX
  5
1795
  8
CELO
 10
0.0
 20
0.0
 30
0.0
 70
   128
 71
   378
 72
   382
 73
   381
  0
VERTEX
  5
1796
  8
CELO
 10
0.0
 20
0.0
 30
0.0
 70
   128
 71
   377
 72
   382
 73
   378
  0
VERTEX
  5
1797
  8
CELO
 10
0.0
 20
0.0
 30
0.0
 70
   128
 71
   383
 72
   382
 73
   377
  0
VERTEX
  5
1798
  8
CELO
 10
0.0
 20
0.0
 30
0.0
 70
   128
 71
   383
 72
   384
 73
   382
  0
VERTEX
  5
1799
  8
CELO
 10
0.0
 20
0.0
 30
0.0
 70
   128
 71
   361
 72
   384
 73
   383
  0
VERTEX
  5
179A
  8
CELO
 10
0.0
 20
0.0
 30
0.0
 70
   128
 71
   361
 72
   363
 73
   384
  0
VERTEX
  5
179B
  8
CELO
 10
0.0
 20
0.0
 30
0.0
 70
   128
 71
   361
 72
   360
 73
   363
  0
VERTEX
  5
179C
  8
CELO
 10
0.0
 20
0.0
 30
0.0
 70
   128
 71
   382
 72
   385
 73
   381
  0
VERTEX
  5
179D
  8
CELO
 10
0.0
 20
0.0
 30
0.0
 70
   128
 71
   385
 72
   382
 73
   384
  0
VERTEX
  5
179E
  8
CELO
 10
0.0
 20
0.0
 30
0.0
 70
   128
 71
   384
 72
   368
 73
   385
  0
VERTEX
  5
179F
  8
CELO
 10
0.0
 20
0.0
 30
0.0
 70
   128
 71
   368
 72
   384
 73
   363
  0
VERTEX
  5
17A0
  8
CELO
 10
0.0
 20
0.0
 30
0.0
 70
   128
 71
   381
 72
   372
 73
   374
  0
VERTEX
  5
17A1
  8
CELO
 10
0.0
 20
0.0
 30
0.0
 70
   128
 71
   372
 72
   381
 73
   385
  0
VERTEX
  5
17A2
  8
CELO
 10
0.0
 20
0.0
 30
0.0
 70
   128
 71
   385
 72
   370
 73
   372
  0
VERTEX
  5
17A3
  8
CELO
 10
0.0
 20
0.0
 30
0.0
 70
   128
 71
   370
 72
   385
 73
   368
  0
VERTEX
  5
17A4
  8
CELO
 10
0.0
 20
0.0
 30
0.0
 70
   128
 71
   386
 72
   387
 73
   388
  0
VERTEX
  5
17A5
  8
CELO
 10
0.0
 20
0.0
 30
0.0
 70
   128
 71
   389
 72
   390
 73
   391
  0
VERTEX
  5
17A6
  8
CELO
 10
0.0
 20
0.0
 30
0.0
 70
   128
 71
   390
 72
   392
 73
   393
  0
VERTEX
  5
17A7
  8
CELO
 10
0.0
 20
0.0
 30
0.0
 70
   128
 71
   386
 72
   394
 73
   395
  0
VERTEX
  5
17A8
  8
CELO
 10
0.0
 20
0.0
 30
0.0
 70
   128
 71
   394
 72
   396
 73
   397
  0
VERTEX
  5
17A9
  8
CELO
 10
0.0
 20
0.0
 30
0.0
 70
   128
 71
   398
 72
   390
 73
   389
  0
VERTEX
  5
17AA
  8
CELO
 10
0.0
 20
0.0
 30
0.0
 70
   128
 71
   389
 72
   399
 73
   398
  0
VERTEX
  5
17AB
  8
CELO
 10
0.0
 20
0.0
 30
0.0
 70
   128
 71
   400
 72
   399
 73
   401
  0
VERTEX
  5
17AC
  8
CELO
 10
0.0
 20
0.0
 30
0.0
 70
   128
 71
   401
 72
   402
 73
   403
  0
VERTEX
  5
17AD
  8
CELO
 10
0.0
 20
0.0
 30
0.0
 70
   128
 71
   404
 72
   400
 73
   403
  0
VERTEX
  5
17AE
  8
CELO
 10
0.0
 20
0.0
 30
0.0
 70
   128
 71
   404
 72
   405
 73
   406
  0
VERTEX
  5
17AF
  8
CELO
 10
0.0
 20
0.0
 30
0.0
 70
   128
 71
   407
 72
   408
 73
   406
  0
VERTEX
  5
17B0
  8
CELO
 10
0.0
 20
0.0
 30
0.0
 70
   128
 71
   407
 72
   409
 73
   410
  0
VERTEX
  5
17B1
  8
CELO
 10
0.0
 20
0.0
 30
0.0
 70
   128
 71
   411
 72
   412
 73
   410
  0
VERTEX
  5
17B2
  8
CELO
 10
0.0
 20
0.0
 30
0.0
 70
   128
 71
   411
 72
   413
 73
   414
  0
VERTEX
  5
17B3
  8
CELO
 10
0.0
 20
0.0
 30
0.0
 70
   128
 71
   415
 72
   416
 73
   414
  0
VERTEX
  5
17B4
  8
CELO
 10
0.0
 20
0.0
 30
0.0
 70
   128
 71
   415
 72
   417
 73
   418
  0
VERTEX
  5
17B5
  8
CELO
 10
0.0
 20
0.0
 30
0.0
 70
   128
 71
   419
 72
   394
 73
   386
  0
VERTEX
  5
17B6
  8
CELO
 10
0.0
 20
0.0
 30
0.0
 70
   128
 71
   420
 72
   419
 73
   388
  0
VERTEX
  5
17B7
  8
CELO
 10
0.0
 20
0.0
 30
0.0
 70
   128
 71
   417
 72
   387
 73
   418
  0
VERTEX
  5
17B8
  8
CELO
 10
0.0
 20
0.0
 30
0.0
 70
   128
 71
   398
 72
   399
 73
   392
  0
VERTEX
  5
17B9
  8
CELO
 10
0.0
 20
0.0
 30
0.0
 70
   128
 71
   399
 72
   389
 73
   421
  0
VERTEX
  5
17BA
  8
CELO
 10
0.0
 20
0.0
 30
0.0
 70
   128
 71
   390
 72
   398
 73
   392
  0
VERTEX
  5
17BB
  8
CELO
 10
0.0
 20
0.0
 30
0.0
 70
   128
 71
   401
 72
   399
 73
   421
  0
VERTEX
  5
17BC
  8
CELO
 10
0.0
 20
0.0
 30
0.0
 70
   128
 71
   399
 72
   400
 73
   392
  0
VERTEX
  5
17BD
  8
CELO
 10
0.0
 20
0.0
 30
0.0
 70
   128
 71
   401
 72
   403
 73
   400
  0
VERTEX
  5
17BE
  8
CELO
 10
0.0
 20
0.0
 30
0.0
 70
   128
 71
   402
 72
   401
 73
   421
  0
VERTEX
  5
17BF
  8
CELO
 10
0.0
 20
0.0
 30
0.0
 70
   128
 71
   404
 72
   403
 73
   402
  0
VERTEX
  5
17C0
  8
CELO
 10
0.0
 20
0.0
 30
0.0
 70
   128
 71
   400
 72
   404
 73
   408
  0
VERTEX
  5
17C1
  8
CELO
 10
0.0
 20
0.0
 30
0.0
 70
   128
 71
   404
 72
   406
 73
   408
  0
VERTEX
  5
17C2
  8
CELO
 10
0.0
 20
0.0
 30
0.0
 70
   128
 71
   405
 72
   404
 73
   402
  0
VERTEX
  5
17C3
  8
CELO
 10
0.0
 20
0.0
 30
0.0
 70
   128
 71
   407
 72
   406
 73
   405
  0
VERTEX
  5
17C4
  8
CELO
 10
0.0
 20
0.0
 30
0.0
 70
   128
 71
   408
 72
   407
 73
   412
  0
VERTEX
  5
17C5
  8
CELO
 10
0.0
 20
0.0
 30
0.0
 70
   128
 71
   407
 72
   410
 73
   412
  0
VERTEX
  5
17C6
  8
CELO
 10
0.0
 20
0.0
 30
0.0
 70
   128
 71
   409
 72
   407
 73
   405
  0
VERTEX
  5
17C7
  8
CELO
 10
0.0
 20
0.0
 30
0.0
 70
   128
 71
   411
 72
   410
 73
   409
  0
VERTEX
  5
17C8
  8
CELO
 10
0.0
 20
0.0
 30
0.0
 70
   128
 71
   412
 72
   411
 73
   416
  0
VERTEX
  5
17C9
  8
CELO
 10
0.0
 20
0.0
 30
0.0
 70
   128
 71
   411
 72
   414
 73
   416
  0
VERTEX
  5
17CA
  8
CELO
 10
0.0
 20
0.0
 30
0.0
 70
   128
 71
   413
 72
   411
 73
   409
  0
VERTEX
  5
17CB
  8
CELO
 10
0.0
 20
0.0
 30
0.0
 70
   128
 71
   415
 72
   414
 73
   413
  0
VERTEX
  5
17CC
  8
CELO
 10
0.0
 20
0.0
 30
0.0
 70
   128
 71
   416
 72
   415
 73
   422
  0
VERTEX
  5
17CD
  8
CELO
 10
0.0
 20
0.0
 30
0.0
 70
   128
 71
   415
 72
   418
 73
   422
  0
VERTEX
  5
17CE
  8
CELO
 10
0.0
 20
0.0
 30
0.0
 70
   128
 71
   417
 72
   415
 73
   413
  0
VERTEX
  5
17CF
  8
CELO
 10
0.0
 20
0.0
 30
0.0
 70
   128
 71
   418
 72
   387
 73
   422
  0
VERTEX
  5
17D0
  8
CELO
 10
0.0
 20
0.0
 30
0.0
 70
   128
 71
   387
 72
   417
 73
   420
  0
VERTEX
  5
17D1
  8
CELO
 10
0.0
 20
0.0
 30
0.0
 70
   128
 71
   388
 72
   419
 73
   386
  0
VERTEX
  5
17D2
  8
CELO
 10
0.0
 20
0.0
 30
0.0
 70
   128
 71
   419
 72
   420
 73
   396
  0
VERTEX
  5
17D3
  8
CELO
 10
0.0
 20
0.0
 30
0.0
 70
   128
 71
   394
 72
   419
 73
   396
  0
VERTEX
  5
17D4
  8
CELO
 10
0.0
 20
0.0
 30
0.0
 70
   128
 71
   388
 72
   387
 73
   420
  0
VERTEX
  5
17D5
  8
CELO
 10
0.0
 20
0.0
 30
0.0
 70
   128
 71
   387
 72
   386
 73
   422
  0
VERTEX
  5
17D6
  8
CELO
 10
0.0
 20
0.0
 30
0.0
 70
   128
 71
   423
 72
   424
 73
   425
  0
VERTEX
  5
17D7
  8
CELO
 10
0.0
 20
0.0
 30
0.0
 70
   128
 71
   426
 72
   427
 73
   428
  0
VERTEX
  5
17D8
  8
CELO
 10
0.0
 20
0.0
 30
0.0
 70
   128
 71
   429
 72
   427
 73
   426
  0
VERTEX
  5
17D9
  8
CELO
 10
0.0
 20
0.0
 30
0.0
 70
   128
 71
   429
 72
   430
 73
   427
  0
VERTEX
  5
17DA
  8
CELO
 10
0.0
 20
0.0
 30
0.0
 70
   128
 71
   431
 72
   430
 73
   429
  0
VERTEX
  5
17DB
  8
CELO
 10
0.0
 20
0.0
 30
0.0
 70
   128
 71
   431
 72
   432
 73
   430
  0
VERTEX
  5
17DC
  8
CELO
 10
0.0
 20
0.0
 30
0.0
 70
   128
 71
   433
 72
   432
 73
   431
  0
VERTEX
  5
17DD
  8
CELO
 10
0.0
 20
0.0
 30
0.0
 70
   128
 71
   434
 72
   432
 73
   433
  0
VERTEX
  5
17DE
  8
CELO
 10
0.0
 20
0.0
 30
0.0
 70
   128
 71
   434
 72
   435
 73
   432
  0
VERTEX
  5
17DF
  8
CELO
 10
0.0
 20
0.0
 30
0.0
 70
   128
 71
   434
 72
   436
 73
   435
  0
VERTEX
  5
17E0
  8
CELO
 10
0.0
 20
0.0
 30
0.0
 70
   128
 71
   437
 72
   436
 73
   434
  0
VERTEX
  5
17E1
  8
CELO
 10
0.0
 20
0.0
 30
0.0
 70
   128
 71
   437
 72
   438
 73
   436
  0
VERTEX
  5
17E2
  8
CELO
 10
0.0
 20
0.0
 30
0.0
 70
   128
 71
   439
 72
   438
 73
   437
  0
VERTEX
  5
17E3
  8
CELO
 10
0.0
 20
0.0
 30
0.0
 70
   128
 71
   439
 72
   440
 73
   438
  0
VERTEX
  5
17E4
  8
CELO
 10
0.0
 20
0.0
 30
0.0
 70
   128
 71
   424
 72
   440
 73
   439
  0
VERTEX
  5
17E5
  8
CELO
 10
0.0
 20
0.0
 30
0.0
 70
   128
 71
   424
 72
   423
 73
   440
  0
VERTEX
  5
17E6
  8
CELO
 10
0.0
 20
0.0
 30
0.0
 70
   128
 71
   441
 72
   442
 73
   443
  0
VERTEX
  5
17E7
  8
CELO
 10
0.0
 20
0.0
 30
0.0
 70
   128
 71
   444
 72
   445
 73
   446
  0
VERTEX
  5
17E8
  8
CELO
 10
0.0
 20
0.0
 30
0.0
 70
   128
 71
   447
 72
   444
 73
   448
  0
VERTEX
  5
17E9
  8
CELO
 10
0.0
 20
0.0
 30
0.0
 70
   128
 71
   449
 72
   450
 73
   451
  0
VERTEX
  5
17EA
  8
CELO
 10
0.0
 20
0.0
 30
0.0
 70
   128
 71
   452
 72
   449
 73
   453
  0
VERTEX
  5
17EB
  8
CELO
 10
0.0
 20
0.0
 30
0.0
 70
   128
 71
   454
 72
   444
 73
   447
  0
VERTEX
  5
17EC
  8
CELO
 10
0.0
 20
0.0
 30
0.0
 70
   128
 71
   455
 72
   445
 73
   454
  0
VERTEX
  5
17ED
  8
CELO
 10
0.0
 20
0.0
 30
0.0
 70
   128
 71
   455
 72
   456
 73
   457
  0
VERTEX
  5
17EE
  8
CELO
 10
0.0
 20
0.0
 30
0.0
 70
   128
 71
   458
 72
   457
 73
   459
  0
VERTEX
  5
17EF
  8
CELO
 10
0.0
 20
0.0
 30
0.0
 70
   128
 71
   456
 72
   460
 73
   459
  0
VERTEX
  5
17F0
  8
CELO
 10
0.0
 20
0.0
 30
0.0
 70
   128
 71
   461
 72
   460
 73
   462
  0
VERTEX
  5
17F1
  8
CELO
 10
0.0
 20
0.0
 30
0.0
 70
   128
 71
   463
 72
   464
 73
   462
  0
VERTEX
  5
17F2
  8
CELO
 10
0.0
 20
0.0
 30
0.0
 70
   128
 71
   465
 72
   464
 73
   466
  0
VERTEX
  5
17F3
  8
CELO
 10
0.0
 20
0.0
 30
0.0
 70
   128
 71
   467
 72
   468
 73
   466
  0
VERTEX
  5
17F4
  8
CELO
 10
0.0
 20
0.0
 30
0.0
 70
   128
 71
   469
 72
   468
 73
   470
  0
VERTEX
  5
17F5
  8
CELO
 10
0.0
 20
0.0
 30
0.0
 70
   128
 71
   471
 72
   472
 73
   470
  0
VERTEX
  5
17F6
  8
CELO
 10
0.0
 20
0.0
 30
0.0
 70
   128
 71
   473
 72
   472
 73
   474
  0
VERTEX
  5
17F7
  8
CELO
 10
0.0
 20
0.0
 30
0.0
 70
   128
 71
   475
 72
   473
 73
   474
  0
VERTEX
  5
17F8
  8
CELO
 10
0.0
 20
0.0
 30
0.0
 70
   128
 71
   475
 72
   450
 73
   443
  0
VERTEX
  5
17F9
  8
CELO
 10
0.0
 20
0.0
 30
0.0
 70
   128
 71
   441
 72
   449
 73
   452
  0
VERTEX
  5
17FA
  8
CELO
 10
0.0
 20
0.0
 30
0.0
 70
   128
 71
   455
 72
   454
 73
   447
  0
VERTEX
  5
17FB
  8
CELO
 10
0.0
 20
0.0
 30
0.0
 70
   128
 71
   445
 72
   455
 73
   476
  0
VERTEX
  5
17FC
  8
CELO
 10
0.0
 20
0.0
 30
0.0
 70
   128
 71
   444
 72
   454
 73
   445
  0
VERTEX
  5
17FD
  8
CELO
 10
0.0
 20
0.0
 30
0.0
 70
   128
 71
   455
 72
   457
 73
   476
  0
VERTEX
  5
17FE
  8
CELO
 10
0.0
 20
0.0
 30
0.0
 70
   128
 71
   456
 72
   455
 73
   447
  0
VERTEX
  5
17FF
  8
CELO
 10
0.0
 20
0.0
 30
0.0
 70
   128
 71
   459
 72
   457
 73
   456
  0
VERTEX
  5
1800
  8
CELO
 10
0.0
 20
0.0
 30
0.0
 70
   128
 71
   457
 72
   458
 73
   476
  0
VERTEX
  5
1801
  8
CELO
 10
0.0
 20
0.0
 30
0.0
 70
   128
 71
   459
 72
   460
 73
   458
  0
VERTEX
  5
1802
  8
CELO
 10
0.0
 20
0.0
 30
0.0
 70
   128
 71
   460
 72
   456
 73
   463
  0
VERTEX
  5
1803
  8
CELO
 10
0.0
 20
0.0
 30
0.0
 70
   128
 71
   462
 72
   460
 73
   463
  0
VERTEX
  5
1804
  8
CELO
 10
0.0
 20
0.0
 30
0.0
 70
   128
 71
   460
 72
   461
 73
   458
  0
VERTEX
  5
1805
  8
CELO
 10
0.0
 20
0.0
 30
0.0
 70
   128
 71
   462
 72
   464
 73
   461
  0
VERTEX
  5
1806
  8
CELO
 10
0.0
 20
0.0
 30
0.0
 70
   128
 71
   464
 72
   463
 73
   467
  0
VERTEX
  5
1807
  8
CELO
 10
0.0
 20
0.0
 30
0.0
 70
   128
 71
   466
 72
   464
 73
   467
  0
VERTEX
  5
1808
  8
CELO
 10
0.0
 20
0.0
 30
0.0
 70
   128
 71
   464
 72
   465
 73
   461
  0
VERTEX
  5
1809
  8
CELO
 10
0.0
 20
0.0
 30
0.0
 70
   128
 71
   466
 72
   468
 73
   465
  0
VERTEX
  5
180A
  8
CELO
 10
0.0
 20
0.0
 30
0.0
 70
   128
 71
   468
 72
   467
 73
   471
  0
VERTEX
  5
180B
  8
CELO
 10
0.0
 20
0.0
 30
0.0
 70
   128
 71
   470
 72
   468
 73
   471
  0
VERTEX
  5
180C
  8
CELO
 10
0.0
 20
0.0
 30
0.0
 70
   128
 71
   468
 72
   469
 73
   465
  0
VERTEX
  5
180D
  8
CELO
 10
0.0
 20
0.0
 30
0.0
 70
   128
 71
   470
 72
   472
 73
   469
  0
VERTEX
  5
180E
  8
CELO
 10
0.0
 20
0.0
 30
0.0
 70
   128
 71
   472
 72
   471
 73
   477
  0
VERTEX
  5
180F
  8
CELO
 10
0.0
 20
0.0
 30
0.0
 70
   128
 71
   474
 72
   472
 73
   477
  0
VERTEX
  5
1810
  8
CELO
 10
0.0
 20
0.0
 30
0.0
 70
   128
 71
   472
 72
   473
 73
   469
  0
VERTEX
  5
1811
  8
CELO
 10
0.0
 20
0.0
 30
0.0
 70
   128
 71
   475
 72
   474
 73
   477
  0
VERTEX
  5
1812
  8
CELO
 10
0.0
 20
0.0
 30
0.0
 70
   128
 71
   473
 72
   475
 73
   442
  0
VERTEX
  5
1813
  8
CELO
 10
0.0
 20
0.0
 30
0.0
 70
   128
 71
   475
 72
   443
 73
   442
  0
VERTEX
  5
1814
  8
CELO
 10
0.0
 20
0.0
 30
0.0
 70
   128
 71
   450
 72
   475
 73
   477
  0
VERTEX
  5
1815
  8
CELO
 10
0.0
 20
0.0
 30
0.0
 70
   128
 71
   441
 72
   443
 73
   450
  0
VERTEX
  5
1816
  8
CELO
 10
0.0
 20
0.0
 30
0.0
 70
   128
 71
   442
 72
   441
 73
   452
  0
VERTEX
  5
1817
  8
CELO
 10
0.0
 20
0.0
 30
0.0
 70
   128
 71
   449
 72
   441
 73
   450
  0
VERTEX
  5
1818
  8
CELO
 10
0.0
 20
0.0
 30
0.0
 70
   128
 71
   478
 72
   479
 73
   480
  0
VERTEX
  5
1819
  8
CELO
 10
0.0
 20
0.0
 30
0.0
 70
   128
 71
   479
 72
   481
 73
   482
  0
VERTEX
  5
181A
  8
CELO
 10
0.0
 20
0.0
 30
0.0
 70
   128
 71
   483
 72
   482
 73
   481
  0
VERTEX
  5
181B
  8
CELO
 10
0.0
 20
0.0
 30
0.0
 70
   128
 71
   483
 72
   484
 73
   482
  0
VERTEX
  5
181C
  8
CELO
 10
0.0
 20
0.0
 30
0.0
 70
   128
 71
   485
 72
   484
 73
   483
  0
VERTEX
  5
181D
  8
CELO
 10
0.0
 20
0.0
 30
0.0
 70
   128
 71
   485
 72
   486
 73
   484
  0
VERTEX
  5
181E
  8
CELO
 10
0.0
 20
0.0
 30
0.0
 70
   128
 71
   486
 72
   487
 73
   488
  0
VERTEX
  5
181F
  8
CELO
 10
0.0
 20
0.0
 30
0.0
 70
   128
 71
   485
 72
   487
 73
   486
  0
VERTEX
  5
1820
  8
CELO
 10
0.0
 20
0.0
 30
0.0
 70
   128
 71
   485
 72
   489
 73
   487
  0
VERTEX
  5
1821
  8
CELO
 10
0.0
 20
0.0
 30
0.0
 70
   128
 71
   490
 72
   489
 73
   485
  0
VERTEX
  5
1822
  8
CELO
 10
0.0
 20
0.0
 30
0.0
 70
   128
 71
   490
 72
   491
 73
   489
  0
VERTEX
  5
1823
  8
CELO
 10
0.0
 20
0.0
 30
0.0
 70
   128
 71
   492
 72
   491
 73
   490
  0
VERTEX
  5
1824
  8
CELO
 10
0.0
 20
0.0
 30
0.0
 70
   128
 71
   492
 72
   493
 73
   491
  0
VERTEX
  5
1825
  8
CELO
 10
0.0
 20
0.0
 30
0.0
 70
   128
 71
   492
 72
   494
 73
   493
  0
VERTEX
  5
1826
  8
CELO
 10
0.0
 20
0.0
 30
0.0
 70
   128
 71
   495
 72
   496
 73
   497
  0
VERTEX
  5
1827
  8
CELO
 10
0.0
 20
0.0
 30
0.0
 70
   128
 71
   498
 72
   494
 73
   492
  0
VERTEX
  5
1828
  8
CELO
 10
0.0
 20
0.0
 30
0.0
 70
   128
 71
   498
 72
   499
 73
   494
  0
VERTEX
  5
1829
  8
CELO
 10
0.0
 20
0.0
 30
0.0
 70
   128
 71
   500
 72
   499
 73
   498
  0
VERTEX
  5
182A
  8
CELO
 10
0.0
 20
0.0
 30
0.0
 70
   128
 71
   500
 72
   495
 73
   499
  0
VERTEX
  5
182B
  8
CELO
 10
0.0
 20
0.0
 30
0.0
 70
   128
 71
   500
 72
   496
 73
   495
  0
VERTEX
  5
182C
  8
CELO
 10
0.0
 20
0.0
 30
0.0
 70
   128
 71
   500
 72
   501
 73
   496
  0
VERTEX
  5
182D
  8
CELO
 10
0.0
 20
0.0
 30
0.0
 70
   128
 71
   502
 72
   501
 73
   500
  0
VERTEX
  5
182E
  8
CELO
 10
0.0
 20
0.0
 30
0.0
 70
   128
 71
   502
 72
   478
 73
   501
  0
VERTEX
  5
182F
  8
CELO
 10
0.0
 20
0.0
 30
0.0
 70
   128
 71
   481
 72
   478
 73
   502
  0
VERTEX
  5
1830
  8
CELO
 10
0.0
 20
0.0
 30
0.0
 70
   128
 71
   479
 72
   478
 73
   481
  0
VERTEX
  5
1831
  8
CELO
 10
0.0
 20
0.0
 30
0.0
 70
   128
 71
   492
 72
   503
 73
   498
  0
VERTEX
  5
1832
  8
CELO
 10
0.0
 20
0.0
 30
0.0
 70
   128
 71
   503
 72
   492
 73
   490
  0
VERTEX
  5
1833
  8
CELO
 10
0.0
 20
0.0
 30
0.0
 70
   128
 71
   490
 72
   483
 73
   503
  0
VERTEX
  5
1834
  8
CELO
 10
0.0
 20
0.0
 30
0.0
 70
   128
 71
   483
 72
   490
 73
   485
  0
VERTEX
  5
1835
  8
CELO
 10
0.0
 20
0.0
 30
0.0
 70
   128
 71
   498
 72
   502
 73
   500
  0
VERTEX
  5
1836
  8
CELO
 10
0.0
 20
0.0
 30
0.0
 70
   128
 71
   502
 72
   498
 73
   503
  0
VERTEX
  5
1837
  8
CELO
 10
0.0
 20
0.0
 30
0.0
 70
   128
 71
   503
 72
   481
 73
   502
  0
VERTEX
  5
1838
  8
CELO
 10
0.0
 20
0.0
 30
0.0
 70
   128
 71
   481
 72
   503
 73
   483
  0
VERTEX
  5
1839
  8
CELO
 10
0.0
 20
0.0
 30
0.0
 70
   128
 71
   504
 72
   505
 73
   506
  0
VERTEX
  5
183A
  8
CELO
 10
0.0
 20
0.0
 30
0.0
 70
   128
 71
   507
 72
   508
 73
   509
  0
VERTEX
  5
183B
  8
CELO
 10
0.0
 20
0.0
 30
0.0
 70
   128
 71
   510
 72
   508
 73
   507
  0
VERTEX
  5
183C
  8
CELO
 10
0.0
 20
0.0
 30
0.0
 70
   128
 71
   510
 72
   511
 73
   508
  0
VERTEX
  5
183D
  8
CELO
 10
0.0
 20
0.0
 30
0.0
 70
   128
 71
   512
 72
   511
 73
   510
  0
VERTEX
  5
183E
  8
CELO
 10
0.0
 20
0.0
 30
0.0
 70
   128
 71
   512
 72
   513
 73
   511
  0
VERTEX
  5
183F
  8
CELO
 10
0.0
 20
0.0
 30
0.0
 70
   128
 71
   514
 72
   513
 73
   512
  0
VERTEX
  5
1840
  8
CELO
 10
0.0
 20
0.0
 30
0.0
 70
   128
 71
   514
 72
   515
 73
   513
  0
VERTEX
  5
1841
  8
CELO
 10
0.0
 20
0.0
 30
0.0
 70
   128
 71
   516
 72
   515
 73
   514
  0
VERTEX
  5
1842
  8
CELO
 10
0.0
 20
0.0
 30
0.0
 70
   128
 71
   516
 72
   517
 73
   515
  0
VERTEX
  5
1843
  8
CELO
 10
0.0
 20
0.0
 30
0.0
 70
   128
 71
   516
 72
   518
 73
   517
  0
VERTEX
  5
1844
  8
CELO
 10
0.0
 20
0.0
 30
0.0
 70
   128
 71
   519
 72
   518
 73
   516
  0
VERTEX
  5
1845
  8
CELO
 10
0.0
 20
0.0
 30
0.0
 70
   128
 71
   519
 72
   520
 73
   518
  0
VERTEX
  5
1846
  8
CELO
 10
0.0
 20
0.0
 30
0.0
 70
   128
 71
   521
 72
   520
 73
   519
  0
VERTEX
  5
1847
  8
CELO
 10
0.0
 20
0.0
 30
0.0
 70
   128
 71
   521
 72
   522
 73
   520
  0
VERTEX
  5
1848
  8
CELO
 10
0.0
 20
0.0
 30
0.0
 70
   128
 71
   523
 72
   522
 73
   521
  0
VERTEX
  5
1849
  8
CELO
 10
0.0
 20
0.0
 30
0.0
 70
   128
 71
   523
 72
   504
 73
   522
  0
VERTEX
  5
184A
  8
CELO
 10
0.0
 20
0.0
 30
0.0
 70
   128
 71
   524
 72
   504
 73
   523
  0
VERTEX
  5
184B
  8
CELO
 10
0.0
 20
0.0
 30
0.0
 70
   128
 71
   505
 72
   504
 73
   524
  0
VERTEX
  5
184C
  8
CELO
 10
0.0
 20
0.0
 30
0.0
 70
   128
 71
   525
 72
   526
 73
   527
  0
VERTEX
  5
184D
  8
CELO
 10
0.0
 20
0.0
 30
0.0
 70
   128
 71
   528
 72
   527
 73
   529
  0
VERTEX
  5
184E
  8
CELO
 10
0.0
 20
0.0
 30
0.0
 70
   128
 71
   530
 72
   531
 73
   532
  0
VERTEX
  5
184F
  8
CELO
 10
0.0
 20
0.0
 30
0.0
 70
   128
 71
   530
 72
   533
 73
   531
  0
VERTEX
  5
1850
  8
CELO
 10
0.0
 20
0.0
 30
0.0
 70
   128
 71
   534
 72
   533
 73
   530
  0
VERTEX
  5
1851
  8
CELO
 10
0.0
 20
0.0
 30
0.0
 70
   128
 71
   534
 72
   535
 73
   533
  0
VERTEX
  5
1852
  8
CELO
 10
0.0
 20
0.0
 30
0.0
 70
   128
 71
   536
 72
   537
 73
   538
  0
VERTEX
  5
1853
  8
CELO
 10
0.0
 20
0.0
 30
0.0
 70
   128
 71
   532
 72
   539
 73
   530
  0
VERTEX
  5
1854
  8
CELO
 10
0.0
 20
0.0
 30
0.0
 70
   128
 71
   540
 72
   539
 73
   532
  0
VERTEX
  5
1855
  8
CELO
 10
0.0
 20
0.0
 30
0.0
 70
   128
 71
   541
 72
   539
 73
   540
  0
VERTEX
  5
1856
  8
CELO
 10
0.0
 20
0.0
 30
0.0
 70
   128
 71
   541
 72
   542
 73
   539
  0
VERTEX
  5
1857
  8
CELO
 10
0.0
 20
0.0
 30
0.0
 70
   128
 71
   541
 72
   543
 73
   542
  0
VERTEX
  5
1858
  8
CELO
 10
0.0
 20
0.0
 30
0.0
 70
   128
 71
   544
 72
   543
 73
   541
  0
VERTEX
  5
1859
  8
CELO
 10
0.0
 20
0.0
 30
0.0
 70
   128
 71
   544
 72
   545
 73
   543
  0
VERTEX
  5
185A
  8
CELO
 10
0.0
 20
0.0
 30
0.0
 70
   128
 71
   546
 72
   545
 73
   544
  0
VERTEX
  5
185B
  8
CELO
 10
0.0
 20
0.0
 30
0.0
 70
   128
 71
   547
 72
   545
 73
   546
  0
VERTEX
  5
185C
  8
CELO
 10
0.0
 20
0.0
 30
0.0
 70
   128
 71
   547
 72
   548
 73
   545
  0
VERTEX
  5
185D
  8
CELO
 10
0.0
 20
0.0
 30
0.0
 70
   128
 71
   537
 72
   548
 73
   547
  0
VERTEX
  5
185E
  8
CELO
 10
0.0
 20
0.0
 30
0.0
 70
   128
 71
   537
 72
   549
 73
   548
  0
VERTEX
  5
185F
  8
CELO
 10
0.0
 20
0.0
 30
0.0
 70
   128
 71
   536
 72
   549
 73
   537
  0
VERTEX
  5
1860
  8
CELO
 10
0.0
 20
0.0
 30
0.0
 70
   128
 71
   550
 72
   549
 73
   536
  0
VERTEX
  5
1861
  8
CELO
 10
0.0
 20
0.0
 30
0.0
 70
   128
 71
   550
 72
   551
 73
   549
  0
VERTEX
  5
1862
  8
CELO
 10
0.0
 20
0.0
 30
0.0
 70
   128
 71
   552
 72
   551
 73
   550
  0
VERTEX
  5
1863
  8
CELO
 10
0.0
 20
0.0
 30
0.0
 70
   128
 71
   553
 72
   551
 73
   552
  0
VERTEX
  5
1864
  8
CELO
 10
0.0
 20
0.0
 30
0.0
 70
   128
 71
   553
 72
   554
 73
   551
  0
VERTEX
  5
1865
  8
CELO
 10
0.0
 20
0.0
 30
0.0
 70
   128
 71
   555
 72
   554
 73
   553
  0
VERTEX
  5
1866
  8
CELO
 10
0.0
 20
0.0
 30
0.0
 70
   128
 71
   555
 72
   556
 73
   554
  0
VERTEX
  5
1867
  8
CELO
 10
0.0
 20
0.0
 30
0.0
 70
   128
 71
   557
 72
   556
 73
   555
  0
VERTEX
  5
1868
  8
CELO
 10
0.0
 20
0.0
 30
0.0
 70
   128
 71
   557
 72
   558
 73
   556
  0
VERTEX
  5
1869
  8
CELO
 10
0.0
 20
0.0
 30
0.0
 70
   128
 71
   559
 72
   558
 73
   557
  0
VERTEX
  5
186A
  8
CELO
 10
0.0
 20
0.0
 30
0.0
 70
   128
 71
   560
 72
   558
 73
   559
  0
VERTEX
  5
186B
  8
CELO
 10
0.0
 20
0.0
 30
0.0
 70
   128
 71
   560
 72
   561
 73
   558
  0
VERTEX
  5
186C
  8
CELO
 10
0.0
 20
0.0
 30
0.0
 70
   128
 71
   562
 72
   561
 73
   560
  0
VERTEX
  5
186D
  8
CELO
 10
0.0
 20
0.0
 30
0.0
 70
   128
 71
   563
 72
   561
 73
   562
  0
VERTEX
  5
186E
  8
CELO
 10
0.0
 20
0.0
 30
0.0
 70
   128
 71
   563
 72
   564
 73
   561
  0
VERTEX
  5
186F
  8
CELO
 10
0.0
 20
0.0
 30
0.0
 70
   128
 71
   565
 72
   564
 73
   563
  0
VERTEX
  5
1870
  8
CELO
 10
0.0
 20
0.0
 30
0.0
 70
   128
 71
   526
 72
   564
 73
   565
  0
VERTEX
  5
1871
  8
CELO
 10
0.0
 20
0.0
 30
0.0
 70
   128
 71
   526
 72
   534
 73
   564
  0
VERTEX
  5
1872
  8
CELO
 10
0.0
 20
0.0
 30
0.0
 70
   128
 71
   534
 72
   528
 73
   535
  0
VERTEX
  5
1873
  8
CELO
 10
0.0
 20
0.0
 30
0.0
 70
   128
 71
   525
 72
   528
 73
   534
  0
VERTEX
  5
1874
  8
CELO
 10
0.0
 20
0.0
 30
0.0
 70
   128
 71
   526
 72
   525
 73
   534
  0
VERTEX
  5
1875
  8
CELO
 10
0.0
 20
0.0
 30
0.0
 70
   128
 71
   528
 72
   525
 73
   527
  0
VERTEX
  5
1876
  8
CELO
 10
0.0
 20
0.0
 30
0.0
 70
   128
 71
   534
 72
   539
 73
   564
  0
VERTEX
  5
1877
  8
CELO
 10
0.0
 20
0.0
 30
0.0
 70
   128
 71
   539
 72
   534
 73
   530
  0
VERTEX
  5
1878
  8
CELO
 10
0.0
 20
0.0
 30
0.0
 70
   128
 71
   564
 72
   542
 73
   561
  0
VERTEX
  5
1879
  8
CELO
 10
0.0
 20
0.0
 30
0.0
 70
   128
 71
   542
 72
   564
 73
   539
  0
VERTEX
  5
187A
  8
CELO
 10
0.0
 20
0.0
 30
0.0
 70
   128
 71
   561
 72
   543
 73
   558
  0
VERTEX
  5
187B
  8
CELO
 10
0.0
 20
0.0
 30
0.0
 70
   128
 71
   543
 72
   561
 73
   542
  0
VERTEX
  5
187C
  8
CELO
 10
0.0
 20
0.0
 30
0.0
 70
   128
 71
   558
 72
   545
 73
   556
  0
VERTEX
  5
187D
  8
CELO
 10
0.0
 20
0.0
 30
0.0
 70
   128
 71
   545
 72
   558
 73
   543
  0
VERTEX
  5
187E
  8
CELO
 10
0.0
 20
0.0
 30
0.0
 70
   128
 71
   556
 72
   548
 73
   554
  0
VERTEX
  5
187F
  8
CELO
 10
0.0
 20
0.0
 30
0.0
 70
   128
 71
   548
 72
   556
 73
   545
  0
VERTEX
  5
1880
  8
CELO
 10
0.0
 20
0.0
 30
0.0
 70
   128
 71
   554
 72
   549
 73
   551
  0
VERTEX
  5
1881
  8
CELO
 10
0.0
 20
0.0
 30
0.0
 70
   128
 71
   549
 72
   554
 73
   548
  0
VERTEX
  5
1882
  8
CELO
 10
0.0
 20
0.0
 30
0.0
 70
   128
 71
   566
 72
   567
 73
   568
  0
VERTEX
  5
1883
  8
CELO
 10
0.0
 20
0.0
 30
0.0
 70
   128
 71
   569
 72
   570
 73
   571
  0
VERTEX
  5
1884
  8
CELO
 10
0.0
 20
0.0
 30
0.0
 70
   128
 71
   572
 72
   570
 73
   569
  0
VERTEX
  5
1885
  8
CELO
 10
0.0
 20
0.0
 30
0.0
 70
   128
 71
   573
 72
   570
 73
   572
  0
VERTEX
  5
1886
  8
CELO
 10
0.0
 20
0.0
 30
0.0
 70
   128
 71
   573
 72
   574
 73
   570
  0
VERTEX
  5
1887
  8
CELO
 10
0.0
 20
0.0
 30
0.0
 70
   128
 71
   575
 72
   574
 73
   573
  0
VERTEX
  5
1888
  8
CELO
 10
0.0
 20
0.0
 30
0.0
 70
   128
 71
   575
 72
   576
 73
   574
  0
VERTEX
  5
1889
  8
CELO
 10
0.0
 20
0.0
 30
0.0
 70
   128
 71
   577
 72
   576
 73
   575
  0
VERTEX
  5
188A
  8
CELO
 10
0.0
 20
0.0
 30
0.0
 70
   128
 71
   577
 72
   578
 73
   576
  0
VERTEX
  5
188B
  8
CELO
 10
0.0
 20
0.0
 30
0.0
 70
   128
 71
   579
 72
   578
 73
   577
  0
VERTEX
  5
188C
  8
CELO
 10
0.0
 20
0.0
 30
0.0
 70
   128
 71
   580
 72
   578
 73
   579
  0
VERTEX
  5
188D
  8
CELO
 10
0.0
 20
0.0
 30
0.0
 70
   128
 71
   580
 72
   581
 73
   578
  0
VERTEX
  5
188E
  8
CELO
 10
0.0
 20
0.0
 30
0.0
 70
   128
 71
   582
 72
   581
 73
   580
  0
VERTEX
  5
188F
  8
CELO
 10
0.0
 20
0.0
 30
0.0
 70
   128
 71
   582
 72
   583
 73
   581
  0
VERTEX
  5
1890
  8
CELO
 10
0.0
 20
0.0
 30
0.0
 70
   128
 71
   584
 72
   583
 73
   582
  0
VERTEX
  5
1891
  8
CELO
 10
0.0
 20
0.0
 30
0.0
 70
   128
 71
   584
 72
   585
 73
   583
  0
VERTEX
  5
1892
  8
CELO
 10
0.0
 20
0.0
 30
0.0
 70
   128
 71
   567
 72
   585
 73
   584
  0
VERTEX
  5
1893
  8
CELO
 10
0.0
 20
0.0
 30
0.0
 70
   128
 71
   567
 72
   566
 73
   585
  0
SEQEND
  5
1894
  8
CELO
  0
ENDSEC
  0
EOF
