  0
SECTION
  2
HEADER
  9
$ACADVER
  1
AC1009
  9
$DWGCODEPAGE
  3
ansi_1250
  9
$INSBASE
 10
0.0
 20
0.0
 30
0.0
  9
$EXTMIN
 10
-8.000000000000057
 20
-29.5
 30
-26.0
  9
$EXTMAX
 10
64.99999999999997
 20
26.0
 30
26.00000000000001
  9
$LIMMIN
 10
0.0
 20
0.0
  9
$LIMMAX
 10
420.0
 20
297.0
  9
$ORTHOMODE
 70
     0
  9
$REGENMODE
 70
     1
  9
$FILLMODE
 70
     1
  9
$QTEXTMODE
 70
     0
  9
$MIRRTEXT
 70
     0
  9
$DRAGMODE
 70
     2
  9
$LTSCALE
 40
1.0
  9
$OSMODE
 70
   511
  9
$ATTMODE
 70
     1
  9
$TEXTSIZE
 40
2.5
  9
$TRACEWID
 40
1.0
  9
$TEXTSTYLE
  7
STANDARD
  9
$CLAYER
  8
0
  9
$CELTYPE
  6
BYLAYER
  9
$CECOLOR
 62
   256
  9
$DIMSCALE
 40
1.0
  9
$DIMASZ
 40
2.5
  9
$DIMEXO
 40
0.625
  9
$DIMDLI
 40
3.75
  9
$DIMRND
 40
0.0
  9
$DIMDLE
 40
0.0
  9
$DIMEXE
 40
1.25
  9
$DIMTP
 40
0.0
  9
$DIMTM
 40
0.0
  9
$DIMTXT
 40
2.5
  9
$DIMCEN
 40
-2.5
  9
$DIMTSZ
 40
0.0
  9
$DIMTOL
 70
     0
  9
$DIMLIM
 70
     0
  9
$DIMTIH
 70
     0
  9
$DIMTOH
 70
     0
  9
$DIMSE1
 70
     0
  9
$DIMSE2
 70
     0
  9
$DIMTAD
 70
     1
  9
$DIMZIN
 70
     8
  9
$DIMBLK
  1

  9
$DIMASO
 70
     1
  9
$DIMSHO
 70
     1
  9
$DIMPOST
  1

  9
$DIMAPOST
  1

  9
$DIMALT
 70
     0
  9
$DIMALTD
 70
     3
  9
$DIMALTF
 40
0.03937007874016
  9
$DIMLFAC
 40
1.0
  9
$DIMTOFL
 70
     1
  9
$DIMTVP
 40
0.0
  9
$DIMTIX
 70
     0
  9
$DIMSOXD
 70
     0
  9
$DIMSAH
 70
     0
  9
$DIMBLK1
  1

  9
$DIMBLK2
  1

  9
$DIMSTYLE
  2
ISO-25
  9
$DIMCLRD
 70
     0
  9
$DIMCLRE
 70
     0
  9
$DIMCLRT
 70
     0
  9
$DIMTFAC
 40
1.0
  9
$DIMGAP
 40
0.625
  9
$LUNITS
 70
     2
  9
$LUPREC
 70
     3
  9
$SKETCHINC
 40
1.0
  9
$FILLETRAD
 40
10.0
  9
$AUNITS
 70
     0
  9
$AUPREC
 70
     0
  9
$MENU
  1
.
  9
$ELEVATION
 40
0.0
  9
$PELEVATION
 40
0.0
  9
$THICKNESS
 40
0.0
  9
$LIMCHECK
 70
     0
  9
$CHAMFERA
 40
10.0
  9
$CHAMFERB
 40
10.0
  9
$SKPOLY
 70
     0
  9
$TDCREATE
 40
2455022.720692848
  9
$TDUPDATE
 40
2460528.538147442
  9
$TDINDWG
 40
0.073236794
  9
$TDUSRTIMER
 40
0.1477933449
  9
$USRTIMER
 70
     1
  9
$ANGBASE
 50
0.0
  9
$ANGDIR
 70
     0
  9
$PDMODE
 70
     0
  9
$PDSIZE
 40
0.0
  9
$PLINEWID
 40
0.0
  9
$COORDS
 70
     1
  9
$SPLFRAME
 70
     0
  9
$SPLINETYPE
 70
     6
  9
$SPLINESEGS
 70
     8
  9
$ATTDIA
 70
     0
  9
$ATTREQ
 70
     1
  9
$HANDLING
 70
     1
  9
$HANDSEED
  5
16D0B7
  9
$SURFTAB1
 70
     6
  9
$SURFTAB2
 70
     6
  9
$SURFTYPE
 70
     6
  9
$SURFU
 70
     6
  9
$SURFV
 70
     6
  9
$UCSNAME
  2

  9
$UCSORG
 10
0.0
 20
0.0
 30
0.0
  9
$UCSXDIR
 10
1.0
 20
0.0
 30
0.0
  9
$UCSYDIR
 10
0.0
 20
1.0
 30
0.0
  9
$PUCSNAME
  2

  9
$PUCSORG
 10
0.0
 20
0.0
 30
0.0
  9
$PUCSXDIR
 10
1.0
 20
0.0
 30
0.0
  9
$PUCSYDIR
 10
0.0
 20
1.0
 30
0.0
  9
$USERI1
 70
     0
  9
$USERI2
 70
     0
  9
$USERI3
 70
     0
  9
$USERI4
 70
     0
  9
$USERI5
 70
     0
  9
$USERR1
 40
0.0
  9
$USERR2
 40
0.0
  9
$USERR3
 40
0.0
  9
$USERR4
 40
0.0
  9
$USERR5
 40
0.0
  9
$WORLDVIEW
 70
     1
  9
$SHADEDGE
 70
     3
  9
$SHADEDIF
 70
    70
  9
$TILEMODE
 70
     1
  9
$MAXACTVP
 70
    64
  9
$PLIMCHECK
 70
     0
  9
$PEXTMIN
 10
1.000000000000000E+20
 20
1.000000000000000E+20
 30
1.000000000000000E+20
  9
$PEXTMAX
 10
-1.000000000000000E+20
 20
-1.000000000000000E+20
 30
-1.000000000000000E+20
  9
$PLIMMIN
 10
0.0
 20
0.0
  9
$PLIMMAX
 10
0.0
 20
0.0
  9
$UNITMODE
 70
     0
  9
$VISRETAIN
 70
     1
  9
$PLINEGEN
 70
     0
  9
$PSLTSCALE
 70
     1
  0
ENDSEC
  0
SECTION
  2
TABLES
  0
TABLE
  2
VPORT
 70
     1
  0
VPORT
  2
*ACTIVE
 70
     0
 10
0.0
 20
0.0
 11
1.0
 21
1.0
 12
-76.71423551658478
 22
-33.14345866977214
 13
0.0
 23
0.0
 14
10.0
 24
10.0
 15
10.0
 25
10.0
 16
0.5773502691896226
 26
0.5773502691896226
 36
0.5773502691896226
 17
5.266928548893274
 27
83.50724084353129
 37
71.60436572219484
 40
96.81608208350512
 41
1.89041095890411
 42
50.0
 43
0.0
 44
0.0
 50
0.0
 51
0.0
 71
    16
 72
  1000
 73
     1
 74
     3
 75
     0
 76
     0
 77
     0
 78
     0
  0
ENDTAB
  0
TABLE
  2
LTYPE
 70
     1
  0
LTYPE
  2
CONTINUOUS
 70
     0
  3
Solid line
 72
    65
 73
     0
 40
0.0
  0
ENDTAB
  0
TABLE
  2
LAYER
 70
     1
  0
LAYER
  2
0
 70
     0
 62
     7
  6
CONTINUOUS
  0
ENDTAB
  0
TABLE
  2
STYLE
 70
     2
  0
STYLE
  2
STANDARD
 70
     0
 40
0.0
 41
1.0
 50
0.0
 71
     0
 42
2.5
  3
arial.ttf
  4

  0
STYLE
  2
ANNOTATIVE
 70
     0
 40
0.0
 41
1.0
 50
0.0
 71
     0
 42
2.5
  3
arial.ttf
  4

  0
ENDTAB
  0
TABLE
  2
VIEW
 70
     0
  0
ENDTAB
  0
TABLE
  2
UCS
 70
     0
  0
ENDTAB
  0
TABLE
  2
APPID
 70
     2
  0
APPID
  2
ACAD
 70
     0
  0
APPID
  2
ACADANNOTATIVE
 70
     0
  0
ENDTAB
  0
TABLE
  2
DIMSTYLE
 70
     2
  0
DIMSTYLE
  2
ISO-25
 70
     0
  3

  4

  5

  6

  7

 40
1.0
 41
2.5
 42
0.625
 43
3.75
 44
1.25
 45
0.0
 46
0.0
 47
0.0
 48
0.0
140
2.5
141
-2.5
142
0.0
143
0.03937007874016
144
1.0
145
0.0
146
1.0
147
0.625
 71
     0
 72
     0
 73
     0
 74
     0
 75
     0
 76
     0
 77
     1
 78
     8
170
     0
171
     3
172
     1
173
     0
174
     0
175
     0
176
     0
177
     0
178
     0
  0
DIMSTYLE
  2
ANNOTATIVE
 70
     0
  3

  4

  5

  6

  7

 40
0.0
 41
2.5
 42
0.625
 43
3.75
 44
1.25
 45
0.0
 46
0.0
 47
0.0
 48
0.0
140
2.5
141
-2.5
142
0.0
143
0.03937007874016
144
1.0
145
0.0
146
1.0
147
0.625
 71
     0
 72
     0
 73
     0
 74
     0
 75
     0
 76
     0
 77
     1
 78
     8
170
     0
171
     3
172
     1
173
     0
174
     0
175
     0
176
     0
177
     0
178
     0
  0
ENDTAB
  0
ENDSEC
  0
SECTION
  2
BLOCKS
  0
BLOCK
  8
0
  2
$MODEL_SPACE
 70
     0
 10
0.0
 20
0.0
 30
0.0
  3
$MODEL_SPACE
  1

  0
ENDBLK
  5
21
  8
0
  0
BLOCK
 67
     1
  8
0
  2
$PAPER_SPACE
 70
     0
 10
0.0
 20
0.0
 30
0.0
  3
$PAPER_SPACE
  1

  0
ENDBLK
  5
1D
 67
     1
  8
0
  0
BLOCK
  8
0
  2
*X1
 70
     1
 10
0.0
 20
0.0
 30
0.0
  3
*X1
  1

  0
POLYLINE
  5
16C893
  8
0
 66
     1
 10
0.0
 20
0.0
 30
0.0
 70
    64
 71
     5
 72
     3
  0
VERTEX
  5
16C894
  8
0
 10
16.29339137361147
 20
-14.73967064222078
 30
-6.224315975177902
 70
   192
  0
VERTEX
  5
16C895
  8
0
 10
22.5225880526349
 20
-13.36923371850849
 30
-8.789970977193024
 70
   192
  0
VERTEX
  5
16C896
  8
0
 10
28.73325912664344
 20
-14.75091249177008
 30
-6.197627018475821
 70
   192
  0
VERTEX
  5
16C897
  8
0
 10
31.29
 20
-16.0
 30
0.0000000000000278
 70
   192
  0
VERTEX
  5
16C898
  8
0
 10
13.71
 20
-16.0
 30
0.0
 70
   192
  0
VERTEX
  5
16C899
  8
0
 10
0.0
 20
0.0
 30
0.0
 70
   128
 71
     1
 72
     2
 73
     3
  0
VERTEX
  5
16C89A
  8
0
 10
0.0
 20
0.0
 30
0.0
 70
   128
 71
     1
 72
     3
 73
     4
  0
VERTEX
  5
16C89B
  8
0
 10
0.0
 20
0.0
 30
0.0
 70
   128
 71
     1
 72
     4
 73
     5
  0
SEQEND
  5
16D072
  8
0
  0
POLYLINE
  5
16C89C
  8
0
 66
     1
 10
0.0
 20
0.0
 30
0.0
 70
    64
 71
    10
 72
     8
  0
VERTEX
  5
16C89D
  8
0
 10
22.5
 20
-18.25
 30
-9.250000000000004
 70
   192
  0
VERTEX
  5
16C89E
  8
0
 10
22.5
 20
-18.25
 30
9.250000000000005
 70
   192
  0
VERTEX
  5
16C89F
  8
0
 10
22.5
 20
-29.5
 30
9.250000000000004
 70
   192
  0
VERTEX
  5
16C8A0
  8
0
 10
22.5
 20
-29.5
 30
-9.250000000000004
 70
   192
  0
VERTEX
  5
16C8A1
  8
0
 10
31.75000000000001
 20
-29.5
 30
0.0
 70
   192
  0
VERTEX
  5
16C8A2
  8
0
 10
31.75000000000001
 20
-18.25
 30
0.0
 70
   192
  0
VERTEX
  5
16C8A3
  8
0
 10
29.04073772597557
 20
-29.5
 30
-6.540737725975568
 70
   192
  0
VERTEX
  5
16C8A4
  8
0
 10
29.04073772597557
 20
-18.25
 30
-6.540737725975568
 70
   192
  0
VERTEX
  5
16C8A5
  8
0
 10
29.04073772597557
 20
-29.5
 30
6.540737725975569
 70
   192
  0
VERTEX
  5
16C8A6
  8
0
 10
29.04073772597557
 20
-18.25
 30
6.540737725975569
 70
   192
  0
VERTEX
  5
16C8A7
  8
0
 10
0.0
 20
0.0
 30
0.0
 70
   128
 71
     7
 72
     4
 73
    -1
  0
VERTEX
  5
16C8A8
  8
0
 10
0.0
 20
0.0
 30
0.0
 70
   128
 71
    -7
 72
     1
 73
     8
  0
VERTEX
  5
16C8A9
  8
0
 10
0.0
 20
0.0
 30
0.0
 70
   128
 71
     6
 72
     5
 73
    -7
  0
VERTEX
  5
16C8AA
  8
0
 10
0.0
 20
0.0
 30
0.0
 70
   128
 71
    -6
 72
     7
 73
     8
  0
VERTEX
  5
16C8AB
  8
0
 10
0.0
 20
0.0
 30
0.0
 70
   128
 71
    10
 72
     9
 73
    -5
  0
VERTEX
  5
16C8AC
  8
0
 10
0.0
 20
0.0
 30
0.0
 70
   128
 71
   -10
 72
     5
 73
     6
  0
VERTEX
  5
16C8AD
  8
0
 10
0.0
 20
0.0
 30
0.0
 70
   128
 71
     2
 72
     3
 73
    -9
  0
VERTEX
  5
16C8AE
  8
0
 10
0.0
 20
0.0
 30
0.0
 70
   128
 71
    -2
 72
     9
 73
    10
  0
SEQEND
  5
16D073
  8
0
  0
POLYLINE
  5
16C8AF
  8
0
 66
     1
 10
0.0
 20
0.0
 30
0.0
 70
    64
 71
     8
 72
     6
  0
VERTEX
  5
16C8B0
  8
0
 10
2.2
 20
-9.093266739736606
 30
-5.249999999999999
 70
   192
  0
VERTEX
  5
16C8B1
  8
0
 10
2.2
 20
-5.250000000000001
 30
-9.093266739736606
 70
   192
  0
VERTEX
  5
16C8B2
  8
0
 10
2.0
 20
-5.350000000000001
 30
-9.266471820493493
 70
   192
  0
VERTEX
  5
16C8B3
  8
0
 10
2.0
 20
-9.266471820493493
 30
-5.349999999999999
 70
   192
  0
VERTEX
  5
16C8B4
  8
0
 10
2.2
 20
-0.0000000000000006
 30
-10.5
 70
   192
  0
VERTEX
  5
16C8B5
  8
0
 10
1.999999999999999
 20
0.0
 30
-10.69999999999797
 70
   192
  0
VERTEX
  5
16C8B6
  8
0
 10
2.199999999999014
 20
-10.49999999999901
 30
-0.0000000065413827
 70
   192
  0
VERTEX
  5
16C8B7
  8
0
 10
2.0
 20
-10.7
 30
0.0
 70
   192
  0
VERTEX
  5
16C8B8
  8
0
 10
0.0
 20
0.0
 30
0.0
 70
   128
 71
     1
 72
     2
 73
    -3
  0
VERTEX
  5
16C8B9
  8
0
 10
0.0
 20
0.0
 30
0.0
 70
   128
 71
     4
 72
    -1
 73
     3
  0
VERTEX
  5
16C8BA
  8
0
 10
0.0
 20
0.0
 30
0.0
 70
   128
 71
     2
 72
     5
 73
    -6
  0
VERTEX
  5
16C8BB
  8
0
 10
0.0
 20
0.0
 30
0.0
 70
   128
 71
     3
 72
    -2
 73
     6
  0
VERTEX
  5
16C8BC
  8
0
 10
0.0
 20
0.0
 30
0.0
 70
   128
 71
     7
 72
     1
 73
    -4
  0
VERTEX
  5
16C8BD
  8
0
 10
0.0
 20
0.0
 30
0.0
 70
   128
 71
     8
 72
    -7
 73
     4
  0
SEQEND
  5
16D074
  8
0
  0
POLYLINE
  5
16C8BE
  8
0
 66
     1
 10
0.0
 20
0.0
 30
0.0
 70
    64
 71
    12
 72
    10
  0
VERTEX
  5
16C8BF
  8
0
 10
15.07537879756883
 20
-18.25
 30
-7.42462120248633
 70
   192
  0
VERTEX
  5
16C8C0
  8
0
 10
12.0
 20
-18.25
 30
-0.0000000000728817
 70
   192
  0
VERTEX
  5
16C8C1
  8
0
 10
12.00000274554
 20
-17.00000000002
 30
-0.0000000001805073
 70
   192
  0
VERTEX
  5
16C8C2
  8
0
 10
14.29101855061723
 20
-15.41376140328935
 30
-6.546955289574656
 70
   192
  0
VERTEX
  5
16C8C3
  8
0
 10
22.52325294270145
 20
-12.52001235110165
 30
-10.49997425238061
 70
   192
  0
VERTEX
  5
16C8C4
  8
0
 10
29.92462120243842
 20
-18.25
 30
-7.424621202479076
 70
   192
  0
VERTEX
  5
16C8C5
  8
0
 10
22.50000000000513
 20
-18.25
 30
-10.5
 70
   192
  0
VERTEX
  5
16C8C6
  8
0
 10
30.73912059432624
 20
-15.43303630682562
 30
-6.508985468730828
 70
   192
  0
VERTEX
  5
16C8C7
  8
0
 10
32.99999714096
 20
-17.00000000002
 30
-0.0000000004667264
 70
   192
  0
VERTEX
  5
16C8C8
  8
0
 10
32.99999961635749
 20
-18.25
 30
-0.0000000000626259
 70
   192
  0
VERTEX
  5
16C8C9
  8
0
 10
17.49198526360449
 20
-13.66871593382068
 30
-9.22874793241453
 70
   192
  0
VERTEX
  5
16C8CA
  8
0
 10
27.5474334274669
 20
-13.68612538497572
 30
-9.207248003355284
 70
   192
  0
VERTEX
  5
16C8CB
  8
0
 10
0.0
 20
0.0
 30
0.0
 70
   128
 71
     1
 72
     2
 73
     3
  0
VERTEX
  5
16C8CC
  8
0
 10
0.0
 20
0.0
 30
0.0
 70
   128
 71
     1
 72
     3
 73
     4
  0
VERTEX
  5
16C8CD
  8
0
 10
0.0
 20
0.0
 30
0.0
 70
   128
 71
     5
 72
     6
 73
     7
  0
VERTEX
  5
16C8CE
  8
0
 10
0.0
 20
0.0
 30
0.0
 70
   128
 71
     8
 72
     9
 73
    10
  0
VERTEX
  5
16C8CF
  8
0
 10
0.0
 20
0.0
 30
0.0
 70
   128
 71
     8
 72
    10
 73
     6
  0
VERTEX
  5
16C8D0
  8
0
 10
0.0
 20
0.0
 30
0.0
 70
   128
 71
     4
 72
     7
 73
     1
  0
VERTEX
  5
16C8D1
  8
0
 10
0.0
 20
0.0
 30
0.0
 70
   128
 71
     4
 72
    11
 73
     5
  0
VERTEX
  5
16C8D2
  8
0
 10
0.0
 20
0.0
 30
0.0
 70
   128
 71
     4
 72
     5
 73
     7
  0
VERTEX
  5
16C8D3
  8
0
 10
0.0
 20
0.0
 30
0.0
 70
   128
 71
     5
 72
    12
 73
     8
  0
VERTEX
  5
16C8D4
  8
0
 10
0.0
 20
0.0
 30
0.0
 70
   128
 71
     5
 72
     8
 73
     6
  0
SEQEND
  5
16D075
  8
0
  0
POLYLINE
  5
16C8D5
  8
0
 66
     1
 10
0.0
 20
0.0
 30
0.0
 70
    64
 71
    13
 72
    11
  0
VERTEX
  5
16C8D6
  8
0
 10
30.99467844095783
 20
-18.25
 30
6.171745149042232
 70
   192
  0
VERTEX
  5
16C8D7
  8
0
 10
33.0
 20
-18.25
 30
-0.0000000000626203
 70
   192
  0
VERTEX
  5
16C8D8
  8
0
 10
32.99999714096
 20
-17.00000000002
 30
-0.0000000004667264
 70
   192
  0
VERTEX
  5
16C8D9
  8
0
 10
31.80942790401207
 20
-16.1465431401617
 30
4.856392910381283
 70
   192
  0
VERTEX
  5
16C8DA
  8
0
 10
13.19552703008062
 20
-16.14312819184986
 30
4.865879442818086
 70
   192
  0
VERTEX
  5
16C8DB
  8
0
 10
12.00000274554
 20
-17.00000000002
 30
-0.0000000001805073
 70
   192
  0
VERTEX
  5
16C8DC
  8
0
 10
12.00000110829639
 20
-18.25000000000145
 30
-0.0000000000728852
 70
   192
  0
VERTEX
  5
16C8DD
  8
0
 10
14.00532155903614
 20
-18.25
 30
6.171745149033928
 70
   192
  0
VERTEX
  5
16C8DE
  8
0
 10
29.70311751637538
 20
-14.79825471910054
 30
7.639705363774591
 70
   192
  0
VERTEX
  5
16C8DF
  8
0
 10
25.74467844094495
 20
-18.25
 30
9.98609342109651
 70
   192
  0
VERTEX
  5
16C8E0
  8
0
 10
22.59749594919452
 20
-12.52043937352485
 30
10.49954734928562
 70
   192
  0
VERTEX
  5
16C8E1
  8
0
 10
15.33933827065503
 20
-14.77351782198826
 30
7.679513239645752
 70
   192
  0
VERTEX
  5
16C8E2
  8
0
 10
19.25532155904529
 20
-18.25
 30
9.98609342109334
 70
   192
  0
VERTEX
  5
16C8E3
  8
0
 10
0.0
 20
0.0
 30
0.0
 70
   128
 71
     1
 72
     2
 73
     3
  0
VERTEX
  5
16C8E4
  8
0
 10
0.0
 20
0.0
 30
0.0
 70
   128
 71
     1
 72
     3
 73
     4
  0
VERTEX
  5
16C8E5
  8
0
 10
0.0
 20
0.0
 30
0.0
 70
   128
 71
     5
 72
     6
 73
     7
  0
VERTEX
  5
16C8E6
  8
0
 10
0.0
 20
0.0
 30
0.0
 70
   128
 71
     5
 72
     7
 73
     8
  0
VERTEX
  5
16C8E7
  8
0
 10
0.0
 20
0.0
 30
0.0
 70
   128
 71
     1
 72
     4
 73
     9
  0
VERTEX
  5
16C8E8
  8
0
 10
0.0
 20
0.0
 30
0.0
 70
   128
 71
     1
 72
     9
 73
    10
  0
VERTEX
  5
16C8E9
  8
0
 10
0.0
 20
0.0
 30
0.0
 70
   128
 71
    10
 72
     9
 73
    11
  0
VERTEX
  5
16C8EA
  8
0
 10
0.0
 20
0.0
 30
0.0
 70
   128
 71
    10
 72
    11
 73
    12
  0
VERTEX
  5
16C8EB
  8
0
 10
0.0
 20
0.0
 30
0.0
 70
   128
 71
    10
 72
    12
 73
    13
  0
VERTEX
  5
16C8EC
  8
0
 10
0.0
 20
0.0
 30
0.0
 70
   128
 71
    13
 72
    12
 73
     5
  0
VERTEX
  5
16C8ED
  8
0
 10
0.0
 20
0.0
 30
0.0
 70
   128
 71
    13
 72
     5
 73
     8
  0
SEQEND
  5
16D076
  8
0
  0
POLYLINE
  5
16C8EE
  8
0
 66
     1
 10
0.0
 20
0.0
 30
0.0
 70
    64
 71
    18
 72
    18
  0
VERTEX
  5
16C8EF
  8
0
 10
0.0
 20
16.0
 30
0.0
 70
   192
  0
VERTEX
  5
16C8F0
  8
0
 10
0.0
 20
12.94427190999916
 30
-9.40456403667957
 70
   192
  0
VERTEX
  5
16C8F1
  8
0
 10
0.0
 20
4.944271909999159
 30
-15.21690426072246
 70
   192
  0
VERTEX
  5
16C8F2
  8
0
 10
0.0
 20
-4.944271909999158
 30
-15.21690426072246
 70
   192
  0
VERTEX
  5
16C8F3
  8
0
 10
0.0
 20
-12.94427190999916
 30
-9.40456403667957
 70
   192
  0
VERTEX
  5
16C8F4
  8
0
 10
0.0
 20
-16.0
 30
0.0
 70
   192
  0
VERTEX
  5
16C8F5
  8
0
 10
0.0
 20
-12.94427190999916
 30
9.40456403667957
 70
   192
  0
VERTEX
  5
16C8F6
  8
0
 10
0.0
 20
-4.944271909999159
 30
15.21690426072246
 70
   192
  0
VERTEX
  5
16C8F7
  8
0
 10
0.0
 20
4.944271909999158
 30
15.21690426072246
 70
   192
  0
VERTEX
  5
16C8F8
  8
0
 10
0.0
 20
12.94427190999916
 30
9.40456403667957
 70
   192
  0
VERTEX
  5
16C8F9
  8
0
 10
0.0
 20
-10.75
 30
0.0
 70
   192
  0
VERTEX
  5
16C8FA
  8
0
 10
0.0
 20
-7.601397897755386
 30
-7.601397897755386
 70
   192
  0
VERTEX
  5
16C8FB
  8
0
 10
0.0
 20
0.0
 30
-10.75
 70
   192
  0
VERTEX
  5
16C8FC
  8
0
 10
0.0
 20
7.601397897755388
 30
-7.601397897755388
 70
   192
  0
VERTEX
  5
16C8FD
  8
0
 10
0.0
 20
10.75
 30
0.0
 70
   192
  0
VERTEX
  5
16C8FE
  8
0
 10
0.0
 20
7.601397897755386
 30
7.601397897755386
 70
   192
  0
VERTEX
  5
16C8FF
  8
0
 10
0.0
 20
0.0
 30
10.75
 70
   192
  0
VERTEX
  5
16C900
  8
0
 10
0.0
 20
-7.601397897755388
 30
7.601397897755388
 70
   192
  0
VERTEX
  5
16C901
  8
0
 10
0.0
 20
0.0
 30
0.0
 70
   128
 71
    -6
 72
    11
 73
   -12
  0
VERTEX
  5
16C902
  8
0
 10
0.0
 20
0.0
 30
0.0
 70
   128
 71
     5
 72
    -6
 73
   -12
  0
VERTEX
  5
16C903
  8
0
 10
0.0
 20
0.0
 30
0.0
 70
   128
 71
   -13
 72
     4
 73
    -5
  0
VERTEX
  5
16C904
  8
0
 10
0.0
 20
0.0
 30
0.0
 70
   128
 71
    12
 72
   -13
 73
    -5
  0
VERTEX
  5
16C905
  8
0
 10
0.0
 20
0.0
 30
0.0
 70
   128
 71
     2
 72
     3
 73
    -4
  0
VERTEX
  5
16C906
  8
0
 10
0.0
 20
0.0
 30
0.0
 70
   128
 71
   -14
 72
    -2
 73
    -4
  0
VERTEX
  5
16C907
  8
0
 10
0.0
 20
0.0
 30
0.0
 70
   128
 71
    13
 72
   -14
 73
    -4
  0
VERTEX
  5
16C908
  8
0
 10
0.0
 20
0.0
 30
0.0
 70
   128
 71
   -15
 72
     1
 73
    -2
  0
VERTEX
  5
16C909
  8
0
 10
0.0
 20
0.0
 30
0.0
 70
   128
 71
    14
 72
   -15
 73
    -2
  0
VERTEX
  5
16C90A
  8
0
 10
0.0
 20
0.0
 30
0.0
 70
   128
 71
   -16
 72
    10
 73
    -1
  0
VERTEX
  5
16C90B
  8
0
 10
0.0
 20
0.0
 30
0.0
 70
   128
 71
    15
 72
   -16
 73
    -1
  0
VERTEX
  5
16C90C
  8
0
 10
0.0
 20
0.0
 30
0.0
 70
   128
 71
   -17
 72
     9
 73
   -10
  0
VERTEX
  5
16C90D
  8
0
 10
0.0
 20
0.0
 30
0.0
 70
   128
 71
    16
 72
   -17
 73
   -10
  0
VERTEX
  5
16C90E
  8
0
 10
0.0
 20
0.0
 30
0.0
 70
   128
 71
     7
 72
     8
 73
    -9
  0
VERTEX
  5
16C90F
  8
0
 10
0.0
 20
0.0
 30
0.0
 70
   128
 71
   -18
 72
    -7
 73
    -9
  0
VERTEX
  5
16C910
  8
0
 10
0.0
 20
0.0
 30
0.0
 70
   128
 71
    17
 72
   -18
 73
    -9
  0
VERTEX
  5
16C911
  8
0
 10
0.0
 20
0.0
 30
0.0
 70
   128
 71
   -11
 72
     6
 73
    -7
  0
VERTEX
  5
16C912
  8
0
 10
0.0
 20
0.0
 30
0.0
 70
   128
 71
    18
 72
   -11
 73
    -7
  0
SEQEND
  5
16D077
  8
0
  0
POLYLINE
  5
16C913
  8
0
 66
     1
 10
0.0
 20
0.0
 30
0.0
 70
    64
 71
    34
 72
    32
  0
VERTEX
  5
16C914
  8
0
 10
12.30911044112031
 20
-15.19357912017826
 30
5.015481431142952
 70
   192
  0
VERTEX
  5
16C915
  8
0
 10
14.65721862427286
 20
-13.90456316665143
 30
7.91600409119917
 70
   192
  0
VERTEX
  5
16C916
  8
0
 10
0.0
 20
-12.94427190999916
 30
9.40456403667957
 70
   192
  0
VERTEX
  5
16C917
  8
0
 10
0.0
 20
-16.0
 30
0.0
 70
   192
  0
VERTEX
  5
16C918
  8
0
 10
10.99999999998
 20
-15.99999822307087
 30
-0.0000000000721801
 70
   192
  0
VERTEX
  5
16C919
  8
0
 10
22.60677402971754
 20
-11.78394287860262
 30
10.82306288124008
 70
   192
  0
VERTEX
  5
16C91A
  8
0
 10
30.38927175857025
 20
-13.92784085506183
 30
7.874975984589274
 70
   192
  0
VERTEX
  5
16C91B
  8
0
 10
44.74142060400685
 20
-14.37424853776819
 30
7.027160093129297
 70
   192
  0
VERTEX
  5
16C91C
  8
0
 10
48.85880109413665
 20
-11.92863429213406
 30
10.66338051110075
 70
   192
  0
VERTEX
  5
16C91D
  8
0
 10
32.69629674665962
 20
-15.19680171548748
 30
5.0057086226732
 70
   192
  0
VERTEX
  5
16C91E
  8
0
 10
34.00000000002
 20
-15.99999815968
 30
-0.0000000001832523
 70
   192
  0
VERTEX
  5
16C91F
  8
0
 10
42.5
 20
-15.99999999999928
 30
0.0000000000000036
 70
   192
  0
VERTEX
  5
16C920
  8
0
 10
0.0
 20
4.944271909999158
 30
15.21690426072246
 70
   192
  0
VERTEX
  5
16C921
  8
0
 10
65.0
 20
1.729173293058644
 30
15.90628679870235
 70
   192
  0
VERTEX
  5
16C922
  8
0
 10
52.84378327127458
 20
9.052804742403216
 30
13.1926770710793
 70
   192
  0
VERTEX
  5
16C923
  8
0
 10
50.02272103169155
 20
9.999997174570003
 30
12.48999825895072
 70
   192
  0
VERTEX
  5
16C924
  8
0
 10
40.00000000000004
 20
9.999997174570003
 30
12.48999825895072
 70
   192
  0
VERTEX
  5
16C925
  8
0
 10
50.02272103169155
 20
9.999997174879056
 30
12.48999511814795
 70
   192
  0
VERTEX
  5
16C926
  8
0
 10
56.26292268741107
 20
9.073867095406232
 30
13.17819940307675
 70
   192
  0
VERTEX
  5
16C927
  8
0
 10
65.0
 20
9.999997174569994
 30
12.48999825895072
 70
   192
  0
VERTEX
  5
16C928
  8
0
 10
58.97699589244054
 20
9.999997174570003
 30
12.48999825895072
 70
   192
  0
VERTEX
  5
16C929
  8
0
 10
35.0
 20
15.88784275369293
 30
1.89115113989525
 70
   192
  0
VERTEX
  5
16C92A
  8
0
 10
35.0
 20
16.0
 30
-0.0000000000000029
 70
   192
  0
VERTEX
  5
16C92B
  8
0
 10
0.0
 20
16.0
 30
0.0
 70
   192
  0
VERTEX
  5
16C92C
  8
0
 10
35.0
 20
15.55294342075911
 30
3.755788991765376
 70
   192
  0
VERTEX
  5
16C92D
  8
0
 10
0.0
 20
12.94427190999916
 30
9.40456403667957
 70
   192
  0
VERTEX
  5
16C92E
  8
0
 10
35.0
 20
14.99999717457004
 30
5.567771974757134
 70
   192
  0
VERTEX
  5
16C92F
  8
0
 10
35.28244095550304
 20
13.34311667472647
 30
8.829566575678392
 70
   192
  0
VERTEX
  5
16C930
  8
0
 10
0.0
 20
-4.944271909999159
 30
15.21690426072246
 70
   192
  0
VERTEX
  5
16C931
  8
0
 10
65.0
 20
-7.082541094676314
 30
14.34704191261116
 70
   192
  0
VERTEX
  5
16C932
  8
0
 10
36.75534615568258
 20
11.19558044642911
 30
11.43060703989192
 70
   192
  0
VERTEX
  5
16C933
  8
0
 10
63.21675166002999
 20
-13.67881573821
 30
8.3
 70
   192
  0
VERTEX
  5
16C934
  8
0
 10
65.0
 20
-13.67881573821
 30
8.3
 70
   192
  0
VERTEX
  5
16C935
  8
0
 10
56.56218624710028
 20
-10.68908286700441
 30
11.90560823571449
 70
   192
  0
VERTEX
  5
16C936
  8
0
 10
0.0
 20
0.0
 30
0.0
 70
   128
 71
     1
 72
     2
 73
     3
  0
VERTEX
  5
16C937
  8
0
 10
0.0
 20
0.0
 30
0.0
 70
   128
 71
     3
 72
     4
 73
     5
  0
VERTEX
  5
16C938
  8
0
 10
0.0
 20
0.0
 30
0.0
 70
   128
 71
     3
 72
     5
 73
     1
  0
VERTEX
  5
16C939
  8
0
 10
0.0
 20
0.0
 30
0.0
 70
   128
 71
     6
 72
     7
 73
     8
  0
VERTEX
  5
16C93A
  8
0
 10
0.0
 20
0.0
 30
0.0
 70
   128
 71
     6
 72
     8
 73
     9
  0
VERTEX
  5
16C93B
  8
0
 10
0.0
 20
0.0
 30
0.0
 70
   128
 71
    10
 72
    11
 73
    12
  0
VERTEX
  5
16C93C
  8
0
 10
0.0
 20
0.0
 30
0.0
 70
   128
 71
    10
 72
    12
 73
     8
  0
VERTEX
  5
16C93D
  8
0
 10
0.0
 20
0.0
 30
0.0
 70
   128
 71
     8
 72
     7
 73
    10
  0
VERTEX
  5
16C93E
  8
0
 10
0.0
 20
0.0
 30
0.0
 70
   128
 71
    13
 72
    14
 73
    15
  0
VERTEX
  5
16C93F
  8
0
 10
0.0
 20
0.0
 30
0.0
 70
   128
 71
    13
 72
    15
 73
    16
  0
VERTEX
  5
16C940
  8
0
 10
0.0
 20
0.0
 30
0.0
 70
   128
 71
    13
 72
    16
 73
    17
  0
VERTEX
  5
16C941
  8
0
 10
0.0
 20
0.0
 30
0.0
 70
   128
 71
    15
 72
    18
 73
    16
  0
VERTEX
  5
16C942
  8
0
 10
0.0
 20
0.0
 30
0.0
 70
   128
 71
    14
 72
    19
 73
    15
  0
VERTEX
  5
16C943
  8
0
 10
0.0
 20
0.0
 30
0.0
 70
   128
 71
    14
 72
    20
 73
    21
  0
VERTEX
  5
16C944
  8
0
 10
0.0
 20
0.0
 30
0.0
 70
   128
 71
    14
 72
    21
 73
    19
  0
VERTEX
  5
16C945
  8
0
 10
0.0
 20
0.0
 30
0.0
 70
   128
 71
    22
 72
    23
 73
    24
  0
VERTEX
  5
16C946
  8
0
 10
0.0
 20
0.0
 30
0.0
 70
   128
 71
    24
 72
    25
 73
    22
  0
VERTEX
  5
16C947
  8
0
 10
0.0
 20
0.0
 30
0.0
 70
   128
 71
    24
 72
    26
 73
    27
  0
VERTEX
  5
16C948
  8
0
 10
0.0
 20
0.0
 30
0.0
 70
   128
 71
    24
 72
    27
 73
    25
  0
VERTEX
  5
16C949
  8
0
 10
0.0
 20
0.0
 30
0.0
 70
   128
 71
    26
 72
    28
 73
    27
  0
VERTEX
  5
16C94A
  8
0
 10
0.0
 20
0.0
 30
0.0
 70
   128
 71
    29
 72
    30
 73
    14
  0
VERTEX
  5
16C94B
  8
0
 10
0.0
 20
0.0
 30
0.0
 70
   128
 71
    29
 72
    14
 73
    13
  0
VERTEX
  5
16C94C
  8
0
 10
0.0
 20
0.0
 30
0.0
 70
   128
 71
     6
 72
    30
 73
    29
  0
VERTEX
  5
16C94D
  8
0
 10
0.0
 20
0.0
 30
0.0
 70
   128
 71
    29
 72
     3
 73
     6
  0
VERTEX
  5
16C94E
  8
0
 10
0.0
 20
0.0
 30
0.0
 70
   128
 71
     3
 72
     2
 73
     6
  0
VERTEX
  5
16C94F
  8
0
 10
0.0
 20
0.0
 30
0.0
 70
   128
 71
    26
 72
    13
 73
    17
  0
VERTEX
  5
16C950
  8
0
 10
0.0
 20
0.0
 30
0.0
 70
   128
 71
    26
 72
    17
 73
    31
  0
VERTEX
  5
16C951
  8
0
 10
0.0
 20
0.0
 30
0.0
 70
   128
 71
    32
 72
    33
 73
    30
  0
VERTEX
  5
16C952
  8
0
 10
0.0
 20
0.0
 30
0.0
 70
   128
 71
    32
 72
    30
 73
    34
  0
VERTEX
  5
16C953
  8
0
 10
0.0
 20
0.0
 30
0.0
 70
   128
 71
     6
 72
     9
 73
    34
  0
VERTEX
  5
16C954
  8
0
 10
0.0
 20
0.0
 30
0.0
 70
   128
 71
     6
 72
    34
 73
    30
  0
VERTEX
  5
16C955
  8
0
 10
0.0
 20
0.0
 30
0.0
 70
   128
 71
    31
 72
    28
 73
    26
  0
SEQEND
  5
16D078
  8
0
  0
POLYLINE
  5
16C956
  8
0
 66
     1
 10
0.0
 20
0.0
 30
0.0
 70
    64
 71
    19
 72
    17
  0
VERTEX
  5
16C957
  8
0
 10
11.86602724575685
 20
-16.49999892270702
 30
-0.0000000234406303
 70
   192
  0
VERTEX
  5
16C958
  8
0
 10
12.00000160461763
 20
-17.00000000001826
 30
-0.0000000153429436
 70
   192
  0
VERTEX
  5
16C959
  8
0
 10
13.19552703008062
 20
-16.14312819184986
 30
4.865879442818086
 70
   192
  0
VERTEX
  5
16C95A
  8
0
 10
33.49999388982606
 20
-16.1339652076645
 30
0.0000004209316103
 70
   192
  0
VERTEX
  5
16C95B
  8
0
 10
34.00000000007451
 20
-15.99999264498034
 30
0.0000002201035409
 70
   192
  0
VERTEX
  5
16C95C
  8
0
 10
32.69629674665962
 20
-15.19680171548748
 30
5.0057086226732
 70
   192
  0
VERTEX
  5
16C95D
  8
0
 10
31.80942790401207
 20
-16.1465431401617
 30
4.856392910381283
 70
   192
  0
VERTEX
  5
16C95E
  8
0
 10
33.13396438294718
 20
-16.4999941108019
 30
0.0000004456451497
 70
   192
  0
VERTEX
  5
16C95F
  8
0
 10
32.99999714096
 20
-17.00000000002
 30
-0.0000000004667264
 70
   192
  0
VERTEX
  5
16C960
  8
0
 10
29.70311751637538
 20
-14.79825471910054
 30
7.639705363774591
 70
   192
  0
VERTEX
  5
16C961
  8
0
 10
30.38927175857025
 20
-13.92784085506183
 30
7.874975984589274
 70
   192
  0
VERTEX
  5
16C962
  8
0
 10
22.60677402971754
 20
-11.78394287860262
 30
10.82306288124008
 70
   192
  0
VERTEX
  5
16C963
  8
0
 10
22.59749594919452
 20
-12.52043937352485
 30
10.49954734928562
 70
   192
  0
VERTEX
  5
16C964
  8
0
 10
14.65721862427286
 20
-13.90456316665143
 30
7.91600409119917
 70
   192
  0
VERTEX
  5
16C965
  8
0
 10
15.33933827065503
 20
-14.77351782198826
 30
7.679513239645752
 70
   192
  0
VERTEX
  5
16C966
  8
0
 10
11.50000110785028
 20
-16.13397286828774
 30
-0.0000000219996522
 70
   192
  0
VERTEX
  5
16C967
  8
0
 10
12.30911044112031
 20
-15.19357912017826
 30
5.015481431142952
 70
   192
  0
VERTEX
  5
16C968
  8
0
 10
10.99999999998
 20
-15.99999822307
 30
-0.0000000000721821
 70
   192
  0
VERTEX
  5
16C969
  8
0
 10
10.9999999999807
 20
-15.99999862347275
 30
-0.0000000114061199
 70
   192
  0
VERTEX
  5
16C96A
  8
0
 10
0.0
 20
0.0
 30
0.0
 70
   128
 71
     1
 72
     2
 73
     3
  0
VERTEX
  5
16C96B
  8
0
 10
0.0
 20
0.0
 30
0.0
 70
   128
 71
     4
 72
     5
 73
     6
  0
VERTEX
  5
16C96C
  8
0
 10
0.0
 20
0.0
 30
0.0
 70
   128
 71
     6
 72
     7
 73
     8
  0
VERTEX
  5
16C96D
  8
0
 10
0.0
 20
0.0
 30
0.0
 70
   128
 71
     6
 72
     8
 73
     4
  0
VERTEX
  5
16C96E
  8
0
 10
0.0
 20
0.0
 30
0.0
 70
   128
 71
     7
 72
     9
 73
     8
  0
VERTEX
  5
16C96F
  8
0
 10
0.0
 20
0.0
 30
0.0
 70
   128
 71
    10
 72
    11
 73
    12
  0
VERTEX
  5
16C970
  8
0
 10
0.0
 20
0.0
 30
0.0
 70
   128
 71
    12
 72
    13
 73
    10
  0
VERTEX
  5
16C971
  8
0
 10
0.0
 20
0.0
 30
0.0
 70
   128
 71
    12
 72
    14
 73
    15
  0
VERTEX
  5
16C972
  8
0
 10
0.0
 20
0.0
 30
0.0
 70
   128
 71
    13
 72
    12
 73
    15
  0
VERTEX
  5
16C973
  8
0
 10
0.0
 20
0.0
 30
0.0
 70
   128
 71
    15
 72
    16
 73
     1
  0
VERTEX
  5
16C974
  8
0
 10
0.0
 20
0.0
 30
0.0
 70
   128
 71
    15
 72
     1
 73
     3
  0
VERTEX
  5
16C975
  8
0
 10
0.0
 20
0.0
 30
0.0
 70
   128
 71
    15
 72
    14
 73
    17
  0
VERTEX
  5
16C976
  8
0
 10
0.0
 20
0.0
 30
0.0
 70
   128
 71
    15
 72
    17
 73
    18
  0
VERTEX
  5
16C977
  8
0
 10
0.0
 20
0.0
 30
0.0
 70
   128
 71
    15
 72
    18
 73
    19
  0
VERTEX
  5
16C978
  8
0
 10
0.0
 20
0.0
 30
0.0
 70
   128
 71
    15
 72
    19
 73
    16
  0
VERTEX
  5
16C979
  8
0
 10
0.0
 20
0.0
 30
0.0
 70
   128
 71
     7
 72
     6
 73
    11
  0
VERTEX
  5
16C97A
  8
0
 10
0.0
 20
0.0
 30
0.0
 70
   128
 71
     7
 72
    11
 73
    10
  0
SEQEND
  5
16D079
  8
0
  0
POLYLINE
  5
16C97B
  8
0
 66
     1
 10
0.0
 20
0.0
 30
0.0
 70
    64
 71
    20
 72
    18
  0
VERTEX
  5
16C97C
  8
0
 10
22.52565969541397
 20
-11.78354214304726
 30
-10.82350056881312
 70
   192
  0
VERTEX
  5
16C97D
  8
0
 10
27.5474334274669
 20
-13.68612538497572
 30
-9.207248003355284
 70
   192
  0
VERTEX
  5
16C97E
  8
0
 10
22.52325294270145
 20
-12.52001235110165
 30
-10.49997425238061
 70
   192
  0
VERTEX
  5
16C97F
  8
0
 10
33.13396438294718
 20
-16.4999941108019
 30
0.0000004456451497
 70
   192
  0
VERTEX
  5
16C980
  8
0
 10
32.99999714096
 20
-17.00000000002
 30
-0.0000000004667264
 70
   192
  0
VERTEX
  5
16C981
  8
0
 10
30.73912059432624
 20
-15.43303630682562
 30
-6.508985468730828
 70
   192
  0
VERTEX
  5
16C982
  8
0
 10
32.99999099553546
 20
-17.0000000000706
 30
0.0000002876220373
 70
   192
  0
VERTEX
  5
16C983
  8
0
 10
11.50000110785028
 20
-16.13397286828774
 30
-0.0000000219996522
 70
   192
  0
VERTEX
  5
16C984
  8
0
 10
10.9999999999807
 20
-15.99999862347275
 30
-0.0000000114061199
 70
   192
  0
VERTEX
  5
16C985
  8
0
 10
13.50912328590884
 20
-14.50710754364172
 30
-6.748613667745012
 70
   192
  0
VERTEX
  5
16C986
  8
0
 10
14.29101855061723
 20
-15.41376140328935
 30
-6.546955289574656
 70
   192
  0
VERTEX
  5
16C987
  8
0
 10
11.86602724575685
 20
-16.49999892270702
 30
-0.0000000234406303
 70
   192
  0
VERTEX
  5
16C988
  8
0
 10
12.00000274554
 20
-17.00000000002
 30
-0.0000000001805073
 70
   192
  0
VERTEX
  5
16C989
  8
0
 10
17.49198526360449
 20
-13.66871593382068
 30
-9.22874793241453
 70
   192
  0
VERTEX
  5
16C98A
  8
0
 10
17.01490263161058
 20
-12.86463646166017
 30
-9.513206831752719
 70
   192
  0
VERTEX
  5
16C98B
  8
0
 10
33.49999388982606
 20
-16.1339652076645
 30
0.0000004209316103
 70
   192
  0
VERTEX
  5
16C98C
  8
0
 10
28.02831148947671
 20
-12.88106258363049
 30
-9.490954246015082
 70
   192
  0
VERTEX
  5
16C98D
  8
0
 10
31.52390336680243
 20
-14.52527328336773
 30
-6.7094258169005
 70
   192
  0
VERTEX
  5
16C98E
  8
0
 10
34.00000000002
 20
-15.99999815968
 30
-0.0000000001832523
 70
   192
  0
VERTEX
  5
16C98F
  8
0
 10
34.00000000007451
 20
-15.99999264498034
 30
0.0000002201035409
 70
   192
  0
VERTEX
  5
16C990
  8
0
 10
0.0
 20
0.0
 30
0.0
 70
   128
 71
     1
 72
     2
 73
     3
  0
VERTEX
  5
16C991
  8
0
 10
0.0
 20
0.0
 30
0.0
 70
   128
 71
     4
 72
     5
 73
     6
  0
VERTEX
  5
16C992
  8
0
 10
0.0
 20
0.0
 30
0.0
 70
   128
 71
     4
 72
     7
 73
     5
  0
VERTEX
  5
16C993
  8
0
 10
0.0
 20
0.0
 30
0.0
 70
   128
 71
     8
 72
     9
 73
    10
  0
VERTEX
  5
16C994
  8
0
 10
0.0
 20
0.0
 30
0.0
 70
   128
 71
    10
 72
    11
 73
    12
  0
VERTEX
  5
16C995
  8
0
 10
0.0
 20
0.0
 30
0.0
 70
   128
 71
    10
 72
    12
 73
     8
  0
VERTEX
  5
16C996
  8
0
 10
0.0
 20
0.0
 30
0.0
 70
   128
 71
    11
 72
    13
 73
    12
  0
VERTEX
  5
16C997
  8
0
 10
0.0
 20
0.0
 30
0.0
 70
   128
 71
    14
 72
    15
 73
     1
  0
VERTEX
  5
16C998
  8
0
 10
0.0
 20
0.0
 30
0.0
 70
   128
 71
    14
 72
     1
 73
     3
  0
VERTEX
  5
16C999
  8
0
 10
0.0
 20
0.0
 30
0.0
 70
   128
 71
    16
 72
     4
 73
     6
  0
VERTEX
  5
16C99A
  8
0
 10
0.0
 20
0.0
 30
0.0
 70
   128
 71
    16
 72
     6
 73
     2
  0
VERTEX
  5
16C99B
  8
0
 10
0.0
 20
0.0
 30
0.0
 70
   128
 71
    16
 72
     2
 73
     1
  0
VERTEX
  5
16C99C
  8
0
 10
0.0
 20
0.0
 30
0.0
 70
   128
 71
    16
 72
     1
 73
    17
  0
VERTEX
  5
16C99D
  8
0
 10
0.0
 20
0.0
 30
0.0
 70
   128
 71
    17
 72
    18
 73
    19
  0
VERTEX
  5
16C99E
  8
0
 10
0.0
 20
0.0
 30
0.0
 70
   128
 71
    17
 72
    19
 73
    20
  0
VERTEX
  5
16C99F
  8
0
 10
0.0
 20
0.0
 30
0.0
 70
   128
 71
    17
 72
    20
 73
    16
  0
VERTEX
  5
16C9A0
  8
0
 10
0.0
 20
0.0
 30
0.0
 70
   128
 71
    11
 72
    10
 73
    15
  0
VERTEX
  5
16C9A1
  8
0
 10
0.0
 20
0.0
 30
0.0
 70
   128
 71
    11
 72
    15
 73
    14
  0
SEQEND
  5
16D07A
  8
0
  0
POLYLINE
  5
16C9A2
  8
0
 66
     1
 10
0.0
 20
0.0
 30
0.0
 70
    64
 71
    36
 72
    34
  0
VERTEX
  5
16C9A3
  8
0
 10
35.0
 20
15.55294342075911
 30
-3.755788991765382
 70
   192
  0
VERTEX
  5
16C9A4
  8
0
 10
35.0
 20
14.99999717457003
 30
-5.567771974757141
 70
   192
  0
VERTEX
  5
16C9A5
  8
0
 10
0.0
 20
12.94427190999916
 30
-9.40456403667957
 70
   192
  0
VERTEX
  5
16C9A6
  8
0
 10
0.0
 20
16.0
 30
0.0
 70
   192
  0
VERTEX
  5
16C9A7
  8
0
 10
35.0
 20
15.88784275369293
 30
-1.891151139895256
 70
   192
  0
VERTEX
  5
16C9A8
  8
0
 10
35.00000000000003
 20
15.99999761754885
 30
0.0000000002180119
 70
   192
  0
VERTEX
  5
16C9A9
  8
0
 10
56.33630892313188
 20
9.089145095765055
 30
-13.16767479783949
 70
   192
  0
VERTEX
  5
16C9AA
  8
0
 10
58.97708000869198
 20
9.999997174570003
 30
-12.48999825895072
 70
   192
  0
VERTEX
  5
16C9AB
  8
0
 10
65.0
 20
9.999997174570003
 30
-12.48999825895072
 70
   192
  0
VERTEX
  5
16C9AC
  8
0
 10
65.0
 20
1.729173293058641
 30
-15.90628679870235
 70
   192
  0
VERTEX
  5
16C9AD
  8
0
 10
58.97708000869198
 20
9.999997174570003
 30
-12.48999793843423
 70
   192
  0
VERTEX
  5
16C9AE
  8
0
 10
50.02286653008837
 20
9.999997174570003
 30
-12.48999825895072
 70
   192
  0
VERTEX
  5
16C9AF
  8
0
 10
50.02286653008837
 20
9.999997173924177
 30
-12.48999717323435
 70
   192
  0
VERTEX
  5
16C9B0
  8
0
 10
53.06387952436032
 20
9.01380293945365
 30
-13.21935546052065
 70
   192
  0
VERTEX
  5
16C9B1
  8
0
 10
0.0
 20
4.944271909999159
 30
-15.21690426072246
 70
   192
  0
VERTEX
  5
16C9B2
  8
0
 10
40.00000000000004
 20
9.99999717457
 30
-12.48999825895072
 70
   192
  0
VERTEX
  5
16C9B3
  8
0
 10
36.76312945895394
 20
11.18898018631611
 30
-11.43707216271733
 70
   192
  0
VERTEX
  5
16C9B4
  8
0
 10
50.43609525075413
 20
-11.25750393082581
 30
-11.36963522930448
 70
   192
  0
VERTEX
  5
16C9B5
  8
0
 10
0.0
 20
-4.944271909999158
 30
-15.21690426072246
 70
   192
  0
VERTEX
  5
16C9B6
  8
0
 10
65.0
 20
-7.082541094676317
 30
-14.34704191261115
 70
   192
  0
VERTEX
  5
16C9B7
  8
0
 10
57.73572504052895
 20
-10.98093717721019
 30
-11.63696776270189
 70
   192
  0
VERTEX
  5
16C9B8
  8
0
 10
45.30772000417463
 20
-13.99090206354268
 30
-7.762387483780821
 70
   192
  0
VERTEX
  5
16C9B9
  8
0
 10
42.5
 20
-16.0
 30
0.0
 70
   192
  0
VERTEX
  5
16C9BA
  8
0
 10
34.00000000002
 20
-15.99999815968
 30
-0.0000000001832523
 70
   192
  0
VERTEX
  5
16C9BB
  8
0
 10
31.52390336680243
 20
-14.52527328336773
 30
-6.7094258169005
 70
   192
  0
VERTEX
  5
16C9BC
  8
0
 10
17.01490263161058
 20
-12.86463646166017
 30
-9.513206831752719
 70
   192
  0
VERTEX
  5
16C9BD
  8
0
 10
13.50912328590884
 20
-14.50710754364172
 30
-6.748613667745012
 70
   192
  0
VERTEX
  5
16C9BE
  8
0
 10
0.0
 20
-12.94427190999916
 30
-9.40456403667957
 70
   192
  0
VERTEX
  5
16C9BF
  8
0
 10
10.99999999998
 20
-15.99999822307
 30
-0.0000000000721821
 70
   192
  0
VERTEX
  5
16C9C0
  8
0
 10
0.0
 20
-16.0
 30
0.0
 70
   192
  0
VERTEX
  5
16C9C1
  8
0
 10
35.28713042922504
 20
13.32985908808135
 30
-8.849565107279348
 70
   192
  0
VERTEX
  5
16C9C2
  8
0
 10
36.6861694152818
 20
11.30060772160444
 30
-11.30215699544581
 70
   192
  0
VERTEX
  5
16C9C3
  8
0
 10
22.52565969541397
 20
-11.78354214304726
 30
-10.82350056881312
 70
   192
  0
VERTEX
  5
16C9C4
  8
0
 10
65.0
 20
-13.67881573821263
 30
-8.300000000001587
 70
   192
  0
VERTEX
  5
16C9C5
  8
0
 10
28.02831148947671
 20
-12.88106258363049
 30
-9.490954246015082
 70
   192
  0
VERTEX
  5
16C9C6
  8
0
 10
63.21675166002999
 20
-13.67881573821
 30
-8.3
 70
   192
  0
VERTEX
  5
16C9C7
  8
0
 10
0.0
 20
0.0
 30
0.0
 70
   128
 71
     1
 72
     2
 73
     3
  0
VERTEX
  5
16C9C8
  8
0
 10
0.0
 20
0.0
 30
0.0
 70
   128
 71
     1
 72
     3
 73
     4
  0
VERTEX
  5
16C9C9
  8
0
 10
0.0
 20
0.0
 30
0.0
 70
   128
 71
     4
 72
     5
 73
     1
  0
VERTEX
  5
16C9CA
  8
0
 10
0.0
 20
0.0
 30
0.0
 70
   128
 71
     4
 72
     6
 73
     5
  0
VERTEX
  5
16C9CB
  8
0
 10
0.0
 20
0.0
 30
0.0
 70
   128
 71
     7
 72
     8
 73
     9
  0
VERTEX
  5
16C9CC
  8
0
 10
0.0
 20
0.0
 30
0.0
 70
   128
 71
     7
 72
     9
 73
    10
  0
VERTEX
  5
16C9CD
  8
0
 10
0.0
 20
0.0
 30
0.0
 70
   128
 71
     7
 72
    11
 73
     8
  0
VERTEX
  5
16C9CE
  8
0
 10
0.0
 20
0.0
 30
0.0
 70
   128
 71
    12
 72
    13
 73
    14
  0
VERTEX
  5
16C9CF
  8
0
 10
0.0
 20
0.0
 30
0.0
 70
   128
 71
    14
 72
     7
 73
    15
  0
VERTEX
  5
16C9D0
  8
0
 10
0.0
 20
0.0
 30
0.0
 70
   128
 71
    15
 72
    16
 73
    12
  0
VERTEX
  5
16C9D1
  8
0
 10
0.0
 20
0.0
 30
0.0
 70
   128
 71
    15
 72
    12
 73
    14
  0
VERTEX
  5
16C9D2
  8
0
 10
0.0
 20
0.0
 30
0.0
 70
   128
 71
    15
 72
    17
 73
    16
  0
VERTEX
  5
16C9D3
  8
0
 10
0.0
 20
0.0
 30
0.0
 70
   128
 71
    18
 72
    19
 73
    20
  0
VERTEX
  5
16C9D4
  8
0
 10
0.0
 20
0.0
 30
0.0
 70
   128
 71
    20
 72
    21
 73
    18
  0
VERTEX
  5
16C9D5
  8
0
 10
0.0
 20
0.0
 30
0.0
 70
   128
 71
    22
 72
    23
 73
    24
  0
VERTEX
  5
16C9D6
  8
0
 10
0.0
 20
0.0
 30
0.0
 70
   128
 71
    22
 72
    24
 73
    25
  0
VERTEX
  5
16C9D7
  8
0
 10
0.0
 20
0.0
 30
0.0
 70
   128
 71
    26
 72
    27
 73
    28
  0
VERTEX
  5
16C9D8
  8
0
 10
0.0
 20
0.0
 30
0.0
 70
   128
 71
    27
 72
    29
 73
    30
  0
VERTEX
  5
16C9D9
  8
0
 10
0.0
 20
0.0
 30
0.0
 70
   128
 71
    27
 72
    30
 73
    28
  0
VERTEX
  5
16C9DA
  8
0
 10
0.0
 20
0.0
 30
0.0
 70
   128
 71
    15
 72
     7
 73
    10
  0
VERTEX
  5
16C9DB
  8
0
 10
0.0
 20
0.0
 30
0.0
 70
   128
 71
    15
 72
    10
 73
    20
  0
VERTEX
  5
16C9DC
  8
0
 10
0.0
 20
0.0
 30
0.0
 70
   128
 71
    15
 72
    20
 73
    19
  0
VERTEX
  5
16C9DD
  8
0
 10
0.0
 20
0.0
 30
0.0
 70
   128
 71
    31
 72
    32
 73
    17
  0
VERTEX
  5
16C9DE
  8
0
 10
0.0
 20
0.0
 30
0.0
 70
   128
 71
    31
 72
    17
 73
    15
  0
VERTEX
  5
16C9DF
  8
0
 10
0.0
 20
0.0
 30
0.0
 70
   128
 71
    31
 72
    15
 73
     3
  0
VERTEX
  5
16C9E0
  8
0
 10
0.0
 20
0.0
 30
0.0
 70
   128
 71
     3
 72
     2
 73
    31
  0
VERTEX
  5
16C9E1
  8
0
 10
0.0
 20
0.0
 30
0.0
 70
   128
 71
    33
 72
    26
 73
    28
  0
VERTEX
  5
16C9E2
  8
0
 10
0.0
 20
0.0
 30
0.0
 70
   128
 71
    33
 72
    28
 73
    19
  0
VERTEX
  5
16C9E3
  8
0
 10
0.0
 20
0.0
 30
0.0
 70
   128
 71
    21
 72
    20
 73
    34
  0
VERTEX
  5
16C9E4
  8
0
 10
0.0
 20
0.0
 30
0.0
 70
   128
 71
    33
 72
    19
 73
    18
  0
VERTEX
  5
16C9E5
  8
0
 10
0.0
 20
0.0
 30
0.0
 70
   128
 71
    18
 72
    35
 73
    33
  0
VERTEX
  5
16C9E6
  8
0
 10
0.0
 20
0.0
 30
0.0
 70
   128
 71
    18
 72
    22
 73
    25
  0
VERTEX
  5
16C9E7
  8
0
 10
0.0
 20
0.0
 30
0.0
 70
   128
 71
    18
 72
    25
 73
    35
  0
VERTEX
  5
16C9E8
  8
0
 10
0.0
 20
0.0
 30
0.0
 70
   128
 71
    21
 72
    34
 73
    36
  0
SEQEND
  5
16D07B
  8
0
  0
POLYLINE
  5
16C9E9
  8
0
 66
     1
 10
0.0
 20
0.0
 30
0.0
 70
    64
 71
    32
 72
    30
  0
VERTEX
  5
16C9EA
  8
0
 10
57.73572504052895
 20
-10.98093717721019
 30
-11.63696776270189
 70
   192
  0
VERTEX
  5
16C9EB
  8
0
 10
63.21675166002999
 20
-13.67881573821
 30
-8.3
 70
   192
  0
VERTEX
  5
16C9EC
  8
0
 10
63.38450679435726
 20
-5.868268861253581
 30
-8.300000003405096
 70
   192
  0
VERTEX
  5
16C9ED
  8
0
 10
63.5525420507491
 20
2.024538526353776
 30
-8.299999977451096
 70
   192
  0
VERTEX
  5
16C9EE
  8
0
 10
63.72090298356844
 20
9.999997174569998
 30
-8.3
 70
   192
  0
VERTEX
  5
16C9EF
  8
0
 10
62.43945206208318
 20
9.999997174569998
 30
-9.533107516494834
 70
   192
  0
VERTEX
  5
16C9F0
  8
0
 10
56.24134912436506
 20
8.807957855234354
 30
12.26462469934359
 70
   192
  0
VERTEX
  5
16C9F1
  8
0
 10
59.41685108885994
 20
9.999997169948717
 30
11.3903312221253
 70
   192
  0
VERTEX
  5
16C9F2
  8
0
 10
59.41685057753545
 20
9.999997174569998
 30
11.39033003759577
 70
   192
  0
VERTEX
  5
16C9F3
  8
0
 10
60.99488449835798
 20
9.999997174569998
 30
10.57031282981523
 70
   192
  0
VERTEX
  5
16C9F4
  8
0
 10
62.43946266863598
 20
9.999997174569998
 30
9.533098683036007
 70
   192
  0
VERTEX
  5
16C9F5
  8
0
 10
63.72090214882166
 20
9.999997174569998
 30
8.300000092109826
 70
   192
  0
VERTEX
  5
16C9F6
  8
0
 10
63.55254212197788
 20
2.024538598676606
 30
8.299999992579597
 70
   192
  0
VERTEX
  5
16C9F7
  8
0
 10
63.38450677950549
 20
-5.868269063631562
 30
8.300000001120408
 70
   192
  0
VERTEX
  5
16C9F8
  8
0
 10
63.21675166002999
 20
-13.67881573821
 30
8.3
 70
   192
  0
VERTEX
  5
16C9F9
  8
0
 10
56.56218624710028
 20
-10.68908286700441
 30
11.90560823571449
 70
   192
  0
VERTEX
  5
16C9FA
  8
0
 10
48.85880109413665
 20
-11.92863429213406
 30
10.66338051110075
 70
   192
  0
VERTEX
  5
16C9FB
  8
0
 10
52.75880291712049
 20
8.807940579958355
 30
12.26464036057606
 70
   192
  0
VERTEX
  5
16C9FC
  8
0
 10
44.74142060400685
 20
-14.37424853776819
 30
7.027160093129297
 70
   192
  0
VERTEX
  5
16C9FD
  8
0
 10
49.58316821398301
 20
9.999997174569998
 30
11.3903381492904
 70
   192
  0
VERTEX
  5
16C9FE
  8
0
 10
49.58316737919277
 20
9.999997168852898
 30
11.39034008316643
 70
   192
  0
VERTEX
  5
16C9FF
  8
0
 10
42.5
 20
-16.0
 30
0.0
 70
   192
  0
VERTEX
  5
16CA00
  8
0
 10
43.01483308862228
 20
9.999997174569998
 30
4.691053078463483
 70
   192
  0
VERTEX
  5
16CA01
  8
0
 10
45.30772000417463
 20
-13.99090206354268
 30
-7.762387483780821
 70
   192
  0
VERTEX
  5
16CA02
  8
0
 10
43.0148228763226
 20
9.999997174569998
 30
-4.691028075478193
 70
   192
  0
VERTEX
  5
16CA03
  8
0
 10
50.43609525075413
 20
-11.25750393082581
 30
-11.36963522930448
 70
   192
  0
VERTEX
  5
16CA04
  8
0
 10
52.75900914195273
 20
8.807922168719516
 30
-12.26466127850175
 70
   192
  0
VERTEX
  5
16CA05
  8
0
 10
49.5831429605098
 20
9.999997172432927
 30
-11.39032850398769
 70
   192
  0
VERTEX
  5
16CA06
  8
0
 10
49.58314341746077
 20
9.999997174569998
 30
-11.39032744542087
 70
   192
  0
VERTEX
  5
16CA07
  8
0
 10
60.99486044308577
 20
9.999997174569998
 30
-10.57032761043889
 70
   192
  0
VERTEX
  5
16CA08
  8
0
 10
59.41681140761592
 20
9.999997174569998
 30
-11.39034694594968
 70
   192
  0
VERTEX
  5
16CA09
  8
0
 10
56.24133748141437
 20
8.807976222945603
 30
-12.2646201596649
 70
   192
  0
VERTEX
  5
16CA0A
  8
0
 10
0.0
 20
0.0
 30
0.0
 70
   128
 71
     1
 72
     2
 73
     3
  0
VERTEX
  5
16CA0B
  8
0
 10
0.0
 20
0.0
 30
0.0
 70
   128
 71
     4
 72
     5
 73
     6
  0
VERTEX
  5
16CA0C
  8
0
 10
0.0
 20
0.0
 30
0.0
 70
   128
 71
     7
 72
     8
 73
     9
  0
VERTEX
  5
16CA0D
  8
0
 10
0.0
 20
0.0
 30
0.0
 70
   128
 71
     9
 72
    10
 73
     7
  0
VERTEX
  5
16CA0E
  8
0
 10
0.0
 20
0.0
 30
0.0
 70
   128
 71
    10
 72
    11
 73
     7
  0
VERTEX
  5
16CA0F
  8
0
 10
0.0
 20
0.0
 30
0.0
 70
   128
 71
    12
 72
    13
 73
     7
  0
VERTEX
  5
16CA10
  8
0
 10
0.0
 20
0.0
 30
0.0
 70
   128
 71
    11
 72
    12
 73
     7
  0
VERTEX
  5
16CA11
  8
0
 10
0.0
 20
0.0
 30
0.0
 70
   128
 71
    13
 72
    14
 73
     7
  0
VERTEX
  5
16CA12
  8
0
 10
0.0
 20
0.0
 30
0.0
 70
   128
 71
    15
 72
    16
 73
     7
  0
VERTEX
  5
16CA13
  8
0
 10
0.0
 20
0.0
 30
0.0
 70
   128
 71
    14
 72
    15
 73
     7
  0
VERTEX
  5
16CA14
  8
0
 10
0.0
 20
0.0
 30
0.0
 70
   128
 71
     7
 72
    16
 73
    17
  0
VERTEX
  5
16CA15
  8
0
 10
0.0
 20
0.0
 30
0.0
 70
   128
 71
    18
 72
     7
 73
    17
  0
VERTEX
  5
16CA16
  8
0
 10
0.0
 20
0.0
 30
0.0
 70
   128
 71
    17
 72
    19
 73
    20
  0
VERTEX
  5
16CA17
  8
0
 10
0.0
 20
0.0
 30
0.0
 70
   128
 71
    18
 72
    17
 73
    20
  0
VERTEX
  5
16CA18
  8
0
 10
0.0
 20
0.0
 30
0.0
 70
   128
 71
    20
 72
    21
 73
    18
  0
VERTEX
  5
16CA19
  8
0
 10
0.0
 20
0.0
 30
0.0
 70
   128
 71
    19
 72
    22
 73
    23
  0
VERTEX
  5
16CA1A
  8
0
 10
0.0
 20
0.0
 30
0.0
 70
   128
 71
    20
 72
    19
 73
    23
  0
VERTEX
  5
16CA1B
  8
0
 10
0.0
 20
0.0
 30
0.0
 70
   128
 71
    23
 72
    22
 73
    24
  0
VERTEX
  5
16CA1C
  8
0
 10
0.0
 20
0.0
 30
0.0
 70
   128
 71
    25
 72
    23
 73
    24
  0
VERTEX
  5
16CA1D
  8
0
 10
0.0
 20
0.0
 30
0.0
 70
   128
 71
    24
 72
    26
 73
    27
  0
VERTEX
  5
16CA1E
  8
0
 10
0.0
 20
0.0
 30
0.0
 70
   128
 71
    27
 72
    28
 73
    29
  0
VERTEX
  5
16CA1F
  8
0
 10
0.0
 20
0.0
 30
0.0
 70
   128
 71
    25
 72
    24
 73
    27
  0
VERTEX
  5
16CA20
  8
0
 10
0.0
 20
0.0
 30
0.0
 70
   128
 71
    29
 72
    25
 73
    27
  0
VERTEX
  5
16CA21
  8
0
 10
0.0
 20
0.0
 30
0.0
 70
   128
 71
     4
 72
     6
 73
    30
  0
VERTEX
  5
16CA22
  8
0
 10
0.0
 20
0.0
 30
0.0
 70
   128
 71
    31
 72
    32
 73
     4
  0
VERTEX
  5
16CA23
  8
0
 10
0.0
 20
0.0
 30
0.0
 70
   128
 71
    30
 72
    31
 73
     4
  0
VERTEX
  5
16CA24
  8
0
 10
0.0
 20
0.0
 30
0.0
 70
   128
 71
     1
 72
     3
 73
     4
  0
VERTEX
  5
16CA25
  8
0
 10
0.0
 20
0.0
 30
0.0
 70
   128
 71
    26
 72
     1
 73
     4
  0
VERTEX
  5
16CA26
  8
0
 10
0.0
 20
0.0
 30
0.0
 70
   128
 71
    27
 72
    26
 73
     4
  0
VERTEX
  5
16CA27
  8
0
 10
0.0
 20
0.0
 30
0.0
 70
   128
 71
    32
 72
    27
 73
     4
  0
SEQEND
  5
16D07C
  8
0
  0
POLYLINE
  5
16CA28
  8
0
 66
     1
 10
0.0
 20
0.0
 30
0.0
 70
    64
 71
    12
 72
    10
  0
VERTEX
  5
16CA29
  8
0
 10
50.02286653008837
 20
9.999997173924177
 30
-12.48999717323435
 70
   192
  0
VERTEX
  5
16CA2A
  8
0
 10
50.55467953462483
 20
9.999997174569994
 30
-12.21061701584994
 70
   192
  0
VERTEX
  5
16CA2B
  8
0
 10
50.15513746589615
 20
9.999997174569943
 30
-11.70853194281112
 70
   192
  0
VERTEX
  5
16CA2C
  8
0
 10
49.5831429605098
 20
9.999997172432927
 30
-11.39032850398768
 70
   192
  0
VERTEX
  5
16CA2D
  8
0
 10
52.75900914195273
 20
8.807922168719516
 30
-12.26466127850175
 70
   192
  0
VERTEX
  5
16CA2E
  8
0
 10
56.24133748141437
 20
8.807976222945603
 30
-12.2646201596649
 70
   192
  0
VERTEX
  5
16CA2F
  8
0
 10
59.41681140866329
 20
9.999997169423725
 30
-11.39034694837601
 70
   192
  0
VERTEX
  5
16CA30
  8
0
 10
58.84435322126457
 20
9.999997174569819
 30
-11.70887102250606
 70
   192
  0
VERTEX
  5
16CA31
  8
0
 10
58.44529903596761
 20
9.99999717457008
 30
-12.21227656311385
 70
   192
  0
VERTEX
  5
16CA32
  8
0
 10
58.97708000869198
 20
9.999997174570003
 30
-12.48999793843423
 70
   192
  0
VERTEX
  5
16CA33
  8
0
 10
56.33630892313188
 20
9.089145095765055
 30
-13.16767479783949
 70
   192
  0
VERTEX
  5
16CA34
  8
0
 10
53.06387952436032
 20
9.01380293945365
 30
-13.21935546052065
 70
   192
  0
VERTEX
  5
16CA35
  8
0
 10
0.0
 20
0.0
 30
0.0
 70
   128
 71
     3
 72
     4
 73
     5
  0
VERTEX
  5
16CA36
  8
0
 10
0.0
 20
0.0
 30
0.0
 70
   128
 71
     6
 72
     8
 73
     3
  0
VERTEX
  5
16CA37
  8
0
 10
0.0
 20
0.0
 30
0.0
 70
   128
 71
     5
 72
     6
 73
     3
  0
VERTEX
  5
16CA38
  8
0
 10
0.0
 20
0.0
 30
0.0
 70
   128
 71
     6
 72
     7
 73
     8
  0
VERTEX
  5
16CA39
  8
0
 10
0.0
 20
0.0
 30
0.0
 70
   128
 71
    -9
 72
     2
 73
    -3
  0
VERTEX
  5
16CA3A
  8
0
 10
0.0
 20
0.0
 30
0.0
 70
   128
 71
     8
 72
    -9
 73
     3
  0
VERTEX
  5
16CA3B
  8
0
 10
0.0
 20
0.0
 30
0.0
 70
   128
 71
    12
 72
     1
 73
     2
  0
VERTEX
  5
16CA3C
  8
0
 10
0.0
 20
0.0
 30
0.0
 70
   128
 71
    11
 72
    12
 73
     2
  0
VERTEX
  5
16CA3D
  8
0
 10
0.0
 20
0.0
 30
0.0
 70
   128
 71
    10
 72
    11
 73
     2
  0
VERTEX
  5
16CA3E
  8
0
 10
0.0
 20
0.0
 30
0.0
 70
   128
 71
     9
 72
    10
 73
    -2
  0
SEQEND
  5
16D07D
  8
0
  0
POLYLINE
  5
16CA3F
  8
0
 66
     1
 10
0.0
 20
0.0
 30
0.0
 70
    64
 71
     6
 72
     4
  0
VERTEX
  5
16CA40
  8
0
 10
65.0
 20
9.999997174569998
 30
-8.3
 70
   192
  0
VERTEX
  5
16CA41
  8
0
 10
63.72090298356844
 20
9.99999717457
 30
-8.3
 70
   192
  0
VERTEX
  5
16CA42
  8
0
 10
63.5525420507491
 20
2.024538526353776
 30
-8.299999977451096
 70
   192
  0
VERTEX
  5
16CA43
  8
0
 10
63.38450679435726
 20
-5.868268861253581
 30
-8.300000003405096
 70
   192
  0
VERTEX
  5
16CA44
  8
0
 10
63.21675166002999
 20
-13.67881573821
 30
-8.3
 70
   192
  0
VERTEX
  5
16CA45
  8
0
 10
65.0
 20
-13.67881573821
 30
-8.3
 70
   192
  0
VERTEX
  5
16CA46
  8
0
 10
0.0
 20
0.0
 30
0.0
 70
   128
 71
     1
 72
     2
 73
    -3
  0
VERTEX
  5
16CA47
  8
0
 10
0.0
 20
0.0
 30
0.0
 70
   128
 71
    -4
 72
     6
 73
    -1
  0
VERTEX
  5
16CA48
  8
0
 10
0.0
 20
0.0
 30
0.0
 70
   128
 71
     3
 72
    -4
 73
    -1
  0
VERTEX
  5
16CA49
  8
0
 10
0.0
 20
0.0
 30
0.0
 70
   128
 71
     4
 72
     5
 73
    -6
  0
SEQEND
  5
16D07E
  8
0
  0
POLYLINE
  5
16CA4A
  8
0
 66
     1
 10
0.0
 20
0.0
 30
0.0
 70
    64
 71
     5
 72
     3
  0
VERTEX
  5
16CA4B
  8
0
 10
65.0
 20
-13.67881573821
 30
-8.3
 70
   192
  0
VERTEX
  5
16CA4C
  8
0
 10
65.0
 20
9.999997174569998
 30
-8.3
 70
   192
  0
VERTEX
  5
16CA4D
  8
0
 10
65.0
 20
9.999997174569996
 30
-12.48999825895072
 70
   192
  0
VERTEX
  5
16CA4E
  8
0
 10
65.0
 20
1.729173293058641
 30
-15.90628679870235
 70
   192
  0
VERTEX
  5
16CA4F
  8
0
 10
65.0
 20
-7.082541094676317
 30
-14.34704191261115
 70
   192
  0
VERTEX
  5
16CA50
  8
0
 10
0.0
 20
0.0
 30
0.0
 70
   128
 71
     1
 72
     5
 73
    -4
  0
VERTEX
  5
16CA51
  8
0
 10
0.0
 20
0.0
 30
0.0
 70
   128
 71
    -1
 72
     4
 73
    -3
  0
VERTEX
  5
16CA52
  8
0
 10
0.0
 20
0.0
 30
0.0
 70
   128
 71
    -1
 72
     3
 73
     2
  0
SEQEND
  5
16D07F
  8
0
  0
POLYLINE
  5
16CA53
  8
0
 66
     1
 10
0.0
 20
0.0
 30
0.0
 70
    64
 71
     5
 72
     3
  0
VERTEX
  5
16CA54
  8
0
 10
65.0
 20
-13.67881573821263
 30
8.300000000001594
 70
   192
  0
VERTEX
  5
16CA55
  8
0
 10
65.0
 20
-7.082541094676314
 30
14.34704191261116
 70
   192
  0
VERTEX
  5
16CA56
  8
0
 10
65.0
 20
1.729173293058644
 30
15.90628679870235
 70
   192
  0
VERTEX
  5
16CA57
  8
0
 10
65.0
 20
9.999997174569998
 30
12.48999825895072
 70
   192
  0
VERTEX
  5
16CA58
  8
0
 10
65.0
 20
9.999997174569998
 30
8.3
 70
   192
  0
VERTEX
  5
16CA59
  8
0
 10
0.0
 20
0.0
 30
0.0
 70
   128
 71
     1
 72
     5
 73
    -4
  0
VERTEX
  5
16CA5A
  8
0
 10
0.0
 20
0.0
 30
0.0
 70
   128
 71
    -1
 72
     4
 73
    -3
  0
VERTEX
  5
16CA5B
  8
0
 10
0.0
 20
0.0
 30
0.0
 70
   128
 71
    -1
 72
     3
 73
     2
  0
SEQEND
  5
16D080
  8
0
  0
POLYLINE
  5
16CA5C
  8
0
 66
     1
 10
0.0
 20
0.0
 30
0.0
 70
    64
 71
     6
 72
     4
  0
VERTEX
  5
16CA5D
  8
0
 10
63.21675166002999
 20
-13.67881573821
 30
8.3
 70
   192
  0
VERTEX
  5
16CA5E
  8
0
 10
65.0
 20
-13.67881573821
 30
8.3
 70
   192
  0
VERTEX
  5
16CA5F
  8
0
 10
65.0
 20
9.999997174569998
 30
8.3
 70
   192
  0
VERTEX
  5
16CA60
  8
0
 10
63.72090214882167
 20
9.999997174569998
 30
8.300000092109821
 70
   192
  0
VERTEX
  5
16CA61
  8
0
 10
63.55254212197788
 20
2.024538598676606
 30
8.299999992579597
 70
   192
  0
VERTEX
  5
16CA62
  8
0
 10
63.38450677950549
 20
-5.868269063631562
 30
8.300000001120408
 70
   192
  0
VERTEX
  5
16CA63
  8
0
 10
0.0
 20
0.0
 30
0.0
 70
   128
 71
     5
 72
     4
 73
    -3
  0
VERTEX
  5
16CA64
  8
0
 10
0.0
 20
0.0
 30
0.0
 70
   128
 71
     3
 72
    -2
 73
    -6
  0
VERTEX
  5
16CA65
  8
0
 10
0.0
 20
0.0
 30
0.0
 70
   128
 71
    -3
 72
     6
 73
    -5
  0
VERTEX
  5
16CA66
  8
0
 10
0.0
 20
0.0
 30
0.0
 70
   128
 71
     2
 72
     1
 73
    -6
  0
SEQEND
  5
16D081
  8
0
  0
POLYLINE
  5
16CA67
  8
0
 66
     1
 10
0.0
 20
0.0
 30
0.0
 70
    64
 71
    12
 72
    10
  0
VERTEX
  5
16CA68
  8
0
 10
58.97699589244054
 20
9.999997174569993
 30
12.4899982507419
 70
   192
  0
VERTEX
  5
16CA69
  8
0
 10
58.44532605022561
 20
9.99999717456999
 30
12.21055237080438
 70
   192
  0
VERTEX
  5
16CA6A
  8
0
 10
58.84488829577177
 20
9.999997174569941
 30
11.70851399545517
 70
   192
  0
VERTEX
  5
16CA6B
  8
0
 10
59.41685108885994
 20
9.999997169948719
 30
11.3903312221253
 70
   192
  0
VERTEX
  5
16CA6C
  8
0
 10
56.24134912436506
 20
8.807957855234354
 30
12.26462469934359
 70
   192
  0
VERTEX
  5
16CA6D
  8
0
 10
52.75880291712049
 20
8.807940579958355
 30
12.26464036057606
 70
   192
  0
VERTEX
  5
16CA6E
  8
0
 10
49.58316737919277
 20
9.999997168852898
 30
11.39034008316643
 70
   192
  0
VERTEX
  5
16CA6F
  8
0
 10
50.15568535436712
 20
9.999997174569815
 30
11.70890122801792
 70
   192
  0
VERTEX
  5
16CA70
  8
0
 10
50.55469260779208
 20
9.999997174570083
 30
12.21240618276354
 70
   192
  0
VERTEX
  5
16CA71
  8
0
 10
50.02272103169155
 20
9.999997174879056
 30
12.48999511814795
 70
   192
  0
VERTEX
  5
16CA72
  8
0
 10
52.84378327127458
 20
9.052804742403216
 30
13.1926770710793
 70
   192
  0
VERTEX
  5
16CA73
  8
0
 10
56.26292268741107
 20
9.073867095406232
 30
13.17819940307675
 70
   192
  0
VERTEX
  5
16CA74
  8
0
 10
0.0
 20
0.0
 30
0.0
 70
   128
 71
     3
 72
     4
 73
     5
  0
VERTEX
  5
16CA75
  8
0
 10
0.0
 20
0.0
 30
0.0
 70
   128
 71
     6
 72
     8
 73
     3
  0
VERTEX
  5
16CA76
  8
0
 10
0.0
 20
0.0
 30
0.0
 70
   128
 71
     5
 72
     6
 73
     3
  0
VERTEX
  5
16CA77
  8
0
 10
0.0
 20
0.0
 30
0.0
 70
   128
 71
     6
 72
     7
 73
     8
  0
VERTEX
  5
16CA78
  8
0
 10
0.0
 20
0.0
 30
0.0
 70
   128
 71
    -9
 72
     2
 73
    -3
  0
VERTEX
  5
16CA79
  8
0
 10
0.0
 20
0.0
 30
0.0
 70
   128
 71
     8
 72
    -9
 73
     3
  0
VERTEX
  5
16CA7A
  8
0
 10
0.0
 20
0.0
 30
0.0
 70
   128
 71
    12
 72
     1
 73
     2
  0
VERTEX
  5
16CA7B
  8
0
 10
0.0
 20
0.0
 30
0.0
 70
   128
 71
    11
 72
    12
 73
     2
  0
VERTEX
  5
16CA7C
  8
0
 10
0.0
 20
0.0
 30
0.0
 70
   128
 71
    10
 72
    11
 73
     2
  0
VERTEX
  5
16CA7D
  8
0
 10
0.0
 20
0.0
 30
0.0
 70
   128
 71
     9
 72
    10
 73
    -2
  0
SEQEND
  5
16D082
  8
0
  0
POLYLINE
  5
16CA7E
  8
0
 66
     1
 10
0.0
 20
0.0
 30
0.0
 70
    64
 71
    10
 72
     8
  0
VERTEX
  5
16CA7F
  8
0
 10
0.0
 20
10.75
 30
0.0
 70
   192
  0
VERTEX
  5
16CA80
  8
0
 10
0.0
 20
-10.75
 30
0.0
 70
   192
  0
VERTEX
  5
16CA81
  8
0
 10
2.0
 20
-10.75
 30
0.0
 70
   192
  0
VERTEX
  5
16CA82
  8
0
 10
2.0
 20
10.75
 30
0.0
 70
   192
  0
VERTEX
  5
16CA83
  8
0
 10
2.0
 20
0.0
 30
10.75
 70
   192
  0
VERTEX
  5
16CA84
  8
0
 10
0.0
 20
0.0
 30
10.75
 70
   192
  0
VERTEX
  5
16CA85
  8
0
 10
2.0
 20
7.601397897755386
 30
7.601397897755386
 70
   192
  0
VERTEX
  5
16CA86
  8
0
 10
0.0
 20
7.601397897755386
 30
7.601397897755386
 70
   192
  0
VERTEX
  5
16CA87
  8
0
 10
2.0
 20
-7.601397897755388
 30
7.601397897755388
 70
   192
  0
VERTEX
  5
16CA88
  8
0
 10
0.0
 20
-7.601397897755388
 30
7.601397897755388
 70
   192
  0
VERTEX
  5
16CA89
  8
0
 10
0.0
 20
0.0
 30
0.0
 70
   128
 71
     1
 72
     4
 73
    -7
  0
VERTEX
  5
16CA8A
  8
0
 10
0.0
 20
0.0
 30
0.0
 70
   128
 71
     8
 72
    -1
 73
     7
  0
VERTEX
  5
16CA8B
  8
0
 10
0.0
 20
0.0
 30
0.0
 70
   128
 71
     7
 72
     5
 73
    -6
  0
VERTEX
  5
16CA8C
  8
0
 10
0.0
 20
0.0
 30
0.0
 70
   128
 71
     8
 72
    -7
 73
     6
  0
VERTEX
  5
16CA8D
  8
0
 10
0.0
 20
0.0
 30
0.0
 70
   128
 71
     5
 72
     9
 73
   -10
  0
VERTEX
  5
16CA8E
  8
0
 10
0.0
 20
0.0
 30
0.0
 70
   128
 71
     6
 72
    -5
 73
    10
  0
VERTEX
  5
16CA8F
  8
0
 10
0.0
 20
0.0
 30
0.0
 70
   128
 71
     9
 72
     3
 73
    -2
  0
VERTEX
  5
16CA90
  8
0
 10
0.0
 20
0.0
 30
0.0
 70
   128
 71
    10
 72
    -9
 73
     2
  0
SEQEND
  5
16D083
  8
0
  0
POLYLINE
  5
16CA91
  8
0
 66
     1
 10
0.0
 20
0.0
 30
0.0
 70
    64
 71
    10
 72
     8
  0
VERTEX
  5
16CA92
  8
0
 10
0.0
 20
-10.75
 30
0.0
 70
   192
  0
VERTEX
  5
16CA93
  8
0
 10
0.0
 20
10.75
 30
0.0
 70
   192
  0
VERTEX
  5
16CA94
  8
0
 10
2.0
 20
10.75
 30
0.0
 70
   192
  0
VERTEX
  5
16CA95
  8
0
 10
2.0
 20
-10.75
 30
0.0
 70
   192
  0
VERTEX
  5
16CA96
  8
0
 10
2.0
 20
0.0
 30
-10.75
 70
   192
  0
VERTEX
  5
16CA97
  8
0
 10
0.0
 20
0.0
 30
-10.75
 70
   192
  0
VERTEX
  5
16CA98
  8
0
 10
2.0
 20
-7.601397897755388
 30
-7.601397897755388
 70
   192
  0
VERTEX
  5
16CA99
  8
0
 10
0.0
 20
-7.601397897755386
 30
-7.601397897755386
 70
   192
  0
VERTEX
  5
16CA9A
  8
0
 10
2.0
 20
7.601397897755386
 30
-7.601397897755386
 70
   192
  0
VERTEX
  5
16CA9B
  8
0
 10
0.0
 20
7.601397897755388
 30
-7.601397897755388
 70
   192
  0
VERTEX
  5
16CA9C
  8
0
 10
0.0
 20
0.0
 30
0.0
 70
   128
 71
     1
 72
     4
 73
    -7
  0
VERTEX
  5
16CA9D
  8
0
 10
0.0
 20
0.0
 30
0.0
 70
   128
 71
     8
 72
    -1
 73
     7
  0
VERTEX
  5
16CA9E
  8
0
 10
0.0
 20
0.0
 30
0.0
 70
   128
 71
     7
 72
     5
 73
    -6
  0
VERTEX
  5
16CA9F
  8
0
 10
0.0
 20
0.0
 30
0.0
 70
   128
 71
     8
 72
    -7
 73
     6
  0
VERTEX
  5
16CAA0
  8
0
 10
0.0
 20
0.0
 30
0.0
 70
   128
 71
     5
 72
     9
 73
   -10
  0
VERTEX
  5
16CAA1
  8
0
 10
0.0
 20
0.0
 30
0.0
 70
   128
 71
     6
 72
    -5
 73
    10
  0
VERTEX
  5
16CAA2
  8
0
 10
0.0
 20
0.0
 30
0.0
 70
   128
 71
     9
 72
     3
 73
    -2
  0
VERTEX
  5
16CAA3
  8
0
 10
0.0
 20
0.0
 30
0.0
 70
   128
 71
    10
 72
    -9
 73
     2
  0
SEQEND
  5
16D084
  8
0
  0
POLYLINE
  5
16CAA4
  8
0
 66
     1
 10
0.0
 20
0.0
 30
0.0
 70
    64
 71
    26
 72
    18
  0
VERTEX
  5
16CAA5
  8
0
 10
2.0
 20
7.601397897755386
 30
7.601397897755386
 70
   192
  0
VERTEX
  5
16CAA6
  8
0
 10
2.0
 20
10.75
 30
0.0
 70
   192
  0
VERTEX
  5
16CAA7
  8
0
 10
2.0
 20
10.60840243849633
 30
-0.3418467533811316
 70
   192
  0
VERTEX
  5
16CAA8
  8
0
 10
2.0
 20
10.7
 30
-0.0000000000000013
 70
   192
  0
VERTEX
  5
16CAA9
  8
0
 10
2.0
 20
7.566042558696059
 30
7.566042558696059
 70
   192
  0
VERTEX
  5
16CAAA
  8
0
 10
2.0
 20
0.0
 30
10.7
 70
   192
  0
VERTEX
  5
16CAAB
  8
0
 10
2.0
 20
-7.56604255869606
 30
7.56604255869606
 70
   192
  0
VERTEX
  5
16CAAC
  8
0
 10
2.0
 20
-10.7
 30
0.0
 70
   192
  0
VERTEX
  5
16CAAD
  8
0
 10
2.0
 20
-10.60840243849632
 30
-0.341846753381155
 70
   192
  0
VERTEX
  5
16CAAE
  8
0
 10
2.0
 20
-10.75
 30
0.0
 70
   192
  0
VERTEX
  5
16CAAF
  8
0
 10
2.0
 20
-7.601397897755388
 30
7.601397897755388
 70
   192
  0
VERTEX
  5
16CAB0
  8
0
 10
2.0
 20
0.0
 30
10.75
 70
   192
  0
VERTEX
  5
16CAB1
  8
0
 10
2.0
 20
-8.01599155646236
 30
-6.600480264031131
 70
   192
  0
VERTEX
  5
16CAB2
  8
0
 10
2.0
 20
-9.266471820493493
 30
-5.349999999999999
 70
   192
  0
VERTEX
  5
16CAB3
  8
0
 10
2.0
 20
9.266471820493491
 30
-5.350000000000003
 70
   192
  0
VERTEX
  5
16CAB4
  8
0
 10
2.0
 20
8.015991556462355
 30
-6.600480264031138
 70
   192
  0
VERTEX
  5
16CAB5
  8
0
 10
2.0
 20
7.601397897755386
 30
-7.601397897755386
 70
   192
  0
VERTEX
  5
16CAB6
  8
0
 10
2.0
 20
6.600480264031134
 30
-8.015991556462357
 70
   192
  0
VERTEX
  5
16CAB7
  8
0
 10
2.0
 20
-6.600480264031132
 30
-8.01599155646236
 70
   192
  0
VERTEX
  5
16CAB8
  8
0
 10
2.0
 20
-7.601397897755388
 30
-7.601397897755388
 70
   192
  0
VERTEX
  5
16CAB9
  8
0
 10
2.0
 20
5.349999999999997
 30
-9.266471820493493
 70
   192
  0
VERTEX
  5
16CABA
  8
0
 10
2.0
 20
0.3418467533811539
 30
-10.60840243849632
 70
   192
  0
VERTEX
  5
16CABB
  8
0
 10
2.0
 20
-0.3418467533811521
 30
-10.60840243849632
 70
   192
  0
VERTEX
  5
16CABC
  8
0
 10
2.0
 20
-5.350000000000001
 30
-9.266471820493493
 70
   192
  0
VERTEX
  5
16CABD
  8
0
 10
2.0
 20
0.0
 30
-10.75
 70
   192
  0
VERTEX
  5
16CABE
  8
0
 10
2.0
 20
-0.0000000000000007
 30
-10.7
 70
   192
  0
VERTEX
  5
16CABF
  8
0
 10
0.0
 20
0.0
 30
0.0
 70
   128
 71
    10
 72
     9
 73
    -8
  0
VERTEX
  5
16CAC0
  8
0
 10
0.0
 20
0.0
 30
0.0
 70
   128
 71
    -7
 72
    11
 73
   -10
  0
VERTEX
  5
16CAC1
  8
0
 10
0.0
 20
0.0
 30
0.0
 70
   128
 71
     8
 72
    -7
 73
   -10
  0
VERTEX
  5
16CAC2
  8
0
 10
0.0
 20
0.0
 30
0.0
 70
   128
 71
    -6
 72
    12
 73
   -11
  0
VERTEX
  5
16CAC3
  8
0
 10
0.0
 20
0.0
 30
0.0
 70
   128
 71
     7
 72
    -6
 73
   -11
  0
VERTEX
  5
16CAC4
  8
0
 10
0.0
 20
0.0
 30
0.0
 70
   128
 71
    -5
 72
     1
 73
   -12
  0
VERTEX
  5
16CAC5
  8
0
 10
0.0
 20
0.0
 30
0.0
 70
   128
 71
     6
 72
    -5
 73
   -12
  0
VERTEX
  5
16CAC6
  8
0
 10
0.0
 20
0.0
 30
0.0
 70
   128
 71
    -4
 72
     2
 73
    -1
  0
VERTEX
  5
16CAC7
  8
0
 10
0.0
 20
0.0
 30
0.0
 70
   128
 71
     5
 72
    -4
 73
    -1
  0
VERTEX
  5
16CAC8
  8
0
 10
0.0
 20
0.0
 30
0.0
 70
   128
 71
     4
 72
     3
 73
    -2
  0
VERTEX
  5
16CAC9
  8
0
 10
0.0
 20
0.0
 30
0.0
 70
   128
 71
     9
 72
    14
 73
    13
  0
VERTEX
  5
16CACA
  8
0
 10
0.0
 20
0.0
 30
0.0
 70
   128
 71
     3
 72
    16
 73
    15
  0
VERTEX
  5
16CACB
  8
0
 10
0.0
 20
0.0
 30
0.0
 70
   128
 71
    16
 72
    18
 73
    17
  0
VERTEX
  5
16CACC
  8
0
 10
0.0
 20
0.0
 30
0.0
 70
   128
 71
    13
 72
    20
 73
    19
  0
VERTEX
  5
16CACD
  8
0
 10
0.0
 20
0.0
 30
0.0
 70
   128
 71
    18
 72
    22
 73
    21
  0
VERTEX
  5
16CACE
  8
0
 10
0.0
 20
0.0
 30
0.0
 70
   128
 71
    19
 72
    24
 73
    23
  0
VERTEX
  5
16CACF
  8
0
 10
0.0
 20
0.0
 30
0.0
 70
   128
 71
    25
 72
    22
 73
   -26
  0
VERTEX
  5
16CAD0
  8
0
 10
0.0
 20
0.0
 30
0.0
 70
   128
 71
    26
 72
    23
 73
   -25
  0
SEQEND
  5
16D085
  8
0
  0
POLYLINE
  5
16CAD1
  8
0
 66
     1
 10
0.0
 20
0.0
 30
0.0
 70
    64
 71
    10
 72
     8
  0
VERTEX
  5
16CAD2
  8
0
 10
1.999999999998985
 20
10.69999999999898
 30
0.0000000088879757
 70
   192
  0
VERTEX
  5
16CAD3
  8
0
 10
2.200000000000514
 20
10.50000000000051
 30
0.0000000065413853
 70
   192
  0
VERTEX
  5
16CAD4
  8
0
 10
2.2
 20
7.424621202458749
 30
7.424621202458749
 70
   192
  0
VERTEX
  5
16CAD5
  8
0
 10
2.0
 20
7.566042558696059
 30
7.566042558696059
 70
   192
  0
VERTEX
  5
16CAD6
  8
0
 10
2.2
 20
0.0
 30
10.5
 70
   192
  0
VERTEX
  5
16CAD7
  8
0
 10
2.2
 20
-7.42462120245875
 30
7.42462120245875
 70
   192
  0
VERTEX
  5
16CAD8
  8
0
 10
2.0
 20
-7.56604255869606
 30
7.56604255869606
 70
   192
  0
VERTEX
  5
16CAD9
  8
0
 10
2.0
 20
0.0
 30
10.7
 70
   192
  0
VERTEX
  5
16CADA
  8
0
 10
2.2
 20
-10.5
 30
0.0
 70
   192
  0
VERTEX
  5
16CADB
  8
0
 10
2.0000000000005
 20
-10.7000000000005
 30
-0.0000000088879736
 70
   192
  0
VERTEX
  5
16CADC
  8
0
 10
0.0
 20
0.0
 30
0.0
 70
   128
 71
     1
 72
     2
 73
    -3
  0
VERTEX
  5
16CADD
  8
0
 10
0.0
 20
0.0
 30
0.0
 70
   128
 71
     4
 72
    -1
 73
     3
  0
VERTEX
  5
16CADE
  8
0
 10
0.0
 20
0.0
 30
0.0
 70
   128
 71
     5
 72
     6
 73
    -7
  0
VERTEX
  5
16CADF
  8
0
 10
0.0
 20
0.0
 30
0.0
 70
   128
 71
     8
 72
    -5
 73
     7
  0
VERTEX
  5
16CAE0
  8
0
 10
0.0
 20
0.0
 30
0.0
 70
   128
 71
     6
 72
     9
 73
   -10
  0
VERTEX
  5
16CAE1
  8
0
 10
0.0
 20
0.0
 30
0.0
 70
   128
 71
     7
 72
    -6
 73
    10
  0
VERTEX
  5
16CAE2
  8
0
 10
0.0
 20
0.0
 30
0.0
 70
   128
 71
     5
 72
     8
 73
    -4
  0
VERTEX
  5
16CAE3
  8
0
 10
0.0
 20
0.0
 30
0.0
 70
   128
 71
     4
 72
     3
 73
    -5
  0
SEQEND
  5
16D086
  8
0
  0
POLYLINE
  5
16CAE4
  8
0
 66
     1
 10
0.0
 20
0.0
 30
0.0
 70
    64
 71
     8
 72
     6
  0
VERTEX
  5
16CAE5
  8
0
 10
2.2
 20
5.249999999999997
 30
-9.093266739736606
 70
   192
  0
VERTEX
  5
16CAE6
  8
0
 10
2.2
 20
9.093266739736604
 30
-5.250000000000004
 70
   192
  0
VERTEX
  5
16CAE7
  8
0
 10
2.0
 20
9.266471820493491
 30
-5.350000000000003
 70
   192
  0
VERTEX
  5
16CAE8
  8
0
 10
2.0
 20
5.349999999999997
 30
-9.266471820493493
 70
   192
  0
VERTEX
  5
16CAE9
  8
0
 10
2.2
 20
10.5
 30
-0.0000000000000013
 70
   192
  0
VERTEX
  5
16CAEA
  8
0
 10
2.0000000000005
 20
10.7000000000005
 30
0.0000000088879747
 70
   192
  0
VERTEX
  5
16CAEB
  8
0
 10
2.199999999999014
 20
0.0
 30
-10.49999999999901
 70
   192
  0
VERTEX
  5
16CAEC
  8
0
 10
1.999999999999999
 20
0.0
 30
-10.69999999999797
 70
   192
  0
VERTEX
  5
16CAED
  8
0
 10
0.0
 20
0.0
 30
0.0
 70
   128
 71
     1
 72
     2
 73
    -3
  0
VERTEX
  5
16CAEE
  8
0
 10
0.0
 20
0.0
 30
0.0
 70
   128
 71
     4
 72
    -1
 73
     3
  0
VERTEX
  5
16CAEF
  8
0
 10
0.0
 20
0.0
 30
0.0
 70
   128
 71
     2
 72
     5
 73
    -6
  0
VERTEX
  5
16CAF0
  8
0
 10
0.0
 20
0.0
 30
0.0
 70
   128
 71
     3
 72
    -2
 73
     6
  0
VERTEX
  5
16CAF1
  8
0
 10
0.0
 20
0.0
 30
0.0
 70
   128
 71
     7
 72
     1
 73
    -4
  0
VERTEX
  5
16CAF2
  8
0
 10
0.0
 20
0.0
 30
0.0
 70
   128
 71
     8
 72
    -7
 73
     4
  0
SEQEND
  5
16D087
  8
0
  0
POLYLINE
  5
16CAF3
  8
0
 66
     1
 10
0.0
 20
0.0
 30
0.0
 70
    64
 71
    12
 72
    10
  0
VERTEX
  5
16CAF4
  8
0
 10
2.2
 20
-10.5
 30
-0.0000000065413825
 70
   192
  0
VERTEX
  5
16CAF5
  8
0
 10
13.51938161387
 20
-10.5
 30
0.0
 70
   192
  0
VERTEX
  5
16CAF6
  8
0
 10
13.51938161387
 20
-7.42462120245875
 30
-7.42462120245875
 70
   192
  0
VERTEX
  5
16CAF7
  8
0
 10
2.2
 20
-9.093266739736606
 30
-5.249999999999999
 70
   192
  0
VERTEX
  5
16CAF8
  8
0
 10
2.2
 20
-0.0000000000000006
 30
-10.5
 70
   192
  0
VERTEX
  5
16CAF9
  8
0
 10
2.2
 20
-5.250000000000001
 30
-9.093266739736606
 70
   192
  0
VERTEX
  5
16CAFA
  8
0
 10
13.51938161387
 20
0.0
 30
-10.5
 70
   192
  0
VERTEX
  5
16CAFB
  8
0
 10
13.51938161387
 20
10.5
 30
0.0
 70
   192
  0
VERTEX
  5
16CAFC
  8
0
 10
2.200000000000001
 20
10.49999999902018
 30
0.0000000065413845
 70
   192
  0
VERTEX
  5
16CAFD
  8
0
 10
2.2
 20
9.093266739736604
 30
-5.250000000000004
 70
   192
  0
VERTEX
  5
16CAFE
  8
0
 10
2.2
 20
5.249999999999997
 30
-9.093266739736606
 70
   192
  0
VERTEX
  5
16CAFF
  8
0
 10
13.51938161387
 20
7.424621202458749
 30
-7.424621202458749
 70
   192
  0
VERTEX
  5
16CB00
  8
0
 10
0.0
 20
0.0
 30
0.0
 70
   128
 71
     1
 72
     2
 73
     3
  0
VERTEX
  5
16CB01
  8
0
 10
0.0
 20
0.0
 30
0.0
 70
   128
 71
     4
 72
     1
 73
     3
  0
VERTEX
  5
16CB02
  8
0
 10
0.0
 20
0.0
 30
0.0
 70
   128
 71
     5
 72
     6
 73
     7
  0
VERTEX
  5
16CB03
  8
0
 10
0.0
 20
0.0
 30
0.0
 70
   128
 71
     8
 72
     9
 73
    10
  0
VERTEX
  5
16CB04
  8
0
 10
0.0
 20
0.0
 30
0.0
 70
   128
 71
    11
 72
     5
 73
     7
  0
VERTEX
  5
16CB05
  8
0
 10
0.0
 20
0.0
 30
0.0
 70
   128
 71
    12
 72
    11
 73
     7
  0
VERTEX
  5
16CB06
  8
0
 10
0.0
 20
0.0
 30
0.0
 70
   128
 71
     7
 72
     6
 73
     3
  0
VERTEX
  5
16CB07
  8
0
 10
0.0
 20
0.0
 30
0.0
 70
   128
 71
     6
 72
     4
 73
     3
  0
VERTEX
  5
16CB08
  8
0
 10
0.0
 20
0.0
 30
0.0
 70
   128
 71
     8
 72
    10
 73
    12
  0
VERTEX
  5
16CB09
  8
0
 10
0.0
 20
0.0
 30
0.0
 70
   128
 71
    10
 72
    11
 73
    12
  0
SEQEND
  5
16D088
  8
0
  0
POLYLINE
  5
16CB0A
  8
0
 66
     1
 10
0.0
 20
0.0
 30
0.0
 70
    64
 71
    10
 72
     8
  0
VERTEX
  5
16CB0B
  8
0
 10
2.2
 20
10.5
 30
0.0000000065413834
 70
   192
  0
VERTEX
  5
16CB0C
  8
0
 10
13.51938161387
 20
10.5
 30
0.0
 70
   192
  0
VERTEX
  5
16CB0D
  8
0
 10
13.51938161387
 20
7.424621202458749
 30
7.424621202458749
 70
   192
  0
VERTEX
  5
16CB0E
  8
0
 10
2.2
 20
7.424621202458749
 30
7.424621202458749
 70
   192
  0
VERTEX
  5
16CB0F
  8
0
 10
2.2
 20
-7.42462120245875
 30
7.42462120245875
 70
   192
  0
VERTEX
  5
16CB10
  8
0
 10
2.2
 20
0.0
 30
10.5
 70
   192
  0
VERTEX
  5
16CB11
  8
0
 10
13.51938161387
 20
0.0
 30
10.5
 70
   192
  0
VERTEX
  5
16CB12
  8
0
 10
13.51938161387
 20
-7.42462120245875
 30
7.42462120245875
 70
   192
  0
VERTEX
  5
16CB13
  8
0
 10
13.51938161387
 20
-10.5
 30
0.0
 70
   192
  0
VERTEX
  5
16CB14
  8
0
 10
2.200000000000001
 20
-10.49999999902018
 30
-0.0000000065413825
 70
   192
  0
VERTEX
  5
16CB15
  8
0
 10
0.0
 20
0.0
 30
0.0
 70
   128
 71
     1
 72
     2
 73
    -3
  0
VERTEX
  5
16CB16
  8
0
 10
0.0
 20
0.0
 30
0.0
 70
   128
 71
     4
 72
    -1
 73
     3
  0
VERTEX
  5
16CB17
  8
0
 10
0.0
 20
0.0
 30
0.0
 70
   128
 71
     5
 72
     6
 73
    -7
  0
VERTEX
  5
16CB18
  8
0
 10
0.0
 20
0.0
 30
0.0
 70
   128
 71
     8
 72
    -5
 73
     7
  0
VERTEX
  5
16CB19
  8
0
 10
0.0
 20
0.0
 30
0.0
 70
   128
 71
     6
 72
     4
 73
    -3
  0
VERTEX
  5
16CB1A
  8
0
 10
0.0
 20
0.0
 30
0.0
 70
   128
 71
     7
 72
    -6
 73
     3
  0
VERTEX
  5
16CB1B
  8
0
 10
0.0
 20
0.0
 30
0.0
 70
   128
 71
     9
 72
   -10
 73
     8
  0
VERTEX
  5
16CB1C
  8
0
 10
0.0
 20
0.0
 30
0.0
 70
   128
 71
    10
 72
     5
 73
    -8
  0
SEQEND
  5
16D089
  8
0
  0
POLYLINE
  5
16CB1D
  8
0
 66
     1
 10
0.0
 20
0.0
 30
0.0
 70
    64
 71
     8
 72
     6
  0
VERTEX
  5
16CB1E
  8
0
 10
13.51938161387
 20
-10.5
 30
0.0
 70
   192
  0
VERTEX
  5
16CB1F
  8
0
 10
13.51938161387
 20
-7.42462120245875
 30
-7.42462120245875
 70
   192
  0
VERTEX
  5
16CB20
  8
0
 10
13.51938161387
 20
0.0
 30
-10.5
 70
   192
  0
VERTEX
  5
16CB21
  8
0
 10
13.51938161387
 20
7.424621202458749
 30
-7.424621202458749
 70
   192
  0
VERTEX
  5
16CB22
  8
0
 10
13.51938161387
 20
10.5
 30
0.0
 70
   192
  0
VERTEX
  5
16CB23
  8
0
 10
13.51938161387
 20
7.424621202458749
 30
7.424621202458749
 70
   192
  0
VERTEX
  5
16CB24
  8
0
 10
13.51938161387
 20
0.0
 30
10.5
 70
   192
  0
VERTEX
  5
16CB25
  8
0
 10
13.51938161387
 20
-7.42462120245875
 30
7.42462120245875
 70
   192
  0
VERTEX
  5
16CB26
  8
0
 10
0.0
 20
0.0
 30
0.0
 70
   128
 71
     1
 72
     8
 73
    -7
  0
VERTEX
  5
16CB27
  8
0
 10
0.0
 20
0.0
 30
0.0
 70
   128
 71
    -1
 72
     7
 73
    -6
  0
VERTEX
  5
16CB28
  8
0
 10
0.0
 20
0.0
 30
0.0
 70
   128
 71
    -1
 72
     6
 73
    -5
  0
VERTEX
  5
16CB29
  8
0
 10
0.0
 20
0.0
 30
0.0
 70
   128
 71
    -1
 72
     5
 73
    -4
  0
VERTEX
  5
16CB2A
  8
0
 10
0.0
 20
0.0
 30
0.0
 70
   128
 71
    -1
 72
     4
 73
    -3
  0
VERTEX
  5
16CB2B
  8
0
 10
0.0
 20
0.0
 30
0.0
 70
   128
 71
    -1
 72
     3
 73
     2
  0
SEQEND
  5
16D08A
  8
0
  0
POLYLINE
  5
16CB2C
  8
0
 66
     1
 10
0.0
 20
0.0
 30
0.0
 70
    64
 71
    16
 72
    14
  0
VERTEX
  5
16CB2D
  8
0
 10
50.02286653008837
 20
9.999997174570003
 30
-12.48999825895072
 70
   192
  0
VERTEX
  5
16CB2E
  8
0
 10
50.02286653008837
 20
9.999997173924177
 30
-12.48999717323435
 70
   192
  0
VERTEX
  5
16CB2F
  8
0
 10
50.55467953462483
 20
9.999997174569994
 30
-12.21061701584994
 70
   192
  0
VERTEX
  5
16CB30
  8
0
 10
50.15513746589615
 20
9.999997174569943
 30
-11.70853194281112
 70
   192
  0
VERTEX
  5
16CB31
  8
0
 10
49.5831429605098
 20
9.999997172432927
 30
-11.39032850398768
 70
   192
  0
VERTEX
  5
16CB32
  8
0
 10
49.58314341746077
 20
9.999997174569998
 30
-11.39032744542087
 70
   192
  0
VERTEX
  5
16CB33
  8
0
 10
43.0148228763226
 20
9.999997174569998
 30
-4.691028075478193
 70
   192
  0
VERTEX
  5
16CB34
  8
0
 10
43.01483308862228
 20
9.999997174569998
 30
4.691053078463483
 70
   192
  0
VERTEX
  5
16CB35
  8
0
 10
49.58316821398301
 20
9.999997174569998
 30
11.3903381492904
 70
   192
  0
VERTEX
  5
16CB36
  8
0
 10
49.58316737919277
 20
9.9999971688529
 30
11.39034008316643
 70
   192
  0
VERTEX
  5
16CB37
  8
0
 10
50.15568535436712
 20
9.999997174569815
 30
11.70890122801792
 70
   192
  0
VERTEX
  5
16CB38
  8
0
 10
50.55469260779208
 20
9.999997174570083
 30
12.21240618276354
 70
   192
  0
VERTEX
  5
16CB39
  8
0
 10
50.02272103169155
 20
9.999997174879056
 30
12.48999511814795
 70
   192
  0
VERTEX
  5
16CB3A
  8
0
 10
50.02272103169155
 20
9.999997174570003
 30
12.48999825895072
 70
   192
  0
VERTEX
  5
16CB3B
  8
0
 10
40.00000000000004
 20
9.99999717457
 30
12.48999825895072
 70
   192
  0
VERTEX
  5
16CB3C
  8
0
 10
40.00000000000004
 20
9.999997174570003
 30
-12.48999825895072
 70
   192
  0
VERTEX
  5
16CB3D
  8
0
 10
0.0
 20
0.0
 30
0.0
 70
   128
 71
    10
 72
     9
 73
    -8
  0
VERTEX
  5
16CB3E
  8
0
 10
0.0
 20
0.0
 30
0.0
 70
   128
 71
     5
 72
     4
 73
    -3
  0
VERTEX
  5
16CB3F
  8
0
 10
0.0
 20
0.0
 30
0.0
 70
   128
 71
    -5
 72
     3
 73
    -2
  0
VERTEX
  5
16CB40
  8
0
 10
0.0
 20
0.0
 30
0.0
 70
   128
 71
     2
 72
     1
 73
   -16
  0
VERTEX
  5
16CB41
  8
0
 10
0.0
 20
0.0
 30
0.0
 70
   128
 71
    -2
 72
   -16
 73
    -7
  0
VERTEX
  5
16CB42
  8
0
 10
0.0
 20
0.0
 30
0.0
 70
   128
 71
    -2
 72
    -7
 73
    -5
  0
VERTEX
  5
16CB43
  8
0
 10
0.0
 20
0.0
 30
0.0
 70
   128
 71
     7
 72
     6
 73
    -5
  0
VERTEX
  5
16CB44
  8
0
 10
0.0
 20
0.0
 30
0.0
 70
   128
 71
    16
 72
   -15
 73
    -8
  0
VERTEX
  5
16CB45
  8
0
 10
0.0
 20
0.0
 30
0.0
 70
   128
 71
   -16
 72
     8
 73
    -7
  0
VERTEX
  5
16CB46
  8
0
 10
0.0
 20
0.0
 30
0.0
 70
   128
 71
   -10
 72
    -8
 73
   -15
  0
VERTEX
  5
16CB47
  8
0
 10
0.0
 20
0.0
 30
0.0
 70
   128
 71
   -10
 72
   -15
 73
   -13
  0
VERTEX
  5
16CB48
  8
0
 10
0.0
 20
0.0
 30
0.0
 70
   128
 71
    13
 72
    12
 73
   -11
  0
VERTEX
  5
16CB49
  8
0
 10
0.0
 20
0.0
 30
0.0
 70
   128
 71
   -13
 72
    11
 73
   -10
  0
VERTEX
  5
16CB4A
  8
0
 10
0.0
 20
0.0
 30
0.0
 70
   128
 71
    15
 72
    14
 73
   -13
  0
SEQEND
  5
16D08B
  8
0
  0
POLYLINE
  5
16CB4B
  8
0
 66
     1
 10
0.0
 20
0.0
 30
0.0
 70
    64
 71
     8
 72
     6
  0
VERTEX
  5
16CB4C
  8
0
 10
35.0
 20
14.99999717457004
 30
-5.567771974757134
 70
   192
  0
VERTEX
  5
16CB4D
  8
0
 10
35.0
 20
14.99999717457004
 30
5.567771974757134
 70
   192
  0
VERTEX
  5
16CB4E
  8
0
 10
35.28244095550304
 20
13.34311667472647
 30
8.829566575678392
 70
   192
  0
VERTEX
  5
16CB4F
  8
0
 10
35.28713042922504
 20
13.32985908808135
 30
-8.849565107279348
 70
   192
  0
VERTEX
  5
16CB50
  8
0
 10
36.75534615568258
 20
11.19558044642911
 30
11.43060703989192
 70
   192
  0
VERTEX
  5
16CB51
  8
0
 10
40.00000000000004
 20
9.99999717457
 30
12.48999825895072
 70
   192
  0
VERTEX
  5
16CB52
  8
0
 10
36.76312945895394
 20
11.18898018631611
 30
-11.43707216271733
 70
   192
  0
VERTEX
  5
16CB53
  8
0
 10
40.00000000000004
 20
9.99999717457
 30
-12.48999825895072
 70
   192
  0
VERTEX
  5
16CB54
  8
0
 10
0.0
 20
0.0
 30
0.0
 70
   128
 71
     1
 72
     2
 73
     3
  0
VERTEX
  5
16CB55
  8
0
 10
0.0
 20
0.0
 30
0.0
 70
   128
 71
     4
 72
     1
 73
     3
  0
VERTEX
  5
16CB56
  8
0
 10
0.0
 20
0.0
 30
0.0
 70
   128
 71
     3
 72
     5
 73
     6
  0
VERTEX
  5
16CB57
  8
0
 10
0.0
 20
0.0
 30
0.0
 70
   128
 71
     4
 72
     3
 73
     6
  0
VERTEX
  5
16CB58
  8
0
 10
0.0
 20
0.0
 30
0.0
 70
   128
 71
     7
 72
     4
 73
     6
  0
VERTEX
  5
16CB59
  8
0
 10
0.0
 20
0.0
 30
0.0
 70
   128
 71
     6
 72
     8
 73
     7
  0
SEQEND
  5
16D08C
  8
0
  0
POLYLINE
  5
16CB5A
  8
0
 66
     1
 10
0.0
 20
0.0
 30
0.0
 70
    64
 71
     7
 72
     5
  0
VERTEX
  5
16CB5B
  8
0
 10
35.0
 20
16.0
 30
-0.0000000000000029
 70
   192
  0
VERTEX
  5
16CB5C
  8
0
 10
35.0
 20
15.88784275369293
 30
-1.891151139895256
 70
   192
  0
VERTEX
  5
16CB5D
  8
0
 10
35.0
 20
15.55294342075911
 30
-3.755788991765382
 70
   192
  0
VERTEX
  5
16CB5E
  8
0
 10
35.0
 20
14.99999717457004
 30
-5.567771974757134
 70
   192
  0
VERTEX
  5
16CB5F
  8
0
 10
35.0
 20
14.99999717457004
 30
5.567771974757136
 70
   192
  0
VERTEX
  5
16CB60
  8
0
 10
35.0
 20
15.55294342075911
 30
3.755788991765376
 70
   192
  0
VERTEX
  5
16CB61
  8
0
 10
35.0
 20
15.88784275369293
 30
1.89115113989525
 70
   192
  0
VERTEX
  5
16CB62
  8
0
 10
0.0
 20
0.0
 30
0.0
 70
   128
 71
     1
 72
     7
 73
    -6
  0
VERTEX
  5
16CB63
  8
0
 10
0.0
 20
0.0
 30
0.0
 70
   128
 71
    -1
 72
     6
 73
    -5
  0
VERTEX
  5
16CB64
  8
0
 10
0.0
 20
0.0
 30
0.0
 70
   128
 71
    -1
 72
     5
 73
    -4
  0
VERTEX
  5
16CB65
  8
0
 10
0.0
 20
0.0
 30
0.0
 70
   128
 71
    -1
 72
     4
 73
    -3
  0
VERTEX
  5
16CB66
  8
0
 10
0.0
 20
0.0
 30
0.0
 70
   128
 71
    -1
 72
     3
 73
     2
  0
SEQEND
  5
16D08D
  8
0
  0
POLYLINE
  5
16CB67
  8
0
 66
     1
 10
0.0
 20
0.0
 30
0.0
 70
    64
 71
    10
 72
     8
  0
VERTEX
  5
16CB68
  8
0
 10
63.72090214882167
 20
9.99999717457
 30
8.3
 70
   192
  0
VERTEX
  5
16CB69
  8
0
 10
65.0
 20
9.999997174569998
 30
8.300000000000004
 70
   192
  0
VERTEX
  5
16CB6A
  8
0
 10
65.0
 20
9.999997174570003
 30
12.48999825895072
 70
   192
  0
VERTEX
  5
16CB6B
  8
0
 10
58.97699589244054
 20
9.999997174569993
 30
12.4899982507419
 70
   192
  0
VERTEX
  5
16CB6C
  8
0
 10
58.44532605022561
 20
9.99999717456999
 30
12.21055237080438
 70
   192
  0
VERTEX
  5
16CB6D
  8
0
 10
58.84488829577177
 20
9.999997174569941
 30
11.70851399545517
 70
   192
  0
VERTEX
  5
16CB6E
  8
0
 10
59.41685108885994
 20
9.999997169948719
 30
11.3903312221253
 70
   192
  0
VERTEX
  5
16CB6F
  8
0
 10
59.41685057753545
 20
9.999997174569998
 30
11.39033003759577
 70
   192
  0
VERTEX
  5
16CB70
  8
0
 10
60.99488449835798
 20
9.999997174569998
 30
10.57031282981523
 70
   192
  0
VERTEX
  5
16CB71
  8
0
 10
62.43946266863598
 20
9.999997174569998
 30
9.533098683036007
 70
   192
  0
VERTEX
  5
16CB72
  8
0
 10
0.0
 20
0.0
 30
0.0
 70
   128
 71
     7
 72
     6
 73
    -5
  0
VERTEX
  5
16CB73
  8
0
 10
0.0
 20
0.0
 30
0.0
 70
   128
 71
    -7
 72
     5
 73
    -4
  0
VERTEX
  5
16CB74
  8
0
 10
0.0
 20
0.0
 30
0.0
 70
   128
 71
    -4
 72
    -9
 73
    -7
  0
VERTEX
  5
16CB75
  8
0
 10
0.0
 20
0.0
 30
0.0
 70
   128
 71
     9
 72
     8
 73
    -7
  0
VERTEX
  5
16CB76
  8
0
 10
0.0
 20
0.0
 30
0.0
 70
   128
 71
     4
 72
     3
 73
    -2
  0
VERTEX
  5
16CB77
  8
0
 10
0.0
 20
0.0
 30
0.0
 70
   128
 71
    -4
 72
    -2
 73
   -10
  0
VERTEX
  5
16CB78
  8
0
 10
0.0
 20
0.0
 30
0.0
 70
   128
 71
    -4
 72
    10
 73
    -9
  0
VERTEX
  5
16CB79
  8
0
 10
0.0
 20
0.0
 30
0.0
 70
   128
 71
     2
 72
     1
 73
   -10
  0
SEQEND
  5
16D08E
  8
0
  0
POLYLINE
  5
16CB7A
  8
0
 66
     1
 10
0.0
 20
0.0
 30
0.0
 70
    64
 71
     9
 72
     7
  0
VERTEX
  5
16CB7B
  8
0
 10
65.0
 20
9.999997174569998
 30
-12.48999825895072
 70
   192
  0
VERTEX
  5
16CB7C
  8
0
 10
65.0
 20
9.999997174569998
 30
-8.3
 70
   192
  0
VERTEX
  5
16CB7D
  8
0
 10
63.7209025682426
 20
9.999997174569998
 30
-8.299999626153257
 70
   192
  0
VERTEX
  5
16CB7E
  8
0
 10
62.43945206208318
 20
9.999997174569998
 30
-9.533107516494834
 70
   192
  0
VERTEX
  5
16CB7F
  8
0
 10
60.99486044308577
 20
9.999997174569998
 30
-10.57032761043889
 70
   192
  0
VERTEX
  5
16CB80
  8
0
 10
59.41681140866329
 20
9.999997169423725
 30
-11.390346948376
 70
   192
  0
VERTEX
  5
16CB81
  8
0
 10
58.84435322126457
 20
9.999997174569819
 30
-11.70887102250606
 70
   192
  0
VERTEX
  5
16CB82
  8
0
 10
58.44529903596761
 20
9.99999717457008
 30
-12.21227656311385
 70
   192
  0
VERTEX
  5
16CB83
  8
0
 10
58.97708000869198
 20
9.999997174570003
 30
-12.48999825895072
 70
   192
  0
VERTEX
  5
16CB84
  8
0
 10
0.0
 20
0.0
 30
0.0
 70
   128
 71
     4
 72
     3
 73
    -2
  0
VERTEX
  5
16CB85
  8
0
 10
0.0
 20
0.0
 30
0.0
 70
   128
 71
    -4
 72
     2
 73
    -1
  0
VERTEX
  5
16CB86
  8
0
 10
0.0
 20
0.0
 30
0.0
 70
   128
 71
     1
 72
    -9
 73
    -5
  0
VERTEX
  5
16CB87
  8
0
 10
0.0
 20
0.0
 30
0.0
 70
   128
 71
    -1
 72
     5
 73
    -4
  0
VERTEX
  5
16CB88
  8
0
 10
0.0
 20
0.0
 30
0.0
 70
   128
 71
    -9
 72
     6
 73
    -5
  0
VERTEX
  5
16CB89
  8
0
 10
0.0
 20
0.0
 30
0.0
 70
   128
 71
     9
 72
     8
 73
    -7
  0
VERTEX
  5
16CB8A
  8
0
 10
0.0
 20
0.0
 30
0.0
 70
   128
 71
    -9
 72
     7
 73
    -6
  0
SEQEND
  5
16D08F
  8
0
  0
POLYLINE
  5
16CB8B
  8
0
 66
     1
 10
0.0
 20
0.0
 30
0.0
 70
    64
 71
    17
 72
    17
  0
VERTEX
  5
16CB8C
  8
0
 10
33.0
 20
-18.25
 30
-0.0000000000626203
 70
   192
  0
VERTEX
  5
16CB8D
  8
0
 10
30.99467844095783
 20
-18.25
 30
6.171745149042232
 70
   192
  0
VERTEX
  5
16CB8E
  8
0
 10
25.74467844094495
 20
-18.25
 30
9.98609342109651
 70
   192
  0
VERTEX
  5
16CB8F
  8
0
 10
19.25532155904529
 20
-18.25
 30
9.98609342109334
 70
   192
  0
VERTEX
  5
16CB90
  8
0
 10
14.00532155903614
 20
-18.25
 30
6.171745149033928
 70
   192
  0
VERTEX
  5
16CB91
  8
0
 10
12.0
 20
-18.25
 30
-0.0000000000728847
 70
   192
  0
VERTEX
  5
16CB92
  8
0
 10
15.07537879756883
 20
-18.25
 30
-7.42462120248633
 70
   192
  0
VERTEX
  5
16CB93
  8
0
 10
22.50000000000513
 20
-18.25
 30
-10.5
 70
   192
  0
VERTEX
  5
16CB94
  8
0
 10
29.92462120243842
 20
-18.25
 30
-7.424621202479076
 70
   192
  0
VERTEX
  5
16CB95
  8
0
 10
22.5
 20
-18.25
 30
9.250000000000005
 70
   192
  0
VERTEX
  5
16CB96
  8
0
 10
29.04073772597557
 20
-18.25
 30
6.540737725975569
 70
   192
  0
VERTEX
  5
16CB97
  8
0
 10
31.75000000000001
 20
-18.25
 30
0.0
 70
   192
  0
VERTEX
  5
16CB98
  8
0
 10
29.04073772597557
 20
-18.25
 30
-6.540737725975568
 70
   192
  0
VERTEX
  5
16CB99
  8
0
 10
22.5
 20
-18.25
 30
-9.250000000000004
 70
   192
  0
VERTEX
  5
16CB9A
  8
0
 10
15.95926227402443
 20
-18.25
 30
-6.540737725975567
 70
   192
  0
VERTEX
  5
16CB9B
  8
0
 10
13.25
 20
-18.25
 30
0.000000000000001
 70
   192
  0
VERTEX
  5
16CB9C
  8
0
 10
15.95926227402443
 20
-18.25
 30
6.540737725975569
 70
   192
  0
VERTEX
  5
16CB9D
  8
0
 10
0.0
 20
0.0
 30
0.0
 70
   128
 71
    -3
 72
    10
 73
   -11
  0
VERTEX
  5
16CB9E
  8
0
 10
0.0
 20
0.0
 30
0.0
 70
   128
 71
     2
 72
    -3
 73
   -11
  0
VERTEX
  5
16CB9F
  8
0
 10
0.0
 20
0.0
 30
0.0
 70
   128
 71
   -12
 72
     1
 73
    -2
  0
VERTEX
  5
16CBA0
  8
0
 10
0.0
 20
0.0
 30
0.0
 70
   128
 71
    11
 72
   -12
 73
    -2
  0
VERTEX
  5
16CBA1
  8
0
 10
0.0
 20
0.0
 30
0.0
 70
   128
 71
   -13
 72
     9
 73
    -1
  0
VERTEX
  5
16CBA2
  8
0
 10
0.0
 20
0.0
 30
0.0
 70
   128
 71
    12
 72
   -13
 73
    -1
  0
VERTEX
  5
16CBA3
  8
0
 10
0.0
 20
0.0
 30
0.0
 70
   128
 71
   -14
 72
     8
 73
    -9
  0
VERTEX
  5
16CBA4
  8
0
 10
0.0
 20
0.0
 30
0.0
 70
   128
 71
    13
 72
   -14
 73
    -9
  0
VERTEX
  5
16CBA5
  8
0
 10
0.0
 20
0.0
 30
0.0
 70
   128
 71
   -15
 72
     7
 73
    -8
  0
VERTEX
  5
16CBA6
  8
0
 10
0.0
 20
0.0
 30
0.0
 70
   128
 71
    14
 72
   -15
 73
    -8
  0
VERTEX
  5
16CBA7
  8
0
 10
0.0
 20
0.0
 30
0.0
 70
   128
 71
   -16
 72
     6
 73
    -7
  0
VERTEX
  5
16CBA8
  8
0
 10
0.0
 20
0.0
 30
0.0
 70
   128
 71
    15
 72
   -16
 73
    -7
  0
VERTEX
  5
16CBA9
  8
0
 10
0.0
 20
0.0
 30
0.0
 70
   128
 71
   -17
 72
     5
 73
    -6
  0
VERTEX
  5
16CBAA
  8
0
 10
0.0
 20
0.0
 30
0.0
 70
   128
 71
    16
 72
   -17
 73
    -6
  0
VERTEX
  5
16CBAB
  8
0
 10
0.0
 20
0.0
 30
0.0
 70
   128
 71
   -10
 72
     4
 73
    -5
  0
VERTEX
  5
16CBAC
  8
0
 10
0.0
 20
0.0
 30
0.0
 70
   128
 71
    17
 72
   -10
 73
    -5
  0
VERTEX
  5
16CBAD
  8
0
 10
0.0
 20
0.0
 30
0.0
 70
   128
 71
   -10
 72
     3
 73
    -4
  0
SEQEND
  5
16D090
  8
0
  0
POLYLINE
  5
16CBAE
  8
0
 66
     1
 10
0.0
 20
0.0
 30
0.0
 70
    64
 71
    10
 72
     8
  0
VERTEX
  5
16CBAF
  8
0
 10
22.5
 20
-18.25
 30
9.250000000000004
 70
   192
  0
VERTEX
  5
16CBB0
  8
0
 10
22.5
 20
-18.25
 30
-9.250000000000004
 70
   192
  0
VERTEX
  5
16CBB1
  8
0
 10
22.5
 20
-29.5
 30
-9.250000000000004
 70
   192
  0
VERTEX
  5
16CBB2
  8
0
 10
22.5
 20
-29.5
 30
9.250000000000004
 70
   192
  0
VERTEX
  5
16CBB3
  8
0
 10
13.25
 20
-29.5
 30
0.000000000000001
 70
   192
  0
VERTEX
  5
16CBB4
  8
0
 10
13.25
 20
-18.25
 30
0.000000000000001
 70
   192
  0
VERTEX
  5
16CBB5
  8
0
 10
15.95926227402443
 20
-29.5
 30
6.540737725975569
 70
   192
  0
VERTEX
  5
16CBB6
  8
0
 10
15.95926227402443
 20
-18.25
 30
6.540737725975569
 70
   192
  0
VERTEX
  5
16CBB7
  8
0
 10
15.95926227402443
 20
-29.5
 30
-6.540737725975567
 70
   192
  0
VERTEX
  5
16CBB8
  8
0
 10
15.95926227402443
 20
-18.25
 30
-6.540737725975567
 70
   192
  0
VERTEX
  5
16CBB9
  8
0
 10
0.0
 20
0.0
 30
0.0
 70
   128
 71
     8
 72
     7
 73
    -4
  0
VERTEX
  5
16CBBA
  8
0
 10
0.0
 20
0.0
 30
0.0
 70
   128
 71
    -8
 72
     4
 73
     1
  0
VERTEX
  5
16CBBB
  8
0
 10
0.0
 20
0.0
 30
0.0
 70
   128
 71
     6
 72
     5
 73
    -7
  0
VERTEX
  5
16CBBC
  8
0
 10
0.0
 20
0.0
 30
0.0
 70
   128
 71
    -6
 72
     7
 73
     8
  0
VERTEX
  5
16CBBD
  8
0
 10
0.0
 20
0.0
 30
0.0
 70
   128
 71
    10
 72
     9
 73
    -5
  0
VERTEX
  5
16CBBE
  8
0
 10
0.0
 20
0.0
 30
0.0
 70
   128
 71
   -10
 72
     5
 73
     6
  0
VERTEX
  5
16CBBF
  8
0
 10
0.0
 20
0.0
 30
0.0
 70
   128
 71
     2
 72
     3
 73
    -9
  0
VERTEX
  5
16CBC0
  8
0
 10
0.0
 20
0.0
 30
0.0
 70
   128
 71
    -2
 72
     9
 73
    10
  0
SEQEND
  5
16D091
  8
0
  0
POLYLINE
  5
16CBC1
  8
0
 66
     1
 10
0.0
 20
0.0
 30
0.0
 70
    64
 71
     5
 72
     3
  0
VERTEX
  5
16CBC2
  8
0
 10
13.71
 20
-16.0
 30
0.000000000000026
 70
   192
  0
VERTEX
  5
16CBC3
  8
0
 10
31.29
 20
-16.0
 30
0.0
 70
   192
  0
VERTEX
  5
16CBC4
  8
0
 10
28.70793183286854
 20
-14.74022786939057
 30
6.222996252484962
 70
   192
  0
VERTEX
  5
16CBC5
  8
0
 10
16.26991346721519
 20
-14.74957213637001
 30
6.200816219984072
 70
   192
  0
VERTEX
  5
16CBC6
  8
0
 10
22.48089563405547
 20
-13.36922828650951
 30
8.789979239065012
 70
   192
  0
VERTEX
  5
16CBC7
  8
0
 10
0.0
 20
0.0
 30
0.0
 70
   128
 71
     1
 72
     2
 73
     3
  0
VERTEX
  5
16CBC8
  8
0
 10
0.0
 20
0.0
 30
0.0
 70
   128
 71
     4
 72
     1
 73
     3
  0
VERTEX
  5
16CBC9
  8
0
 10
0.0
 20
0.0
 30
0.0
 70
   128
 71
     4
 72
     3
 73
     5
  0
SEQEND
  5
16D092
  8
0
  0
POLYLINE
  5
16CBCA
  8
0
 66
     1
 10
0.0
 20
0.0
 30
0.0
 70
    64
 71
    10
 72
     8
  0
VERTEX
  5
16CBCB
  8
0
 10
13.71
 20
-16.0
 30
0.0
 70
   192
  0
VERTEX
  5
16CBCC
  8
0
 10
13.71
 20
-27.5
 30
0.0
 70
   192
  0
VERTEX
  5
16CBCD
  8
0
 10
16.28453139337025
 20
-27.5
 30
-6.215468606629752
 70
   192
  0
VERTEX
  5
16CBCE
  8
0
 10
22.5
 20
-27.5
 30
-8.790000000000001
 70
   192
  0
VERTEX
  5
16CBCF
  8
0
 10
16.29339137361147
 20
-14.73967064222078
 30
-6.224315975177902
 70
   192
  0
VERTEX
  5
16CBD0
  8
0
 10
31.29
 20
-27.5
 30
0.0
 70
   192
  0
VERTEX
  5
16CBD1
  8
0
 10
31.29
 20
-16.0
 30
0.0
 70
   192
  0
VERTEX
  5
16CBD2
  8
0
 10
28.73325912664344
 20
-14.75091249177008
 30
-6.197627018475821
 70
   192
  0
VERTEX
  5
16CBD3
  8
0
 10
28.71546860662976
 20
-27.5
 30
-6.215468606629754
 70
   192
  0
VERTEX
  5
16CBD4
  8
0
 10
22.5225880526349
 20
-13.36923371850849
 30
-8.789970977193024
 70
   192
  0
VERTEX
  5
16CBD5
  8
0
 10
0.0
 20
0.0
 30
0.0
 70
   128
 71
     1
 72
     2
 73
     3
  0
VERTEX
  5
16CBD6
  8
0
 10
0.0
 20
0.0
 30
0.0
 70
   128
 71
     3
 72
     4
 73
     5
  0
VERTEX
  5
16CBD7
  8
0
 10
0.0
 20
0.0
 30
0.0
 70
   128
 71
     6
 72
     7
 73
     8
  0
VERTEX
  5
16CBD8
  8
0
 10
0.0
 20
0.0
 30
0.0
 70
   128
 71
     9
 72
     6
 73
     8
  0
VERTEX
  5
16CBD9
  8
0
 10
0.0
 20
0.0
 30
0.0
 70
   128
 71
     3
 72
     5
 73
     1
  0
VERTEX
  5
16CBDA
  8
0
 10
0.0
 20
0.0
 30
0.0
 70
   128
 71
    10
 72
     5
 73
     4
  0
VERTEX
  5
16CBDB
  8
0
 10
0.0
 20
0.0
 30
0.0
 70
   128
 71
     8
 72
    10
 73
     4
  0
VERTEX
  5
16CBDC
  8
0
 10
0.0
 20
0.0
 30
0.0
 70
   128
 71
     9
 72
     8
 73
     4
  0
SEQEND
  5
16D093
  8
0
  0
POLYLINE
  5
16CBDD
  8
0
 66
     1
 10
0.0
 20
0.0
 30
0.0
 70
    64
 71
    10
 72
     8
  0
VERTEX
  5
16CBDE
  8
0
 10
31.29
 20
-16.0
 30
0.0
 70
   192
  0
VERTEX
  5
16CBDF
  8
0
 10
31.29
 20
-27.5
 30
0.0
 70
   192
  0
VERTEX
  5
16CBE0
  8
0
 10
28.71546860662976
 20
-27.5
 30
6.215468606629754
 70
   192
  0
VERTEX
  5
16CBE1
  8
0
 10
22.5
 20
-27.5
 30
8.790000000000001
 70
   192
  0
VERTEX
  5
16CBE2
  8
0
 10
28.70793183286854
 20
-14.74022786939057
 30
6.222996252484962
 70
   192
  0
VERTEX
  5
16CBE3
  8
0
 10
13.71
 20
-27.5
 30
0.0
 70
   192
  0
VERTEX
  5
16CBE4
  8
0
 10
13.71
 20
-16.0
 30
0.0
 70
   192
  0
VERTEX
  5
16CBE5
  8
0
 10
16.26991346721519
 20
-14.74957213637001
 30
6.200816219984072
 70
   192
  0
VERTEX
  5
16CBE6
  8
0
 10
16.28453139337025
 20
-27.5
 30
6.215468606629752
 70
   192
  0
VERTEX
  5
16CBE7
  8
0
 10
22.48089563405547
 20
-13.36922828650951
 30
8.789979239065012
 70
   192
  0
VERTEX
  5
16CBE8
  8
0
 10
0.0
 20
0.0
 30
0.0
 70
   128
 71
     1
 72
     2
 73
     3
  0
VERTEX
  5
16CBE9
  8
0
 10
0.0
 20
0.0
 30
0.0
 70
   128
 71
     3
 72
     4
 73
     5
  0
VERTEX
  5
16CBEA
  8
0
 10
0.0
 20
0.0
 30
0.0
 70
   128
 71
     6
 72
     7
 73
     8
  0
VERTEX
  5
16CBEB
  8
0
 10
0.0
 20
0.0
 30
0.0
 70
   128
 71
     9
 72
     6
 73
     8
  0
VERTEX
  5
16CBEC
  8
0
 10
0.0
 20
0.0
 30
0.0
 70
   128
 71
     3
 72
     5
 73
     1
  0
VERTEX
  5
16CBED
  8
0
 10
0.0
 20
0.0
 30
0.0
 70
   128
 71
    10
 72
     5
 73
     4
  0
VERTEX
  5
16CBEE
  8
0
 10
0.0
 20
0.0
 30
0.0
 70
   128
 71
     8
 72
    10
 73
     4
  0
VERTEX
  5
16CBEF
  8
0
 10
0.0
 20
0.0
 30
0.0
 70
   128
 71
     9
 72
     8
 73
     4
  0
SEQEND
  5
16D094
  8
0
  0
POLYLINE
  5
16CBF0
  8
0
 66
     1
 10
0.0
 20
0.0
 30
0.0
 70
    64
 71
    16
 72
    16
  0
VERTEX
  5
16CBF1
  8
0
 10
13.71
 20
-27.5
 30
0.0
 70
   192
  0
VERTEX
  5
16CBF2
  8
0
 10
16.28453139337025
 20
-27.5
 30
-6.215468606629752
 70
   192
  0
VERTEX
  5
16CBF3
  8
0
 10
22.5
 20
-27.5
 30
-8.790000000000001
 70
   192
  0
VERTEX
  5
16CBF4
  8
0
 10
28.71546860662976
 20
-27.5
 30
-6.215468606629754
 70
   192
  0
VERTEX
  5
16CBF5
  8
0
 10
31.29
 20
-27.5
 30
0.0
 70
   192
  0
VERTEX
  5
16CBF6
  8
0
 10
28.71546860662976
 20
-27.5
 30
6.215468606629754
 70
   192
  0
VERTEX
  5
16CBF7
  8
0
 10
22.5
 20
-27.5
 30
8.790000000000001
 70
   192
  0
VERTEX
  5
16CBF8
  8
0
 10
16.28453139337025
 20
-27.5
 30
6.215468606629752
 70
   192
  0
VERTEX
  5
16CBF9
  8
0
 10
15.0
 20
-27.5
 30
0.0
 70
   192
  0
VERTEX
  5
16CBFA
  8
0
 10
17.19669914110089
 20
-27.5
 30
5.303300858899107
 70
   192
  0
VERTEX
  5
16CBFB
  8
0
 10
22.5
 20
-27.5
 30
7.500000000000002
 70
   192
  0
VERTEX
  5
16CBFC
  8
0
 10
27.80330085889911
 20
-27.5
 30
5.303300858899108
 70
   192
  0
VERTEX
  5
16CBFD
  8
0
 10
30.0
 20
-27.5
 30
0.0
 70
   192
  0
VERTEX
  5
16CBFE
  8
0
 10
27.80330085889911
 20
-27.5
 30
-5.303300858899108
 70
   192
  0
VERTEX
  5
16CBFF
  8
0
 10
22.5
 20
-27.5
 30
-7.500000000000002
 70
   192
  0
VERTEX
  5
16CC00
  8
0
 10
17.19669914110089
 20
-27.5
 30
-5.303300858899107
 70
   192
  0
VERTEX
  5
16CC01
  8
0
 10
0.0
 20
0.0
 30
0.0
 70
   128
 71
    10
 72
    -9
 73
    -1
  0
VERTEX
  5
16CC02
  8
0
 10
0.0
 20
0.0
 30
0.0
 70
   128
 71
   -10
 72
     1
 73
    -8
  0
VERTEX
  5
16CC03
  8
0
 10
0.0
 20
0.0
 30
0.0
 70
   128
 71
     8
 72
    -7
 73
   -11
  0
VERTEX
  5
16CC04
  8
0
 10
0.0
 20
0.0
 30
0.0
 70
   128
 71
    -8
 72
    11
 73
   -10
  0
VERTEX
  5
16CC05
  8
0
 10
0.0
 20
0.0
 30
0.0
 70
   128
 71
     7
 72
    -6
 73
   -12
  0
VERTEX
  5
16CC06
  8
0
 10
0.0
 20
0.0
 30
0.0
 70
   128
 71
    -7
 72
    12
 73
   -11
  0
VERTEX
  5
16CC07
  8
0
 10
0.0
 20
0.0
 30
0.0
 70
   128
 71
     6
 72
    -5
 73
   -13
  0
VERTEX
  5
16CC08
  8
0
 10
0.0
 20
0.0
 30
0.0
 70
   128
 71
    -6
 72
    13
 73
   -12
  0
VERTEX
  5
16CC09
  8
0
 10
0.0
 20
0.0
 30
0.0
 70
   128
 71
     5
 72
    -4
 73
   -14
  0
VERTEX
  5
16CC0A
  8
0
 10
0.0
 20
0.0
 30
0.0
 70
   128
 71
    -5
 72
    14
 73
   -13
  0
VERTEX
  5
16CC0B
  8
0
 10
0.0
 20
0.0
 30
0.0
 70
   128
 71
     4
 72
    -3
 73
   -15
  0
VERTEX
  5
16CC0C
  8
0
 10
0.0
 20
0.0
 30
0.0
 70
   128
 71
    -4
 72
    15
 73
   -14
  0
VERTEX
  5
16CC0D
  8
0
 10
0.0
 20
0.0
 30
0.0
 70
   128
 71
     3
 72
    -2
 73
   -16
  0
VERTEX
  5
16CC0E
  8
0
 10
0.0
 20
0.0
 30
0.0
 70
   128
 71
    -3
 72
    16
 73
   -15
  0
VERTEX
  5
16CC0F
  8
0
 10
0.0
 20
0.0
 30
0.0
 70
   128
 71
     2
 72
    -1
 73
    -9
  0
VERTEX
  5
16CC10
  8
0
 10
0.0
 20
0.0
 30
0.0
 70
   128
 71
    -2
 72
     9
 73
   -16
  0
SEQEND
  5
16D095
  8
0
  0
POLYLINE
  5
16CC11
  8
0
 66
     1
 10
0.0
 20
0.0
 30
0.0
 70
    64
 71
    10
 72
     8
  0
VERTEX
  5
16CC12
  8
0
 10
15.0
 20
-27.5
 30
0.0
 70
   192
  0
VERTEX
  5
16CC13
  8
0
 10
30.0
 20
-27.5
 30
0.0
 70
   192
  0
VERTEX
  5
16CC14
  8
0
 10
30.0
 20
-29.5
 30
0.0
 70
   192
  0
VERTEX
  5
16CC15
  8
0
 10
15.0
 20
-29.5
 30
0.0
 70
   192
  0
VERTEX
  5
16CC16
  8
0
 10
22.5
 20
-29.5
 30
-7.500000000000002
 70
   192
  0
VERTEX
  5
16CC17
  8
0
 10
22.5
 20
-27.5
 30
-7.500000000000002
 70
   192
  0
VERTEX
  5
16CC18
  8
0
 10
17.19669914110089
 20
-29.5
 30
-5.303300858899107
 70
   192
  0
VERTEX
  5
16CC19
  8
0
 10
17.19669914110089
 20
-27.5
 30
-5.303300858899107
 70
   192
  0
VERTEX
  5
16CC1A
  8
0
 10
27.80330085889911
 20
-29.5
 30
-5.303300858899108
 70
   192
  0
VERTEX
  5
16CC1B
  8
0
 10
27.80330085889911
 20
-27.5
 30
-5.303300858899108
 70
   192
  0
VERTEX
  5
16CC1C
  8
0
 10
0.0
 20
0.0
 30
0.0
 70
   128
 71
     8
 72
     1
 73
    -4
  0
VERTEX
  5
16CC1D
  8
0
 10
0.0
 20
0.0
 30
0.0
 70
   128
 71
     7
 72
    -8
 73
     4
  0
VERTEX
  5
16CC1E
  8
0
 10
0.0
 20
0.0
 30
0.0
 70
   128
 71
     6
 72
     8
 73
    -7
  0
VERTEX
  5
16CC1F
  8
0
 10
0.0
 20
0.0
 30
0.0
 70
   128
 71
     5
 72
    -6
 73
     7
  0
VERTEX
  5
16CC20
  8
0
 10
0.0
 20
0.0
 30
0.0
 70
   128
 71
    10
 72
     6
 73
    -5
  0
VERTEX
  5
16CC21
  8
0
 10
0.0
 20
0.0
 30
0.0
 70
   128
 71
     9
 72
   -10
 73
     5
  0
VERTEX
  5
16CC22
  8
0
 10
0.0
 20
0.0
 30
0.0
 70
   128
 71
     2
 72
    10
 73
    -9
  0
VERTEX
  5
16CC23
  8
0
 10
0.0
 20
0.0
 30
0.0
 70
   128
 71
     3
 72
    -2
 73
     9
  0
SEQEND
  5
16D096
  8
0
  0
POLYLINE
  5
16CC24
  8
0
 66
     1
 10
0.0
 20
0.0
 30
0.0
 70
    64
 71
    10
 72
     8
  0
VERTEX
  5
16CC25
  8
0
 10
30.0
 20
-27.5
 30
0.0
 70
   192
  0
VERTEX
  5
16CC26
  8
0
 10
15.0
 20
-27.5
 30
0.0
 70
   192
  0
VERTEX
  5
16CC27
  8
0
 10
15.0
 20
-29.5
 30
0.0
 70
   192
  0
VERTEX
  5
16CC28
  8
0
 10
30.0
 20
-29.5
 30
0.0
 70
   192
  0
VERTEX
  5
16CC29
  8
0
 10
22.5
 20
-29.5
 30
7.500000000000002
 70
   192
  0
VERTEX
  5
16CC2A
  8
0
 10
22.5
 20
-27.5
 30
7.500000000000002
 70
   192
  0
VERTEX
  5
16CC2B
  8
0
 10
27.80330085889911
 20
-29.5
 30
5.303300858899108
 70
   192
  0
VERTEX
  5
16CC2C
  8
0
 10
27.80330085889911
 20
-27.5
 30
5.303300858899108
 70
   192
  0
VERTEX
  5
16CC2D
  8
0
 10
17.19669914110089
 20
-29.5
 30
5.303300858899107
 70
   192
  0
VERTEX
  5
16CC2E
  8
0
 10
17.19669914110089
 20
-27.5
 30
5.303300858899107
 70
   192
  0
VERTEX
  5
16CC2F
  8
0
 10
0.0
 20
0.0
 30
0.0
 70
   128
 71
     4
 72
     7
 73
    -8
  0
VERTEX
  5
16CC30
  8
0
 10
0.0
 20
0.0
 30
0.0
 70
   128
 71
     1
 72
    -4
 73
     8
  0
VERTEX
  5
16CC31
  8
0
 10
0.0
 20
0.0
 30
0.0
 70
   128
 71
     7
 72
     5
 73
    -6
  0
VERTEX
  5
16CC32
  8
0
 10
0.0
 20
0.0
 30
0.0
 70
   128
 71
     8
 72
    -7
 73
     6
  0
VERTEX
  5
16CC33
  8
0
 10
0.0
 20
0.0
 30
0.0
 70
   128
 71
     5
 72
     9
 73
   -10
  0
VERTEX
  5
16CC34
  8
0
 10
0.0
 20
0.0
 30
0.0
 70
   128
 71
     6
 72
    -5
 73
    10
  0
VERTEX
  5
16CC35
  8
0
 10
0.0
 20
0.0
 30
0.0
 70
   128
 71
     9
 72
     3
 73
    -2
  0
VERTEX
  5
16CC36
  8
0
 10
0.0
 20
0.0
 30
0.0
 70
   128
 71
    10
 72
    -9
 73
     2
  0
SEQEND
  5
16D097
  8
0
  0
POLYLINE
  5
16CC37
  8
0
 66
     1
 10
0.0
 20
0.0
 30
0.0
 70
    64
 71
    16
 72
    16
  0
VERTEX
  5
16CC38
  8
0
 10
22.5
 20
-29.5
 30
-9.250000000000004
 70
   192
  0
VERTEX
  5
16CC39
  8
0
 10
29.04073772597557
 20
-29.5
 30
-6.540737725975568
 70
   192
  0
VERTEX
  5
16CC3A
  8
0
 10
31.75000000000001
 20
-29.5
 30
0.0
 70
   192
  0
VERTEX
  5
16CC3B
  8
0
 10
29.04073772597557
 20
-29.5
 30
6.540737725975569
 70
   192
  0
VERTEX
  5
16CC3C
  8
0
 10
22.5
 20
-29.5
 30
9.250000000000005
 70
   192
  0
VERTEX
  5
16CC3D
  8
0
 10
15.95926227402443
 20
-29.5
 30
6.540737725975569
 70
   192
  0
VERTEX
  5
16CC3E
  8
0
 10
13.25
 20
-29.5
 30
0.000000000000001
 70
   192
  0
VERTEX
  5
16CC3F
  8
0
 10
15.95926227402443
 20
-29.5
 30
-6.540737725975567
 70
   192
  0
VERTEX
  5
16CC40
  8
0
 10
15.0
 20
-29.5
 30
0.0
 70
   192
  0
VERTEX
  5
16CC41
  8
0
 10
17.19669914110089
 20
-29.5
 30
5.303300858899107
 70
   192
  0
VERTEX
  5
16CC42
  8
0
 10
22.5
 20
-29.5
 30
7.500000000000002
 70
   192
  0
VERTEX
  5
16CC43
  8
0
 10
27.80330085889911
 20
-29.5
 30
5.303300858899108
 70
   192
  0
VERTEX
  5
16CC44
  8
0
 10
30.0
 20
-29.5
 30
0.0
 70
   192
  0
VERTEX
  5
16CC45
  8
0
 10
27.80330085889911
 20
-29.5
 30
-5.303300858899108
 70
   192
  0
VERTEX
  5
16CC46
  8
0
 10
22.5
 20
-29.5
 30
-7.500000000000002
 70
   192
  0
VERTEX
  5
16CC47
  8
0
 10
17.19669914110089
 20
-29.5
 30
-5.303300858899107
 70
   192
  0
VERTEX
  5
16CC48
  8
0
 10
0.0
 20
0.0
 30
0.0
 70
   128
 71
    -7
 72
     9
 73
   -10
  0
VERTEX
  5
16CC49
  8
0
 10
0.0
 20
0.0
 30
0.0
 70
   128
 71
     6
 72
    -7
 73
   -10
  0
VERTEX
  5
16CC4A
  8
0
 10
0.0
 20
0.0
 30
0.0
 70
   128
 71
   -11
 72
     5
 73
    -6
  0
VERTEX
  5
16CC4B
  8
0
 10
0.0
 20
0.0
 30
0.0
 70
   128
 71
    10
 72
   -11
 73
    -6
  0
VERTEX
  5
16CC4C
  8
0
 10
0.0
 20
0.0
 30
0.0
 70
   128
 71
   -12
 72
     4
 73
    -5
  0
VERTEX
  5
16CC4D
  8
0
 10
0.0
 20
0.0
 30
0.0
 70
   128
 71
    11
 72
   -12
 73
    -5
  0
VERTEX
  5
16CC4E
  8
0
 10
0.0
 20
0.0
 30
0.0
 70
   128
 71
   -13
 72
     3
 73
    -4
  0
VERTEX
  5
16CC4F
  8
0
 10
0.0
 20
0.0
 30
0.0
 70
   128
 71
    12
 72
   -13
 73
    -4
  0
VERTEX
  5
16CC50
  8
0
 10
0.0
 20
0.0
 30
0.0
 70
   128
 71
   -14
 72
     2
 73
    -3
  0
VERTEX
  5
16CC51
  8
0
 10
0.0
 20
0.0
 30
0.0
 70
   128
 71
    13
 72
   -14
 73
    -3
  0
VERTEX
  5
16CC52
  8
0
 10
0.0
 20
0.0
 30
0.0
 70
   128
 71
   -15
 72
     1
 73
    -2
  0
VERTEX
  5
16CC53
  8
0
 10
0.0
 20
0.0
 30
0.0
 70
   128
 71
    14
 72
   -15
 73
    -2
  0
VERTEX
  5
16CC54
  8
0
 10
0.0
 20
0.0
 30
0.0
 70
   128
 71
   -16
 72
     8
 73
    -1
  0
VERTEX
  5
16CC55
  8
0
 10
0.0
 20
0.0
 30
0.0
 70
   128
 71
    15
 72
   -16
 73
    -1
  0
VERTEX
  5
16CC56
  8
0
 10
0.0
 20
0.0
 30
0.0
 70
   128
 71
    -9
 72
     7
 73
    -8
  0
VERTEX
  5
16CC57
  8
0
 10
0.0
 20
0.0
 30
0.0
 70
   128
 71
    16
 72
    -9
 73
    -8
  0
SEQEND
  5
16D098
  8
0
  0
ENDBLK
  5
16D071
  8
0
  0
BLOCK
  8
0
  2
*X2
 70
     1
 10
0.0
 20
0.0
 30
0.0
  3
*X2
  1

  0
POLYLINE
  5
16CC59
  8
0
 66
     1
 10
0.0
 20
0.0
 30
0.0
 70
    64
 71
    10
 72
     8
  0
VERTEX
  5
16CC5A
  8
0
 10
-1.5
 20
10.3
 30
0.0000000000069703
 70
   192
  0
VERTEX
  5
16CC5B
  8
0
 10
-1.5
 20
-10.3
 30
-0.000000000005752
 70
   192
  0
VERTEX
  5
16CC5C
  8
0
 10
-1.0
 20
-10.3
 30
0.0
 70
   192
  0
VERTEX
  5
16CC5D
  8
0
 10
-1.0
 20
10.3
 30
0.0000000000076667
 70
   192
  0
VERTEX
  5
16CC5E
  8
0
 10
-1.0
 20
0.0
 30
10.3
 70
   192
  0
VERTEX
  5
16CC5F
  8
0
 10
-1.5
 20
-0.0000000000063609
 30
10.3
 70
   192
  0
VERTEX
  5
16CC60
  8
0
 10
-1.0
 20
7.283199846221442
 30
7.283199846221442
 70
   192
  0
VERTEX
  5
16CC61
  8
0
 10
-1.5
 20
7.283199846216727
 30
7.283199846226154
 70
   192
  0
VERTEX
  5
16CC62
  8
0
 10
-1.0
 20
-7.28319984622144
 30
7.28319984622144
 70
   192
  0
VERTEX
  5
16CC63
  8
0
 10
-1.5
 20
-7.283199846225722
 30
7.283199846217157
 70
   192
  0
VERTEX
  5
16CC64
  8
0
 10
0.0
 20
0.0
 30
0.0
 70
   128
 71
     8
 72
     1
 73
    -4
  0
VERTEX
  5
16CC65
  8
0
 10
0.0
 20
0.0
 30
0.0
 70
   128
 71
     7
 72
    -8
 73
     4
  0
VERTEX
  5
16CC66
  8
0
 10
0.0
 20
0.0
 30
0.0
 70
   128
 71
     6
 72
     8
 73
    -7
  0
VERTEX
  5
16CC67
  8
0
 10
0.0
 20
0.0
 30
0.0
 70
   128
 71
     5
 72
    -6
 73
     7
  0
VERTEX
  5
16CC68
  8
0
 10
0.0
 20
0.0
 30
0.0
 70
   128
 71
    10
 72
     6
 73
    -5
  0
VERTEX
  5
16CC69
  8
0
 10
0.0
 20
0.0
 30
0.0
 70
   128
 71
     9
 72
   -10
 73
     5
  0
VERTEX
  5
16CC6A
  8
0
 10
0.0
 20
0.0
 30
0.0
 70
   128
 71
     2
 72
    10
 73
    -9
  0
VERTEX
  5
16CC6B
  8
0
 10
0.0
 20
0.0
 30
0.0
 70
   128
 71
     3
 72
    -2
 73
     9
  0
SEQEND
  5
16D09B
  8
0
  0
POLYLINE
  5
16CC6C
  8
0
 66
     1
 10
0.0
 20
0.0
 30
0.0
 70
    64
 71
    11
 72
     9
  0
VERTEX
  5
16CC6D
  8
0
 10
-1.5
 20
-10.3
 30
-0.0000000000057457
 70
   192
  0
VERTEX
  5
16CC6E
  8
0
 10
-1.0
 20
-10.3
 30
-0.0000000000076664
 70
   192
  0
VERTEX
  5
16CC6F
  8
0
 10
-1.0
 20
-7.283199846221442
 30
-7.283199846221442
 70
   192
  0
VERTEX
  5
16CC70
  8
0
 10
-1.5
 20
-8.332875042058438
 30
-6.05418809861732
 70
   192
  0
VERTEX
  5
16CC71
  8
0
 10
-1.0
 20
0.0
 30
-10.3
 70
   192
  0
VERTEX
  5
16CC72
  8
0
 10
-1.0
 20
7.28319984622144
 30
-7.28319984622144
 70
   192
  0
VERTEX
  5
16CC73
  8
0
 10
-1.5
 20
3.182875042068122
 30
-9.79588211783808
 70
   192
  0
VERTEX
  5
16CC74
  8
0
 10
-1.0
 20
10.3
 30
0.0
 70
   192
  0
VERTEX
  5
16CC75
  8
0
 10
-1.5
 20
10.3
 30
0.0000000000069692
 70
   192
  0
VERTEX
  5
16CC76
  8
0
 10
-1.5
 20
8.332875042065911
 30
-6.054188098607033
 70
   192
  0
VERTEX
  5
16CC77
  8
0
 10
-1.5
 20
-3.182875042056029
 30
-9.795882117842009
 70
   192
  0
VERTEX
  5
16CC78
  8
0
 10
0.0
 20
0.0
 30
0.0
 70
   128
 71
     1
 72
     2
 73
     3
  0
VERTEX
  5
16CC79
  8
0
 10
0.0
 20
0.0
 30
0.0
 70
   128
 71
     4
 72
     1
 73
     3
  0
VERTEX
  5
16CC7A
  8
0
 10
0.0
 20
0.0
 30
0.0
 70
   128
 71
     5
 72
     6
 73
     7
  0
VERTEX
  5
16CC7B
  8
0
 10
0.0
 20
0.0
 30
0.0
 70
   128
 71
     8
 72
     9
 73
    10
  0
VERTEX
  5
16CC7C
  8
0
 10
0.0
 20
0.0
 30
0.0
 70
   128
 71
     6
 72
     8
 73
    10
  0
VERTEX
  5
16CC7D
  8
0
 10
0.0
 20
0.0
 30
0.0
 70
   128
 71
     5
 72
     7
 73
    11
  0
VERTEX
  5
16CC7E
  8
0
 10
0.0
 20
0.0
 30
0.0
 70
   128
 71
     5
 72
    11
 73
     4
  0
VERTEX
  5
16CC7F
  8
0
 10
0.0
 20
0.0
 30
0.0
 70
   128
 71
     3
 72
     5
 73
     4
  0
VERTEX
  5
16CC80
  8
0
 10
0.0
 20
0.0
 30
0.0
 70
   128
 71
     6
 72
    10
 73
     7
  0
SEQEND
  5
16D09C
  8
0
  0
POLYLINE
  5
16CC81
  8
0
 66
     1
 10
0.0
 20
0.0
 30
0.0
 70
    64
 71
    24
 72
    24
  0
VERTEX
  5
16CC82
  8
0
 10
-8.0
 20
-26.0
 30
0.0
 70
   192
  0
VERTEX
  5
16CC83
  8
0
 10
-8.0
 20
-22.51666049839541
 30
-13.0
 70
   192
  0
VERTEX
  5
16CC84
  8
0
 10
-8.0
 20
-13.00000000000001
 30
-22.5166604983954
 70
   192
  0
VERTEX
  5
16CC85
  8
0
 10
-8.0
 20
-0.0000000000000072
 30
-26.0
 70
   192
  0
VERTEX
  5
16CC86
  8
0
 10
-8.0
 20
12.99999999999999
 30
-22.51666049839541
 70
   192
  0
VERTEX
  5
16CC87
  8
0
 10
-8.0
 20
22.5166604983954
 30
-13.00000000000001
 70
   192
  0
VERTEX
  5
16CC88
  8
0
 10
-8.0
 20
26.0
 30
0.0
 70
   192
  0
VERTEX
  5
16CC89
  8
0
 10
-8.0
 20
22.51666049839541
 30
13.0
 70
   192
  0
VERTEX
  5
16CC8A
  8
0
 10
-8.0
 20
13.00000000000001
 30
22.5166604983954
 70
   192
  0
VERTEX
  5
16CC8B
  8
0
 10
-8.0
 20
0.0000000000000072
 30
26.0
 70
   192
  0
VERTEX
  5
16CC8C
  8
0
 10
-8.0
 20
-12.99999999999999
 30
22.51666049839541
 70
   192
  0
VERTEX
  5
16CC8D
  8
0
 10
-8.0
 20
-22.5166604983954
 30
13.00000000000001
 70
   192
  0
VERTEX
  5
16CC8E
  8
0
 10
-8.0
 20
-0.0000000000000142
 30
-25.5
 70
   192
  0
VERTEX
  5
16CC8F
  8
0
 10
-8.0
 20
-12.75000000000001
 30
-22.08364779650318
 70
   192
  0
VERTEX
  5
16CC90
  8
0
 10
-8.0
 20
-22.08364779650319
 30
-12.74999999999999
 70
   192
  0
VERTEX
  5
16CC91
  8
0
 10
-8.0
 20
-25.5
 30
0.0000000000000071
 70
   192
  0
VERTEX
  5
16CC92
  8
0
 10
-8.0
 20
-22.08364779650318
 30
12.75000000000001
 70
   192
  0
VERTEX
  5
16CC93
  8
0
 10
-8.0
 20
-12.75
 30
22.08364779650319
 70
   192
  0
VERTEX
  5
16CC94
  8
0
 10
-8.0
 20
0.0000000000000142
 30
25.5
 70
   192
  0
VERTEX
  5
16CC95
  8
0
 10
-8.0
 20
12.75000000000001
 30
22.08364779650318
 70
   192
  0
VERTEX
  5
16CC96
  8
0
 10
-8.0
 20
22.08364779650319
 30
12.74999999999999
 70
   192
  0
VERTEX
  5
16CC97
  8
0
 10
-8.0
 20
25.5
 30
-0.0000000000000071
 70
   192
  0
VERTEX
  5
16CC98
  8
0
 10
-8.0
 20
22.08364779650318
 30
-12.75000000000001
 70
   192
  0
VERTEX
  5
16CC99
  8
0
 10
-8.0
 20
12.75
 30
-22.08364779650319
 70
   192
  0
VERTEX
  5
16CC9A
  8
0
 10
0.0
 20
0.0
 30
0.0
 70
   128
 71
    14
 72
   -13
 73
    -4
  0
VERTEX
  5
16CC9B
  8
0
 10
0.0
 20
0.0
 30
0.0
 70
   128
 71
   -14
 72
     4
 73
    -3
  0
VERTEX
  5
16CC9C
  8
0
 10
0.0
 20
0.0
 30
0.0
 70
   128
 71
     3
 72
    -2
 73
   -15
  0
VERTEX
  5
16CC9D
  8
0
 10
0.0
 20
0.0
 30
0.0
 70
   128
 71
    -3
 72
    15
 73
   -14
  0
VERTEX
  5
16CC9E
  8
0
 10
0.0
 20
0.0
 30
0.0
 70
   128
 71
     2
 72
    -1
 73
   -16
  0
VERTEX
  5
16CC9F
  8
0
 10
0.0
 20
0.0
 30
0.0
 70
   128
 71
    -2
 72
    16
 73
   -15
  0
VERTEX
  5
16CCA0
  8
0
 10
0.0
 20
0.0
 30
0.0
 70
   128
 71
     1
 72
   -12
 73
   -17
  0
VERTEX
  5
16CCA1
  8
0
 10
0.0
 20
0.0
 30
0.0
 70
   128
 71
    -1
 72
    17
 73
   -16
  0
VERTEX
  5
16CCA2
  8
0
 10
0.0
 20
0.0
 30
0.0
 70
   128
 71
    12
 72
   -11
 73
   -18
  0
VERTEX
  5
16CCA3
  8
0
 10
0.0
 20
0.0
 30
0.0
 70
   128
 71
   -12
 72
    18
 73
   -17
  0
VERTEX
  5
16CCA4
  8
0
 10
0.0
 20
0.0
 30
0.0
 70
   128
 71
    11
 72
   -10
 73
   -19
  0
VERTEX
  5
16CCA5
  8
0
 10
0.0
 20
0.0
 30
0.0
 70
   128
 71
   -11
 72
    19
 73
   -18
  0
VERTEX
  5
16CCA6
  8
0
 10
0.0
 20
0.0
 30
0.0
 70
   128
 71
    10
 72
    -9
 73
   -20
  0
VERTEX
  5
16CCA7
  8
0
 10
0.0
 20
0.0
 30
0.0
 70
   128
 71
   -10
 72
    20
 73
   -19
  0
VERTEX
  5
16CCA8
  8
0
 10
0.0
 20
0.0
 30
0.0
 70
   128
 71
     9
 72
    -8
 73
   -21
  0
VERTEX
  5
16CCA9
  8
0
 10
0.0
 20
0.0
 30
0.0
 70
   128
 71
    -9
 72
    21
 73
   -20
  0
VERTEX
  5
16CCAA
  8
0
 10
0.0
 20
0.0
 30
0.0
 70
   128
 71
     8
 72
    -7
 73
   -22
  0
VERTEX
  5
16CCAB
  8
0
 10
0.0
 20
0.0
 30
0.0
 70
   128
 71
    -8
 72
    22
 73
   -21
  0
VERTEX
  5
16CCAC
  8
0
 10
0.0
 20
0.0
 30
0.0
 70
   128
 71
     7
 72
    -6
 73
   -23
  0
VERTEX
  5
16CCAD
  8
0
 10
0.0
 20
0.0
 30
0.0
 70
   128
 71
    -7
 72
    23
 73
   -22
  0
VERTEX
  5
16CCAE
  8
0
 10
0.0
 20
0.0
 30
0.0
 70
   128
 71
     6
 72
    -5
 73
   -24
  0
VERTEX
  5
16CCAF
  8
0
 10
0.0
 20
0.0
 30
0.0
 70
   128
 71
    -6
 72
    24
 73
   -23
  0
VERTEX
  5
16CCB0
  8
0
 10
0.0
 20
0.0
 30
0.0
 70
   128
 71
     5
 72
    -4
 73
   -13
  0
VERTEX
  5
16CCB1
  8
0
 10
0.0
 20
0.0
 30
0.0
 70
   128
 71
    -5
 72
    13
 73
   -24
  0
SEQEND
  5
16D09D
  8
0
  0
POLYLINE
  5
16CCB2
  8
0
 66
     1
 10
0.0
 20
0.0
 30
0.0
 70
    64
 71
    14
 72
    12
  0
VERTEX
  5
16CCB3
  8
0
 10
-0.5
 20
-22.51666049839541
 30
-13.0
 70
   192
  0
VERTEX
  5
16CCB4
  8
0
 10
-8.0
 20
-22.51666049839541
 30
-13.0
 70
   192
  0
VERTEX
  5
16CCB5
  8
0
 10
-8.0
 20
-13.00000000000001
 30
-22.5166604983954
 70
   192
  0
VERTEX
  5
16CCB6
  8
0
 10
-0.5
 20
-13.00000000000001
 30
-22.5166604983954
 70
   192
  0
VERTEX
  5
16CCB7
  8
0
 10
-0.5
 20
12.99999999999999
 30
-22.51666049839541
 70
   192
  0
VERTEX
  5
16CCB8
  8
0
 10
-8.0
 20
12.99999999999999
 30
-22.51666049839541
 70
   192
  0
VERTEX
  5
16CCB9
  8
0
 10
-8.0
 20
22.5166604983954
 30
-13.00000000000001
 70
   192
  0
VERTEX
  5
16CCBA
  8
0
 10
-0.5
 20
22.5166604983954
 30
-13.00000000000001
 70
   192
  0
VERTEX
  5
16CCBB
  8
0
 10
-8.0
 20
26.0
 30
-0.0000000000000144
 70
   192
  0
VERTEX
  5
16CCBC
  8
0
 10
-0.5
 20
26.0
 30
-0.000000000000081
 70
   192
  0
VERTEX
  5
16CCBD
  8
0
 10
-0.5
 20
-0.0000000000000072
 30
-26.0
 70
   192
  0
VERTEX
  5
16CCBE
  8
0
 10
-8.0
 20
-0.0000000000000072
 30
-26.0
 70
   192
  0
VERTEX
  5
16CCBF
  8
0
 10
-0.5
 20
-26.0
 30
0.0
 70
   192
  0
VERTEX
  5
16CCC0
  8
0
 10
-8.0
 20
-26.0
 30
0.0
 70
   192
  0
VERTEX
  5
16CCC1
  8
0
 10
0.0
 20
0.0
 30
0.0
 70
   128
 71
     1
 72
     2
 73
    -3
  0
VERTEX
  5
16CCC2
  8
0
 10
0.0
 20
0.0
 30
0.0
 70
   128
 71
    -1
 72
     3
 73
     4
  0
VERTEX
  5
16CCC3
  8
0
 10
0.0
 20
0.0
 30
0.0
 70
   128
 71
     5
 72
     6
 73
    -7
  0
VERTEX
  5
16CCC4
  8
0
 10
0.0
 20
0.0
 30
0.0
 70
   128
 71
    -5
 72
     7
 73
     8
  0
VERTEX
  5
16CCC5
  8
0
 10
0.0
 20
0.0
 30
0.0
 70
   128
 71
     8
 72
     7
 73
    -9
  0
VERTEX
  5
16CCC6
  8
0
 10
0.0
 20
0.0
 30
0.0
 70
   128
 71
    -8
 72
     9
 73
    10
  0
VERTEX
  5
16CCC7
  8
0
 10
0.0
 20
0.0
 30
0.0
 70
   128
 71
    11
 72
    12
 73
    -6
  0
VERTEX
  5
16CCC8
  8
0
 10
0.0
 20
0.0
 30
0.0
 70
   128
 71
   -11
 72
     6
 73
     5
  0
VERTEX
  5
16CCC9
  8
0
 10
0.0
 20
0.0
 30
0.0
 70
   128
 71
     4
 72
     3
 73
   -12
  0
VERTEX
  5
16CCCA
  8
0
 10
0.0
 20
0.0
 30
0.0
 70
   128
 71
    -4
 72
    12
 73
    11
  0
VERTEX
  5
16CCCB
  8
0
 10
0.0
 20
0.0
 30
0.0
 70
   128
 71
    13
 72
    14
 73
    -2
  0
VERTEX
  5
16CCCC
  8
0
 10
0.0
 20
0.0
 30
0.0
 70
   128
 71
   -13
 72
     2
 73
     1
  0
SEQEND
  5
16D09E
  8
0
  0
POLYLINE
  5
16CCCD
  8
0
 66
     1
 10
0.0
 20
0.0
 30
0.0
 70
    64
 71
    39
 72
    58
  0
VERTEX
  5
16CCCE
  8
0
 10
0.0
 20
22.08364779650318
 30
-12.75000000000001
 70
   192
  0
VERTEX
  5
16CCCF
  8
0
 10
-0.0380602337443566
 20
18.16652194529351
 30
-18.16652194529351
 70
   192
  0
VERTEX
  5
16CCD0
  8
0
 10
-0.0380602337443566
 20
23.73570477433445
 30
-9.831650830013155
 70
   192
  0
VERTEX
  5
16CCD1
  8
0
 10
-0.0380602337443566
 20
9.831650830013151
 30
-23.73570477433445
 70
   192
  0
VERTEX
  5
16CCD2
  8
0
 10
0.0
 20
-0.0000000000000071
 30
-25.5
 70
   192
  0
VERTEX
  5
16CCD3
  8
0
 10
-0.0380602337443566
 20
-0.0000000000000017
 30
-25.69134171618255
 70
   192
  0
VERTEX
  5
16CCD4
  8
0
 10
0.0
 20
-12.75000000000001
 30
-22.08364779650318
 70
   192
  0
VERTEX
  5
16CCD5
  8
0
 10
-0.0380602337443566
 20
-18.16652194529351
 30
-18.16652194529351
 70
   192
  0
VERTEX
  5
16CCD6
  8
0
 10
-0.0380602337443566
 20
-9.831650830013153
 30
-23.73570477433445
 70
   192
  0
VERTEX
  5
16CCD7
  8
0
 10
-0.1464466094067262
 20
18.28122292025696
 30
-18.28122292025697
 70
   192
  0
VERTEX
  5
16CCD8
  8
0
 10
-0.1464466094067262
 20
23.88556882025691
 30
-9.89372655034634
 70
   192
  0
VERTEX
  5
16CCD9
  8
0
 10
-0.1464466094067262
 20
-0.0000000000000017
 30
-25.85355339059327
 70
   192
  0
VERTEX
  5
16CCDA
  8
0
 10
-0.1464466094067262
 20
9.893726550346337
 30
-23.88556882025691
 70
   192
  0
VERTEX
  5
16CCDB
  8
0
 10
-0.1464466094067262
 20
-18.28122292025697
 30
-18.28122292025696
 70
   192
  0
VERTEX
  5
16CCDC
  8
0
 10
-0.1464466094067262
 20
-9.893726550346338
 30
-23.88556882025691
 70
   192
  0
VERTEX
  5
16CCDD
  8
0
 10
-0.0669872981077803
 20
-25.75
 30
0.0
 70
   192
  0
VERTEX
  5
16CCDE
  8
0
 10
-0.1464466094067262
 20
-23.88556882025691
 30
-9.893726550346338
 70
   192
  0
VERTEX
  5
16CCDF
  8
0
 10
-0.0380602337443566
 20
-23.73570477433445
 30
-9.831650830013153
 70
   192
  0
VERTEX
  5
16CCE0
  8
0
 10
-0.3086582838174551
 20
18.35786366147606
 30
-18.35786366147606
 70
   192
  0
VERTEX
  5
16CCE1
  8
0
 10
-0.3086582838174551
 20
23.98570477433445
 30
-9.935204220606428
 70
   192
  0
VERTEX
  5
16CCE2
  8
0
 10
-0.2499999999999997
 20
25.93301270189222
 30
0.0
 70
   192
  0
VERTEX
  5
16CCE3
  8
0
 10
-0.3086582838174551
 20
-0.0000000000000017
 30
-25.96193976625564
 70
   192
  0
VERTEX
  5
16CCE4
  8
0
 10
-0.3086582838174551
 20
9.935204220606424
 30
-23.98570477433445
 70
   192
  0
VERTEX
  5
16CCE5
  8
0
 10
-0.3086582838174551
 20
-18.35786366147606
 30
-18.35786366147606
 70
   192
  0
VERTEX
  5
16CCE6
  8
0
 10
-0.3086582838174551
 20
-9.935204220606426
 30
-23.98570477433445
 70
   192
  0
VERTEX
  5
16CCE7
  8
0
 10
-0.3086582838174551
 20
-23.98570477433445
 30
-9.935204220606426
 70
   192
  0
VERTEX
  5
16CCE8
  8
0
 10
-0.5
 20
12.99999999999999
 30
-22.51666049839541
 70
   192
  0
VERTEX
  5
16CCE9
  8
0
 10
-0.5
 20
-0.0000000000000072
 30
-26.0
 70
   192
  0
VERTEX
  5
16CCEA
  8
0
 10
-0.5
 20
-22.51666049839541
 30
-13.0
 70
   192
  0
VERTEX
  5
16CCEB
  8
0
 10
-0.0669872981077803
 20
25.75
 30
0.0
 70
   192
  0
VERTEX
  5
16CCEC
  8
0
 10
-0.2499999999999997
 20
-25.93301270189222
 30
0.0
 70
   192
  0
VERTEX
  5
16CCED
  8
0
 10
-0.5
 20
26.0
 30
-0.0000000000000144
 70
   192
  0
VERTEX
  5
16CCEE
  8
0
 10
-0.4999999999999999
 20
-26.0
 30
0.0
 70
   192
  0
VERTEX
  5
16CCEF
  8
0
 10
0.0
 20
-25.5
 30
0.0
 70
   192
  0
VERTEX
  5
16CCF0
  8
0
 10
0.0
 20
12.74999999999999
 30
-22.08364779650319
 70
   192
  0
VERTEX
  5
16CCF1
  8
0
 10
0.0000000000000004
 20
25.5
 30
0.0
 70
   192
  0
VERTEX
  5
16CCF2
  8
0
 10
0.0
 20
-22.08364779650319
 30
-12.75
 70
   192
  0
VERTEX
  5
16CCF3
  8
0
 10
-0.5
 20
22.5166604983954
 30
-13.00000000000001
 70
   192
  0
VERTEX
  5
16CCF4
  8
0
 10
-0.5
 20
-13.00000000000001
 30
-22.5166604983954
 70
   192
  0
VERTEX
  5
16CCF5
  8
0
 10
0.0
 20
0.0
 30
0.0
 70
   128
 71
     1
 72
     2
 73
     3
  0
VERTEX
  5
16CCF6
  8
0
 10
0.0
 20
0.0
 30
0.0
 70
   128
 71
     4
 72
     5
 73
     6
  0
VERTEX
  5
16CCF7
  8
0
 10
0.0
 20
0.0
 30
0.0
 70
   128
 71
     7
 72
     8
 73
     9
  0
VERTEX
  5
16CCF8
  8
0
 10
0.0
 20
0.0
 30
0.0
 70
   128
 71
    10
 72
    11
 73
    -3
  0
VERTEX
  5
16CCF9
  8
0
 10
0.0
 20
0.0
 30
0.0
 70
   128
 71
   -10
 72
     3
 73
     2
  0
VERTEX
  5
16CCFA
  8
0
 10
0.0
 20
0.0
 30
0.0
 70
   128
 71
    12
 72
    13
 73
    -4
  0
VERTEX
  5
16CCFB
  8
0
 10
0.0
 20
0.0
 30
0.0
 70
   128
 71
   -12
 72
     4
 73
     6
  0
VERTEX
  5
16CCFC
  8
0
 10
0.0
 20
0.0
 30
0.0
 70
   128
 71
    13
 72
    10
 73
    -2
  0
VERTEX
  5
16CCFD
  8
0
 10
0.0
 20
0.0
 30
0.0
 70
   128
 71
   -13
 72
     2
 73
     4
  0
VERTEX
  5
16CCFE
  8
0
 10
0.0
 20
0.0
 30
0.0
 70
   128
 71
    14
 72
    15
 73
    -9
  0
VERTEX
  5
16CCFF
  8
0
 10
0.0
 20
0.0
 30
0.0
 70
   128
 71
   -14
 72
     9
 73
     8
  0
VERTEX
  5
16CD00
  8
0
 10
0.0
 20
0.0
 30
0.0
 70
   128
 71
    15
 72
    12
 73
    -6
  0
VERTEX
  5
16CD01
  8
0
 10
0.0
 20
0.0
 30
0.0
 70
   128
 71
   -15
 72
     6
 73
     9
  0
VERTEX
  5
16CD02
  8
0
 10
0.0
 20
0.0
 30
0.0
 70
   128
 71
    16
 72
    17
 73
    18
  0
VERTEX
  5
16CD03
  8
0
 10
0.0
 20
0.0
 30
0.0
 70
   128
 71
    17
 72
    14
 73
    -8
  0
VERTEX
  5
16CD04
  8
0
 10
0.0
 20
0.0
 30
0.0
 70
   128
 71
   -17
 72
     8
 73
    18
  0
VERTEX
  5
16CD05
  8
0
 10
0.0
 20
0.0
 30
0.0
 70
   128
 71
    19
 72
    20
 73
   -11
  0
VERTEX
  5
16CD06
  8
0
 10
0.0
 20
0.0
 30
0.0
 70
   128
 71
   -19
 72
    11
 73
    10
  0
VERTEX
  5
16CD07
  8
0
 10
0.0
 20
0.0
 30
0.0
 70
   128
 71
    21
 72
    11
 73
    20
  0
VERTEX
  5
16CD08
  8
0
 10
0.0
 20
0.0
 30
0.0
 70
   128
 71
    22
 72
    23
 73
   -13
  0
VERTEX
  5
16CD09
  8
0
 10
0.0
 20
0.0
 30
0.0
 70
   128
 71
   -22
 72
    13
 73
    12
  0
VERTEX
  5
16CD0A
  8
0
 10
0.0
 20
0.0
 30
0.0
 70
   128
 71
    23
 72
    19
 73
   -10
  0
VERTEX
  5
16CD0B
  8
0
 10
0.0
 20
0.0
 30
0.0
 70
   128
 71
   -23
 72
    10
 73
    13
  0
VERTEX
  5
16CD0C
  8
0
 10
0.0
 20
0.0
 30
0.0
 70
   128
 71
    24
 72
    25
 73
   -15
  0
VERTEX
  5
16CD0D
  8
0
 10
0.0
 20
0.0
 30
0.0
 70
   128
 71
   -24
 72
    15
 73
    14
  0
VERTEX
  5
16CD0E
  8
0
 10
0.0
 20
0.0
 30
0.0
 70
   128
 71
    25
 72
    22
 73
   -12
  0
VERTEX
  5
16CD0F
  8
0
 10
0.0
 20
0.0
 30
0.0
 70
   128
 71
   -25
 72
    12
 73
    15
  0
VERTEX
  5
16CD10
  8
0
 10
0.0
 20
0.0
 30
0.0
 70
   128
 71
    26
 72
    24
 73
   -14
  0
VERTEX
  5
16CD11
  8
0
 10
0.0
 20
0.0
 30
0.0
 70
   128
 71
   -26
 72
    14
 73
    17
  0
VERTEX
  5
16CD12
  8
0
 10
0.0
 20
0.0
 30
0.0
 70
   128
 71
    27
 72
    19
 73
    23
  0
VERTEX
  5
16CD13
  8
0
 10
0.0
 20
0.0
 30
0.0
 70
   128
 71
    25
 72
    28
 73
    22
  0
VERTEX
  5
16CD14
  8
0
 10
0.0
 20
0.0
 30
0.0
 70
   128
 71
    29
 72
    24
 73
    26
  0
VERTEX
  5
16CD15
  8
0
 10
0.0
 20
0.0
 30
0.0
 70
   128
 71
     3
 72
    11
 73
    21
  0
VERTEX
  5
16CD16
  8
0
 10
0.0
 20
0.0
 30
0.0
 70
   128
 71
     3
 72
    21
 73
    30
  0
VERTEX
  5
16CD17
  8
0
 10
0.0
 20
0.0
 30
0.0
 70
   128
 71
    31
 72
    26
 73
    17
  0
VERTEX
  5
16CD18
  8
0
 10
0.0
 20
0.0
 30
0.0
 70
   128
 71
    31
 72
    17
 73
    16
  0
VERTEX
  5
16CD19
  8
0
 10
0.0
 20
0.0
 30
0.0
 70
   128
 71
    20
 72
    32
 73
    21
  0
VERTEX
  5
16CD1A
  8
0
 10
0.0
 20
0.0
 30
0.0
 70
   128
 71
    33
 72
    26
 73
    31
  0
VERTEX
  5
16CD1B
  8
0
 10
0.0
 20
0.0
 30
0.0
 70
   128
 71
    16
 72
    18
 73
    34
  0
VERTEX
  5
16CD1C
  8
0
 10
0.0
 20
0.0
 30
0.0
 70
   128
 71
    35
 72
     4
 73
     2
  0
VERTEX
  5
16CD1D
  8
0
 10
0.0
 20
0.0
 30
0.0
 70
   128
 71
    35
 72
     2
 73
     1
  0
VERTEX
  5
16CD1E
  8
0
 10
0.0
 20
0.0
 30
0.0
 70
   128
 71
     1
 72
     3
 73
    30
  0
VERTEX
  5
16CD1F
  8
0
 10
0.0
 20
0.0
 30
0.0
 70
   128
 71
     1
 72
    30
 73
    36
  0
VERTEX
  5
16CD20
  8
0
 10
0.0
 20
0.0
 30
0.0
 70
   128
 71
     5
 72
     4
 73
    35
  0
VERTEX
  5
16CD21
  8
0
 10
0.0
 20
0.0
 30
0.0
 70
   128
 71
    37
 72
    18
 73
     8
  0
VERTEX
  5
16CD22
  8
0
 10
0.0
 20
0.0
 30
0.0
 70
   128
 71
    37
 72
     8
 73
     7
  0
VERTEX
  5
16CD23
  8
0
 10
0.0
 20
0.0
 30
0.0
 70
   128
 71
     7
 72
     9
 73
     6
  0
VERTEX
  5
16CD24
  8
0
 10
0.0
 20
0.0
 30
0.0
 70
   128
 71
     7
 72
     6
 73
     5
  0
VERTEX
  5
16CD25
  8
0
 10
0.0
 20
0.0
 30
0.0
 70
   128
 71
    34
 72
    18
 73
    37
  0
VERTEX
  5
16CD26
  8
0
 10
0.0
 20
0.0
 30
0.0
 70
   128
 71
    27
 72
    38
 73
    20
  0
VERTEX
  5
16CD27
  8
0
 10
0.0
 20
0.0
 30
0.0
 70
   128
 71
    27
 72
    20
 73
    19
  0
VERTEX
  5
16CD28
  8
0
 10
0.0
 20
0.0
 30
0.0
 70
   128
 71
    38
 72
    32
 73
    20
  0
VERTEX
  5
16CD29
  8
0
 10
0.0
 20
0.0
 30
0.0
 70
   128
 71
    22
 72
    28
 73
    27
  0
VERTEX
  5
16CD2A
  8
0
 10
0.0
 20
0.0
 30
0.0
 70
   128
 71
    22
 72
    27
 73
    23
  0
VERTEX
  5
16CD2B
  8
0
 10
0.0
 20
0.0
 30
0.0
 70
   128
 71
    29
 72
    39
 73
    25
  0
VERTEX
  5
16CD2C
  8
0
 10
0.0
 20
0.0
 30
0.0
 70
   128
 71
    29
 72
    25
 73
    24
  0
VERTEX
  5
16CD2D
  8
0
 10
0.0
 20
0.0
 30
0.0
 70
   128
 71
    39
 72
    28
 73
    25
  0
VERTEX
  5
16CD2E
  8
0
 10
0.0
 20
0.0
 30
0.0
 70
   128
 71
    33
 72
    29
 73
    26
  0
SEQEND
  5
16D09F
  8
0
  0
POLYLINE
  5
16CD2F
  8
0
 66
     1
 10
0.0
 20
0.0
 30
0.0
 70
    64
 71
    20
 72
    20
  0
VERTEX
  5
16CD30
  8
0
 10
0.0
 20
25.5
 30
0.0
 70
   192
  0
VERTEX
  5
16CD31
  8
0
 10
0.0
 20
22.08364779650319
 30
12.75
 70
   192
  0
VERTEX
  5
16CD32
  8
0
 10
0.0
 20
12.75000000000001
 30
22.08364779650318
 70
   192
  0
VERTEX
  5
16CD33
  8
0
 10
0.0
 20
0.0000000000000071
 30
25.5
 70
   192
  0
VERTEX
  5
16CD34
  8
0
 10
0.0
 20
-12.74999999999999
 30
22.08364779650319
 70
   192
  0
VERTEX
  5
16CD35
  8
0
 10
0.0
 20
-22.08364779650318
 30
12.75000000000001
 70
   192
  0
VERTEX
  5
16CD36
  8
0
 10
0.0
 20
-25.5
 30
0.0000000000000142
 70
   192
  0
VERTEX
  5
16CD37
  8
0
 10
0.0
 20
-22.08364779650319
 30
-12.75
 70
   192
  0
VERTEX
  5
16CD38
  8
0
 10
0.0
 20
-12.75000000000001
 30
-22.08364779650318
 70
   192
  0
VERTEX
  5
16CD39
  8
0
 10
0.0
 20
-0.0000000000000071
 30
-25.5
 70
   192
  0
VERTEX
  5
16CD3A
  8
0
 10
0.0
 20
12.74999999999999
 30
-22.08364779650319
 70
   192
  0
VERTEX
  5
16CD3B
  8
0
 10
0.0
 20
22.08364779650318
 30
-12.75000000000001
 70
   192
  0
VERTEX
  5
16CD3C
  8
0
 10
0.0
 20
-11.3
 30
0.0
 70
   192
  0
VERTEX
  5
16CD3D
  8
0
 10
0.0
 20
-7.990306627407987
 30
7.990306627407987
 70
   192
  0
VERTEX
  5
16CD3E
  8
0
 10
0.0
 20
0.0
 30
11.3
 70
   192
  0
VERTEX
  5
16CD3F
  8
0
 10
0.0
 20
7.990306627407988
 30
7.990306627407988
 70
   192
  0
VERTEX
  5
16CD40
  8
0
 10
0.0
 20
11.3
 30
0.0
 70
   192
  0
VERTEX
  5
16CD41
  8
0
 10
0.0
 20
7.990306627407987
 30
-7.990306627407987
 70
   192
  0
VERTEX
  5
16CD42
  8
0
 10
0.0
 20
0.0
 30
-11.3
 70
   192
  0
VERTEX
  5
16CD43
  8
0
 10
0.0
 20
-7.990306627407988
 30
-7.990306627407988
 70
   192
  0
VERTEX
  5
16CD44
  8
0
 10
0.0
 20
0.0
 30
0.0
 70
   128
 71
    -7
 72
    13
 73
   -14
  0
VERTEX
  5
16CD45
  8
0
 10
0.0
 20
0.0
 30
0.0
 70
   128
 71
     6
 72
    -7
 73
   -14
  0
VERTEX
  5
16CD46
  8
0
 10
0.0
 20
0.0
 30
0.0
 70
   128
 71
     5
 72
    -6
 73
   -14
  0
VERTEX
  5
16CD47
  8
0
 10
0.0
 20
0.0
 30
0.0
 70
   128
 71
   -15
 72
     4
 73
    -5
  0
VERTEX
  5
16CD48
  8
0
 10
0.0
 20
0.0
 30
0.0
 70
   128
 71
    14
 72
   -15
 73
    -5
  0
VERTEX
  5
16CD49
  8
0
 10
0.0
 20
0.0
 30
0.0
 70
   128
 71
   -16
 72
     3
 73
    -4
  0
VERTEX
  5
16CD4A
  8
0
 10
0.0
 20
0.0
 30
0.0
 70
   128
 71
    15
 72
   -16
 73
    -4
  0
VERTEX
  5
16CD4B
  8
0
 10
0.0
 20
0.0
 30
0.0
 70
   128
 71
     1
 72
     2
 73
    -3
  0
VERTEX
  5
16CD4C
  8
0
 10
0.0
 20
0.0
 30
0.0
 70
   128
 71
   -17
 72
    -1
 73
    -3
  0
VERTEX
  5
16CD4D
  8
0
 10
0.0
 20
0.0
 30
0.0
 70
   128
 71
    16
 72
   -17
 73
    -3
  0
VERTEX
  5
16CD4E
  8
0
 10
0.0
 20
0.0
 30
0.0
 70
   128
 71
    11
 72
    12
 73
    -1
  0
VERTEX
  5
16CD4F
  8
0
 10
0.0
 20
0.0
 30
0.0
 70
   128
 71
   -18
 72
   -11
 73
    -1
  0
VERTEX
  5
16CD50
  8
0
 10
0.0
 20
0.0
 30
0.0
 70
   128
 71
    17
 72
   -18
 73
    -1
  0
VERTEX
  5
16CD51
  8
0
 10
0.0
 20
0.0
 30
0.0
 70
   128
 71
   -19
 72
    10
 73
   -11
  0
VERTEX
  5
16CD52
  8
0
 10
0.0
 20
0.0
 30
0.0
 70
   128
 71
    18
 72
   -19
 73
   -11
  0
VERTEX
  5
16CD53
  8
0
 10
0.0
 20
0.0
 30
0.0
 70
   128
 71
   -20
 72
     9
 73
   -10
  0
VERTEX
  5
16CD54
  8
0
 10
0.0
 20
0.0
 30
0.0
 70
   128
 71
    19
 72
   -20
 73
   -10
  0
VERTEX
  5
16CD55
  8
0
 10
0.0
 20
0.0
 30
0.0
 70
   128
 71
     7
 72
     8
 73
    -9
  0
VERTEX
  5
16CD56
  8
0
 10
0.0
 20
0.0
 30
0.0
 70
   128
 71
   -13
 72
    -7
 73
    -9
  0
VERTEX
  5
16CD57
  8
0
 10
0.0
 20
0.0
 30
0.0
 70
   128
 71
    20
 72
   -13
 73
    -9
  0
SEQEND
  5
16D0A0
  8
0
  0
POLYLINE
  5
16CD58
  8
0
 66
     1
 10
0.0
 20
0.0
 30
0.0
 70
    64
 71
    23
 72
    30
  0
VERTEX
  5
16CD59
  8
0
 10
-0.6173165676349097
 20
7.337025144969947
 30
-7.337025144969648
 70
   192
  0
VERTEX
  5
16CD5A
  8
0
 10
-1.0
 20
7.28319984622144
 30
-7.28319984622144
 70
   192
  0
VERTEX
  5
16CD5B
  8
0
 10
-1.0
 20
0.0
 30
-10.3
 70
   192
  0
VERTEX
  5
16CD5C
  8
0
 10
-0.6173165676349097
 20
0.0000000000001412
 30
-10.37612046748871
 70
   192
  0
VERTEX
  5
16CD5D
  8
0
 10
-1.0
 20
-7.283199846221442
 30
-7.283199846221442
 70
   192
  0
VERTEX
  5
16CD5E
  8
0
 10
-0.6173165676349097
 20
-7.337025144969748
 30
-7.337025144969846
 70
   192
  0
VERTEX
  5
16CD5F
  8
0
 10
-0.2928932188134515
 20
0.0000000000001442
 30
-10.59289321881345
 70
   192
  0
VERTEX
  5
16CD60
  8
0
 10
-0.2928932188134515
 20
7.490306627408138
 30
-7.490306627407834
 70
   192
  0
VERTEX
  5
16CD61
  8
0
 10
-0.5000000000000002
 20
-10.43397459621556
 30
-0.0000000000002847
 70
   192
  0
VERTEX
  5
16CD62
  8
0
 10
-0.2928932188134515
 20
-7.490306627407936
 30
-7.490306627408036
 70
   192
  0
VERTEX
  5
16CD63
  8
0
 10
-0.0761204674887125
 20
0.0000000000001486
 30
-10.91731656763491
 70
   192
  0
VERTEX
  5
16CD64
  8
0
 10
-0.0761204674887125
 20
7.719708577335045
 30
-7.719708577334732
 70
   192
  0
VERTEX
  5
16CD65
  8
0
 10
-0.1339745962155615
 20
10.8
 30
0.0000000000002961
 70
   192
  0
VERTEX
  5
16CD66
  8
0
 10
-0.0761204674887125
 20
-7.719708577334836
 30
-7.71970857733494
 70
   192
  0
VERTEX
  5
16CD67
  8
0
 10
0.0
 20
0.0
 30
-11.3
 70
   192
  0
VERTEX
  5
16CD68
  8
0
 10
0.0
 20
7.990306627407987
 30
-7.990306627407987
 70
   192
  0
VERTEX
  5
16CD69
  8
0
 10
0.0
 20
11.3
 30
0.0
 70
   192
  0
VERTEX
  5
16CD6A
  8
0
 10
0.0
 20
-7.990306627407988
 30
-7.990306627407988
 70
   192
  0
VERTEX
  5
16CD6B
  8
0
 10
-0.5000000000000003
 20
10.43397459621556
 30
0.0000000000002861
 70
   192
  0
VERTEX
  5
16CD6C
  8
0
 10
-0.1339745962155615
 20
-10.8
 30
-0.0000000000002947
 70
   192
  0
VERTEX
  5
16CD6D
  8
0
 10
0.0
 20
-11.3
 30
-0.0000000000003083
 70
   192
  0
VERTEX
  5
16CD6E
  8
0
 10
-1.0
 20
10.3
 30
0.0000000000002824
 70
   192
  0
VERTEX
  5
16CD6F
  8
0
 10
-1.0
 20
-10.3
 30
0.0
 70
   192
  0
VERTEX
  5
16CD70
  8
0
 10
0.0
 20
0.0
 30
0.0
 70
   128
 71
     1
 72
     2
 73
    -3
  0
VERTEX
  5
16CD71
  8
0
 10
0.0
 20
0.0
 30
0.0
 70
   128
 71
    -1
 72
     3
 73
     4
  0
VERTEX
  5
16CD72
  8
0
 10
0.0
 20
0.0
 30
0.0
 70
   128
 71
     4
 72
     3
 73
    -5
  0
VERTEX
  5
16CD73
  8
0
 10
0.0
 20
0.0
 30
0.0
 70
   128
 71
    -4
 72
     5
 73
     6
  0
VERTEX
  5
16CD74
  8
0
 10
0.0
 20
0.0
 30
0.0
 70
   128
 71
     7
 72
     8
 73
    -1
  0
VERTEX
  5
16CD75
  8
0
 10
0.0
 20
0.0
 30
0.0
 70
   128
 71
    -7
 72
     1
 73
     4
  0
VERTEX
  5
16CD76
  8
0
 10
0.0
 20
0.0
 30
0.0
 70
   128
 71
     9
 72
    10
 73
     6
  0
VERTEX
  5
16CD77
  8
0
 10
0.0
 20
0.0
 30
0.0
 70
   128
 71
    10
 72
     7
 73
    -4
  0
VERTEX
  5
16CD78
  8
0
 10
0.0
 20
0.0
 30
0.0
 70
   128
 71
   -10
 72
     4
 73
     6
  0
VERTEX
  5
16CD79
  8
0
 10
0.0
 20
0.0
 30
0.0
 70
   128
 71
    11
 72
    12
 73
    -8
  0
VERTEX
  5
16CD7A
  8
0
 10
0.0
 20
0.0
 30
0.0
 70
   128
 71
   -11
 72
     8
 73
     7
  0
VERTEX
  5
16CD7B
  8
0
 10
0.0
 20
0.0
 30
0.0
 70
   128
 71
    13
 72
     8
 73
    12
  0
VERTEX
  5
16CD7C
  8
0
 10
0.0
 20
0.0
 30
0.0
 70
   128
 71
    14
 72
    11
 73
    -7
  0
VERTEX
  5
16CD7D
  8
0
 10
0.0
 20
0.0
 30
0.0
 70
   128
 71
   -14
 72
     7
 73
    10
  0
VERTEX
  5
16CD7E
  8
0
 10
0.0
 20
0.0
 30
0.0
 70
   128
 71
    11
 72
    15
 73
   -16
  0
VERTEX
  5
16CD7F
  8
0
 10
0.0
 20
0.0
 30
0.0
 70
   128
 71
   -11
 72
    16
 73
    12
  0
VERTEX
  5
16CD80
  8
0
 10
0.0
 20
0.0
 30
0.0
 70
   128
 71
    12
 72
    16
 73
    17
  0
VERTEX
  5
16CD81
  8
0
 10
0.0
 20
0.0
 30
0.0
 70
   128
 71
    14
 72
    18
 73
   -15
  0
VERTEX
  5
16CD82
  8
0
 10
0.0
 20
0.0
 30
0.0
 70
   128
 71
   -14
 72
    15
 73
    11
  0
VERTEX
  5
16CD83
  8
0
 10
0.0
 20
0.0
 30
0.0
 70
   128
 71
     1
 72
     8
 73
    13
  0
VERTEX
  5
16CD84
  8
0
 10
0.0
 20
0.0
 30
0.0
 70
   128
 71
     1
 72
    13
 73
    19
  0
VERTEX
  5
16CD85
  8
0
 10
0.0
 20
0.0
 30
0.0
 70
   128
 71
    20
 72
    14
 73
    10
  0
VERTEX
  5
16CD86
  8
0
 10
0.0
 20
0.0
 30
0.0
 70
   128
 71
    20
 72
    10
 73
     9
  0
VERTEX
  5
16CD87
  8
0
 10
0.0
 20
0.0
 30
0.0
 70
   128
 71
    12
 72
    17
 73
    13
  0
VERTEX
  5
16CD88
  8
0
 10
0.0
 20
0.0
 30
0.0
 70
   128
 71
    21
 72
    18
 73
    14
  0
VERTEX
  5
16CD89
  8
0
 10
0.0
 20
0.0
 30
0.0
 70
   128
 71
    21
 72
    14
 73
    20
  0
VERTEX
  5
16CD8A
  8
0
 10
0.0
 20
0.0
 30
0.0
 70
   128
 71
     2
 72
     1
 73
    19
  0
VERTEX
  5
16CD8B
  8
0
 10
0.0
 20
0.0
 30
0.0
 70
   128
 71
     2
 72
    19
 73
    22
  0
VERTEX
  5
16CD8C
  8
0
 10
0.0
 20
0.0
 30
0.0
 70
   128
 71
    23
 72
     9
 73
     6
  0
VERTEX
  5
16CD8D
  8
0
 10
0.0
 20
0.0
 30
0.0
 70
   128
 71
    23
 72
     6
 73
     5
  0
SEQEND
  5
16D0A1
  8
0
  0
POLYLINE
  5
16CD8E
  8
0
 66
     1
 10
0.0
 20
0.0
 30
0.0
 70
    64
 71
    23
 72
    30
  0
VERTEX
  5
16CD8F
  8
0
 10
-0.6173165676349097
 20
-7.337025144969947
 30
7.337025144969648
 70
   192
  0
VERTEX
  5
16CD90
  8
0
 10
-1.0
 20
-7.28319984622144
 30
7.28319984622144
 70
   192
  0
VERTEX
  5
16CD91
  8
0
 10
-1.0
 20
0.0
 30
10.3
 70
   192
  0
VERTEX
  5
16CD92
  8
0
 10
-0.6173165676349097
 20
-0.0000000000001412
 30
10.37612046748871
 70
   192
  0
VERTEX
  5
16CD93
  8
0
 10
-1.0
 20
7.283199846221442
 30
7.283199846221442
 70
   192
  0
VERTEX
  5
16CD94
  8
0
 10
-0.6173165676349097
 20
7.337025144969748
 30
7.337025144969846
 70
   192
  0
VERTEX
  5
16CD95
  8
0
 10
-0.2928932188134515
 20
-0.0000000000001442
 30
10.59289321881345
 70
   192
  0
VERTEX
  5
16CD96
  8
0
 10
-0.2928932188134515
 20
-7.490306627408138
 30
7.490306627407834
 70
   192
  0
VERTEX
  5
16CD97
  8
0
 10
-0.5000000000000003
 20
10.43397459621556
 30
0.0000000000002861
 70
   192
  0
VERTEX
  5
16CD98
  8
0
 10
-0.2928932188134515
 20
7.490306627407936
 30
7.490306627408036
 70
   192
  0
VERTEX
  5
16CD99
  8
0
 10
-0.0761204674887125
 20
-0.0000000000001486
 30
10.91731656763491
 70
   192
  0
VERTEX
  5
16CD9A
  8
0
 10
-0.0761204674887125
 20
-7.719708577335045
 30
7.719708577334732
 70
   192
  0
VERTEX
  5
16CD9B
  8
0
 10
-0.1339745962155615
 20
-10.8
 30
-0.0000000000002947
 70
   192
  0
VERTEX
  5
16CD9C
  8
0
 10
-0.0761204674887125
 20
7.719708577334836
 30
7.71970857733494
 70
   192
  0
VERTEX
  5
16CD9D
  8
0
 10
0.0
 20
0.0
 30
11.3
 70
   192
  0
VERTEX
  5
16CD9E
  8
0
 10
0.0
 20
-7.990306627407987
 30
7.990306627407987
 70
   192
  0
VERTEX
  5
16CD9F
  8
0
 10
0.0
 20
-11.3
 30
0.0
 70
   192
  0
VERTEX
  5
16CDA0
  8
0
 10
0.0
 20
7.990306627407988
 30
7.990306627407988
 70
   192
  0
VERTEX
  5
16CDA1
  8
0
 10
-0.5000000000000002
 20
-10.43397459621556
 30
-0.0000000000002847
 70
   192
  0
VERTEX
  5
16CDA2
  8
0
 10
-0.1339745962155615
 20
10.8
 30
0.0000000000002961
 70
   192
  0
VERTEX
  5
16CDA3
  8
0
 10
0.0
 20
11.3
 30
0.0000000000003098
 70
   192
  0
VERTEX
  5
16CDA4
  8
0
 10
-1.0
 20
-10.3
 30
-0.000000000000281
 70
   192
  0
VERTEX
  5
16CDA5
  8
0
 10
-1.0
 20
10.3
 30
0.0
 70
   192
  0
VERTEX
  5
16CDA6
  8
0
 10
0.0
 20
0.0
 30
0.0
 70
   128
 71
     1
 72
     2
 73
    -3
  0
VERTEX
  5
16CDA7
  8
0
 10
0.0
 20
0.0
 30
0.0
 70
   128
 71
    -1
 72
     3
 73
     4
  0
VERTEX
  5
16CDA8
  8
0
 10
0.0
 20
0.0
 30
0.0
 70
   128
 71
     4
 72
     3
 73
    -5
  0
VERTEX
  5
16CDA9
  8
0
 10
0.0
 20
0.0
 30
0.0
 70
   128
 71
    -4
 72
     5
 73
     6
  0
VERTEX
  5
16CDAA
  8
0
 10
0.0
 20
0.0
 30
0.0
 70
   128
 71
     7
 72
     8
 73
    -1
  0
VERTEX
  5
16CDAB
  8
0
 10
0.0
 20
0.0
 30
0.0
 70
   128
 71
    -7
 72
     1
 73
     4
  0
VERTEX
  5
16CDAC
  8
0
 10
0.0
 20
0.0
 30
0.0
 70
   128
 71
     9
 72
    10
 73
     6
  0
VERTEX
  5
16CDAD
  8
0
 10
0.0
 20
0.0
 30
0.0
 70
   128
 71
    10
 72
     7
 73
    -4
  0
VERTEX
  5
16CDAE
  8
0
 10
0.0
 20
0.0
 30
0.0
 70
   128
 71
   -10
 72
     4
 73
     6
  0
VERTEX
  5
16CDAF
  8
0
 10
0.0
 20
0.0
 30
0.0
 70
   128
 71
    11
 72
    12
 73
    -8
  0
VERTEX
  5
16CDB0
  8
0
 10
0.0
 20
0.0
 30
0.0
 70
   128
 71
   -11
 72
     8
 73
     7
  0
VERTEX
  5
16CDB1
  8
0
 10
0.0
 20
0.0
 30
0.0
 70
   128
 71
    13
 72
     8
 73
    12
  0
VERTEX
  5
16CDB2
  8
0
 10
0.0
 20
0.0
 30
0.0
 70
   128
 71
    14
 72
    11
 73
    -7
  0
VERTEX
  5
16CDB3
  8
0
 10
0.0
 20
0.0
 30
0.0
 70
   128
 71
   -14
 72
     7
 73
    10
  0
VERTEX
  5
16CDB4
  8
0
 10
0.0
 20
0.0
 30
0.0
 70
   128
 71
    11
 72
    15
 73
   -16
  0
VERTEX
  5
16CDB5
  8
0
 10
0.0
 20
0.0
 30
0.0
 70
   128
 71
   -11
 72
    16
 73
    12
  0
VERTEX
  5
16CDB6
  8
0
 10
0.0
 20
0.0
 30
0.0
 70
   128
 71
    12
 72
    16
 73
    17
  0
VERTEX
  5
16CDB7
  8
0
 10
0.0
 20
0.0
 30
0.0
 70
   128
 71
    14
 72
    18
 73
   -15
  0
VERTEX
  5
16CDB8
  8
0
 10
0.0
 20
0.0
 30
0.0
 70
   128
 71
   -14
 72
    15
 73
    11
  0
VERTEX
  5
16CDB9
  8
0
 10
0.0
 20
0.0
 30
0.0
 70
   128
 71
     1
 72
     8
 73
    13
  0
VERTEX
  5
16CDBA
  8
0
 10
0.0
 20
0.0
 30
0.0
 70
   128
 71
     1
 72
    13
 73
    19
  0
VERTEX
  5
16CDBB
  8
0
 10
0.0
 20
0.0
 30
0.0
 70
   128
 71
    20
 72
    14
 73
    10
  0
VERTEX
  5
16CDBC
  8
0
 10
0.0
 20
0.0
 30
0.0
 70
   128
 71
    20
 72
    10
 73
     9
  0
VERTEX
  5
16CDBD
  8
0
 10
0.0
 20
0.0
 30
0.0
 70
   128
 71
    12
 72
    17
 73
    13
  0
VERTEX
  5
16CDBE
  8
0
 10
0.0
 20
0.0
 30
0.0
 70
   128
 71
    21
 72
    18
 73
    14
  0
VERTEX
  5
16CDBF
  8
0
 10
0.0
 20
0.0
 30
0.0
 70
   128
 71
    21
 72
    14
 73
    20
  0
VERTEX
  5
16CDC0
  8
0
 10
0.0
 20
0.0
 30
0.0
 70
   128
 71
     2
 72
     1
 73
    19
  0
VERTEX
  5
16CDC1
  8
0
 10
0.0
 20
0.0
 30
0.0
 70
   128
 71
     2
 72
    19
 73
    22
  0
VERTEX
  5
16CDC2
  8
0
 10
0.0
 20
0.0
 30
0.0
 70
   128
 71
    23
 72
     9
 73
     6
  0
VERTEX
  5
16CDC3
  8
0
 10
0.0
 20
0.0
 30
0.0
 70
   128
 71
    23
 72
     6
 73
     5
  0
SEQEND
  5
16D0A2
  8
0
  0
POLYLINE
  5
16CDC4
  8
0
 66
     1
 10
0.0
 20
0.0
 30
0.0
 70
    64
 71
    21
 72
    21
  0
VERTEX
  5
16CDC5
  8
0
 10
-1.5
 20
0.0000000000000142
 30
-25.5
 70
   192
  0
VERTEX
  5
16CDC6
  8
0
 10
-1.5
 20
12.75000000000001
 30
-22.08364779650318
 70
   192
  0
VERTEX
  5
16CDC7
  8
0
 10
-1.5
 20
22.08364779650319
 30
-12.74999999999999
 70
   192
  0
VERTEX
  5
16CDC8
  8
0
 10
-1.5
 20
25.5
 30
0.0000000000000071
 70
   192
  0
VERTEX
  5
16CDC9
  8
0
 10
-1.5
 20
22.08364779650318
 30
12.75000000000001
 70
   192
  0
VERTEX
  5
16CDCA
  8
0
 10
-1.5
 20
12.75
 30
22.08364779650319
 70
   192
  0
VERTEX
  5
16CDCB
  8
0
 10
-1.5
 20
0.0
 30
25.5
 70
   192
  0
VERTEX
  5
16CDCC
  8
0
 10
-1.5
 20
-12.75
 30
22.08364779650319
 70
   192
  0
VERTEX
  5
16CDCD
  8
0
 10
-1.5
 20
-22.08364779650318
 30
12.75000000000001
 70
   192
  0
VERTEX
  5
16CDCE
  8
0
 10
-1.5
 20
-25.5
 30
0.0000000000000071
 70
   192
  0
VERTEX
  5
16CDCF
  8
0
 10
-1.5
 20
-22.08364779650319
 30
-12.74999999999999
 70
   192
  0
VERTEX
  5
16CDD0
  8
0
 10
-1.5
 20
-12.75000000000001
 30
-22.08364779650318
 70
   192
  0
VERTEX
  5
16CDD1
  8
0
 10
-1.5
 20
10.3
 30
0.0000000000069692
 70
   192
  0
VERTEX
  5
16CDD2
  8
0
 10
-1.5
 20
8.332875042065911
 30
-6.054188098607033
 70
   192
  0
VERTEX
  5
16CDD3
  8
0
 10
-1.5
 20
3.182875042068122
 30
-9.79588211783808
 70
   192
  0
VERTEX
  5
16CDD4
  8
0
 10
-1.5
 20
-3.182875042056029
 30
-9.795882117842009
 70
   192
  0
VERTEX
  5
16CDD5
  8
0
 10
-1.5
 20
-8.332875042058438
 30
-6.05418809861732
 70
   192
  0
VERTEX
  5
16CDD6
  8
0
 10
-1.5
 20
-10.3
 30
-0.000000000005752
 70
   192
  0
VERTEX
  5
16CDD7
  8
0
 10
-1.5
 20
-7.283199846225722
 30
7.283199846217157
 70
   192
  0
VERTEX
  5
16CDD8
  8
0
 10
-1.5
 20
-0.0000000000063609
 30
10.3
 70
   192
  0
VERTEX
  5
16CDD9
  8
0
 10
-1.5
 20
7.283199846216727
 30
7.283199846226154
 70
   192
  0
VERTEX
  5
16CDDA
  8
0
 10
0.0
 20
0.0
 30
0.0
 70
   128
 71
    14
 72
   -13
 73
    -4
  0
VERTEX
  5
16CDDB
  8
0
 10
0.0
 20
0.0
 30
0.0
 70
   128
 71
   -14
 72
     4
 73
    -3
  0
VERTEX
  5
16CDDC
  8
0
 10
0.0
 20
0.0
 30
0.0
 70
   128
 71
     3
 72
    -2
 73
   -15
  0
VERTEX
  5
16CDDD
  8
0
 10
0.0
 20
0.0
 30
0.0
 70
   128
 71
    -3
 72
    15
 73
   -14
  0
VERTEX
  5
16CDDE
  8
0
 10
0.0
 20
0.0
 30
0.0
 70
   128
 71
     2
 72
     1
 73
   -12
  0
VERTEX
  5
16CDDF
  8
0
 10
0.0
 20
0.0
 30
0.0
 70
   128
 71
    -2
 72
   -12
 73
   -16
  0
VERTEX
  5
16CDE0
  8
0
 10
0.0
 20
0.0
 30
0.0
 70
   128
 71
    -2
 72
    16
 73
   -15
  0
VERTEX
  5
16CDE1
  8
0
 10
0.0
 20
0.0
 30
0.0
 70
   128
 71
    12
 72
   -11
 73
   -17
  0
VERTEX
  5
16CDE2
  8
0
 10
0.0
 20
0.0
 30
0.0
 70
   128
 71
   -12
 72
    17
 73
   -16
  0
VERTEX
  5
16CDE3
  8
0
 10
0.0
 20
0.0
 30
0.0
 70
   128
 71
    11
 72
   -10
 73
   -18
  0
VERTEX
  5
16CDE4
  8
0
 10
0.0
 20
0.0
 30
0.0
 70
   128
 71
   -11
 72
    18
 73
   -17
  0
VERTEX
  5
16CDE5
  8
0
 10
0.0
 20
0.0
 30
0.0
 70
   128
 71
    10
 72
    -9
 73
   -19
  0
VERTEX
  5
16CDE6
  8
0
 10
0.0
 20
0.0
 30
0.0
 70
   128
 71
   -10
 72
    19
 73
   -18
  0
VERTEX
  5
16CDE7
  8
0
 10
0.0
 20
0.0
 30
0.0
 70
   128
 71
     9
 72
     8
 73
    -7
  0
VERTEX
  5
16CDE8
  8
0
 10
0.0
 20
0.0
 30
0.0
 70
   128
 71
    -9
 72
    -7
 73
   -20
  0
VERTEX
  5
16CDE9
  8
0
 10
0.0
 20
0.0
 30
0.0
 70
   128
 71
    -9
 72
    20
 73
   -19
  0
VERTEX
  5
16CDEA
  8
0
 10
0.0
 20
0.0
 30
0.0
 70
   128
 71
     7
 72
    -6
 73
   -21
  0
VERTEX
  5
16CDEB
  8
0
 10
0.0
 20
0.0
 30
0.0
 70
   128
 71
    -7
 72
    21
 73
   -20
  0
VERTEX
  5
16CDEC
  8
0
 10
0.0
 20
0.0
 30
0.0
 70
   128
 71
     6
 72
     5
 73
    -4
  0
VERTEX
  5
16CDED
  8
0
 10
0.0
 20
0.0
 30
0.0
 70
   128
 71
    -6
 72
    -4
 73
   -13
  0
VERTEX
  5
16CDEE
  8
0
 10
0.0
 20
0.0
 30
0.0
 70
   128
 71
    -6
 72
    13
 73
   -21
  0
SEQEND
  5
16D0A3
  8
0
  0
POLYLINE
  5
16CDEF
  8
0
 66
     1
 10
0.0
 20
0.0
 30
0.0
 70
    64
 71
    14
 72
    12
  0
VERTEX
  5
16CDF0
  8
0
 10
-8.0
 20
22.08364779650318
 30
-12.75000000000001
 70
   192
  0
VERTEX
  5
16CDF1
  8
0
 10
-8.0
 20
12.75
 30
-22.08364779650319
 70
   192
  0
VERTEX
  5
16CDF2
  8
0
 10
-1.5
 20
12.75000000000001
 30
-22.08364779650318
 70
   192
  0
VERTEX
  5
16CDF3
  8
0
 10
-1.5
 20
22.08364779650319
 30
-12.74999999999999
 70
   192
  0
VERTEX
  5
16CDF4
  8
0
 10
-8.0
 20
12.75000000000001
 30
22.08364779650318
 70
   192
  0
VERTEX
  5
16CDF5
  8
0
 10
-8.0
 20
22.08364779650319
 30
12.74999999999999
 70
   192
  0
VERTEX
  5
16CDF6
  8
0
 10
-1.5
 20
22.08364779650318
 30
12.75000000000001
 70
   192
  0
VERTEX
  5
16CDF7
  8
0
 10
-1.5
 20
12.75
 30
22.08364779650319
 70
   192
  0
VERTEX
  5
16CDF8
  8
0
 10
-8.0
 20
0.0
 30
25.5
 70
   192
  0
VERTEX
  5
16CDF9
  8
0
 10
-1.5
 20
0.0
 30
25.5
 70
   192
  0
VERTEX
  5
16CDFA
  8
0
 10
-8.0
 20
25.5
 30
-0.0000000000000071
 70
   192
  0
VERTEX
  5
16CDFB
  8
0
 10
-1.5
 20
25.5
 30
0.0000000000000071
 70
   192
  0
VERTEX
  5
16CDFC
  8
0
 10
-8.0
 20
0.0
 30
-25.5
 70
   192
  0
VERTEX
  5
16CDFD
  8
0
 10
-1.5
 20
0.0
 30
-25.5
 70
   192
  0
VERTEX
  5
16CDFE
  8
0
 10
0.0
 20
0.0
 30
0.0
 70
   128
 71
     1
 72
     2
 73
    -3
  0
VERTEX
  5
16CDFF
  8
0
 10
0.0
 20
0.0
 30
0.0
 70
   128
 71
     4
 72
    -1
 73
     3
  0
VERTEX
  5
16CE00
  8
0
 10
0.0
 20
0.0
 30
0.0
 70
   128
 71
     5
 72
     6
 73
    -7
  0
VERTEX
  5
16CE01
  8
0
 10
0.0
 20
0.0
 30
0.0
 70
   128
 71
     8
 72
    -5
 73
     7
  0
VERTEX
  5
16CE02
  8
0
 10
0.0
 20
0.0
 30
0.0
 70
   128
 71
     9
 72
     5
 73
    -8
  0
VERTEX
  5
16CE03
  8
0
 10
0.0
 20
0.0
 30
0.0
 70
   128
 71
    10
 72
    -9
 73
     8
  0
VERTEX
  5
16CE04
  8
0
 10
0.0
 20
0.0
 30
0.0
 70
   128
 71
     6
 72
    11
 73
   -12
  0
VERTEX
  5
16CE05
  8
0
 10
0.0
 20
0.0
 30
0.0
 70
   128
 71
     7
 72
    -6
 73
    12
  0
VERTEX
  5
16CE06
  8
0
 10
0.0
 20
0.0
 30
0.0
 70
   128
 71
    11
 72
     1
 73
    -4
  0
VERTEX
  5
16CE07
  8
0
 10
0.0
 20
0.0
 30
0.0
 70
   128
 71
    12
 72
   -11
 73
     4
  0
VERTEX
  5
16CE08
  8
0
 10
0.0
 20
0.0
 30
0.0
 70
   128
 71
     2
 72
    13
 73
   -14
  0
VERTEX
  5
16CE09
  8
0
 10
0.0
 20
0.0
 30
0.0
 70
   128
 71
     3
 72
    -2
 73
    14
  0
SEQEND
  5
16D0A4
  8
0
  0
POLYLINE
  5
16CE0A
  8
0
 66
     1
 10
0.0
 20
0.0
 30
0.0
 70
    64
 71
    14
 72
    12
  0
VERTEX
  5
16CE0B
  8
0
 10
-8.0
 20
-22.08364779650318
 30
12.75000000000001
 70
   192
  0
VERTEX
  5
16CE0C
  8
0
 10
-8.0
 20
-12.75
 30
22.08364779650319
 70
   192
  0
VERTEX
  5
16CE0D
  8
0
 10
-1.5
 20
-12.75
 30
22.08364779650319
 70
   192
  0
VERTEX
  5
16CE0E
  8
0
 10
-1.5
 20
-22.08364779650318
 30
12.75000000000001
 70
   192
  0
VERTEX
  5
16CE0F
  8
0
 10
-8.0
 20
-12.75000000000001
 30
-22.08364779650318
 70
   192
  0
VERTEX
  5
16CE10
  8
0
 10
-8.0
 20
-22.08364779650319
 30
-12.74999999999999
 70
   192
  0
VERTEX
  5
16CE11
  8
0
 10
-1.5
 20
-22.08364779650319
 30
-12.74999999999999
 70
   192
  0
VERTEX
  5
16CE12
  8
0
 10
-1.5
 20
-12.75000000000001
 30
-22.08364779650318
 70
   192
  0
VERTEX
  5
16CE13
  8
0
 10
-8.0
 20
0.0
 30
-25.5
 70
   192
  0
VERTEX
  5
16CE14
  8
0
 10
-1.5
 20
-0.0000000000000142
 30
-25.5
 70
   192
  0
VERTEX
  5
16CE15
  8
0
 10
-8.0
 20
-25.5
 30
0.0000000000000071
 70
   192
  0
VERTEX
  5
16CE16
  8
0
 10
-1.5
 20
-25.5
 30
0.0000000000000071
 70
   192
  0
VERTEX
  5
16CE17
  8
0
 10
-8.0
 20
0.0
 30
25.5
 70
   192
  0
VERTEX
  5
16CE18
  8
0
 10
-1.5
 20
0.0
 30
25.5
 70
   192
  0
VERTEX
  5
16CE19
  8
0
 10
0.0
 20
0.0
 30
0.0
 70
   128
 71
     1
 72
     2
 73
    -3
  0
VERTEX
  5
16CE1A
  8
0
 10
0.0
 20
0.0
 30
0.0
 70
   128
 71
     4
 72
    -1
 73
     3
  0
VERTEX
  5
16CE1B
  8
0
 10
0.0
 20
0.0
 30
0.0
 70
   128
 71
     5
 72
     6
 73
    -7
  0
VERTEX
  5
16CE1C
  8
0
 10
0.0
 20
0.0
 30
0.0
 70
   128
 71
     8
 72
    -5
 73
     7
  0
VERTEX
  5
16CE1D
  8
0
 10
0.0
 20
0.0
 30
0.0
 70
   128
 71
     9
 72
     5
 73
    -8
  0
VERTEX
  5
16CE1E
  8
0
 10
0.0
 20
0.0
 30
0.0
 70
   128
 71
    10
 72
    -9
 73
     8
  0
VERTEX
  5
16CE1F
  8
0
 10
0.0
 20
0.0
 30
0.0
 70
   128
 71
     6
 72
    11
 73
   -12
  0
VERTEX
  5
16CE20
  8
0
 10
0.0
 20
0.0
 30
0.0
 70
   128
 71
     7
 72
    -6
 73
    12
  0
VERTEX
  5
16CE21
  8
0
 10
0.0
 20
0.0
 30
0.0
 70
   128
 71
    11
 72
     1
 73
    -4
  0
VERTEX
  5
16CE22
  8
0
 10
0.0
 20
0.0
 30
0.0
 70
   128
 71
    12
 72
   -11
 73
     4
  0
VERTEX
  5
16CE23
  8
0
 10
0.0
 20
0.0
 30
0.0
 70
   128
 71
     2
 72
    13
 73
   -14
  0
VERTEX
  5
16CE24
  8
0
 10
0.0
 20
0.0
 30
0.0
 70
   128
 71
     3
 72
    -2
 73
    14
  0
SEQEND
  5
16D0A5
  8
0
  0
POLYLINE
  5
16CE25
  8
0
 66
     1
 10
0.0
 20
0.0
 30
0.0
 70
    64
 71
    39
 72
    58
  0
VERTEX
  5
16CE26
  8
0
 10
0.0
 20
-22.08364779650318
 30
12.75000000000001
 70
   192
  0
VERTEX
  5
16CE27
  8
0
 10
-0.0380602337443566
 20
-18.16652194529351
 30
18.16652194529351
 70
   192
  0
VERTEX
  5
16CE28
  8
0
 10
-0.0380602337443566
 20
-23.73570477433445
 30
9.831650830013155
 70
   192
  0
VERTEX
  5
16CE29
  8
0
 10
-0.0380602337443566
 20
-9.831650830013151
 30
23.73570477433445
 70
   192
  0
VERTEX
  5
16CE2A
  8
0
 10
0.0
 20
0.0000000000000071
 30
25.5
 70
   192
  0
VERTEX
  5
16CE2B
  8
0
 10
-0.0380602337443566
 20
0.0000000000000017
 30
25.69134171618255
 70
   192
  0
VERTEX
  5
16CE2C
  8
0
 10
0.0
 20
12.75000000000001
 30
22.08364779650318
 70
   192
  0
VERTEX
  5
16CE2D
  8
0
 10
-0.0380602337443566
 20
18.16652194529351
 30
18.16652194529351
 70
   192
  0
VERTEX
  5
16CE2E
  8
0
 10
-0.0380602337443566
 20
9.831650830013153
 30
23.73570477433445
 70
   192
  0
VERTEX
  5
16CE2F
  8
0
 10
-0.1464466094067262
 20
-18.28122292025696
 30
18.28122292025697
 70
   192
  0
VERTEX
  5
16CE30
  8
0
 10
-0.1464466094067262
 20
-23.88556882025691
 30
9.89372655034634
 70
   192
  0
VERTEX
  5
16CE31
  8
0
 10
-0.1464466094067262
 20
0.0000000000000017
 30
25.85355339059327
 70
   192
  0
VERTEX
  5
16CE32
  8
0
 10
-0.1464466094067262
 20
-9.893726550346337
 30
23.88556882025691
 70
   192
  0
VERTEX
  5
16CE33
  8
0
 10
-0.1464466094067262
 20
18.28122292025697
 30
18.28122292025696
 70
   192
  0
VERTEX
  5
16CE34
  8
0
 10
-0.1464466094067262
 20
9.893726550346338
 30
23.88556882025691
 70
   192
  0
VERTEX
  5
16CE35
  8
0
 10
-0.0669872981077803
 20
25.75
 30
0.0
 70
   192
  0
VERTEX
  5
16CE36
  8
0
 10
-0.1464466094067262
 20
23.88556882025691
 30
9.893726550346338
 70
   192
  0
VERTEX
  5
16CE37
  8
0
 10
-0.0380602337443566
 20
23.73570477433445
 30
9.831650830013153
 70
   192
  0
VERTEX
  5
16CE38
  8
0
 10
-0.3086582838174551
 20
-18.35786366147606
 30
18.35786366147606
 70
   192
  0
VERTEX
  5
16CE39
  8
0
 10
-0.3086582838174551
 20
-23.98570477433445
 30
9.935204220606428
 70
   192
  0
VERTEX
  5
16CE3A
  8
0
 10
-0.2499999999999997
 20
-25.93301270189222
 30
0.0
 70
   192
  0
VERTEX
  5
16CE3B
  8
0
 10
-0.3086582838174551
 20
0.0000000000000017
 30
25.96193976625564
 70
   192
  0
VERTEX
  5
16CE3C
  8
0
 10
-0.3086582838174551
 20
-9.935204220606424
 30
23.98570477433445
 70
   192
  0
VERTEX
  5
16CE3D
  8
0
 10
-0.3086582838174551
 20
18.35786366147606
 30
18.35786366147606
 70
   192
  0
VERTEX
  5
16CE3E
  8
0
 10
-0.3086582838174551
 20
9.935204220606426
 30
23.98570477433445
 70
   192
  0
VERTEX
  5
16CE3F
  8
0
 10
-0.3086582838174551
 20
23.98570477433445
 30
9.935204220606426
 70
   192
  0
VERTEX
  5
16CE40
  8
0
 10
-0.5
 20
-12.99999999999999
 30
22.51666049839541
 70
   192
  0
VERTEX
  5
16CE41
  8
0
 10
-0.5
 20
0.0000000000000072
 30
26.0
 70
   192
  0
VERTEX
  5
16CE42
  8
0
 10
-0.5
 20
22.51666049839541
 30
13.0
 70
   192
  0
VERTEX
  5
16CE43
  8
0
 10
-0.0669872981077803
 20
-25.75
 30
0.0
 70
   192
  0
VERTEX
  5
16CE44
  8
0
 10
-0.2499999999999997
 20
25.93301270189222
 30
0.0
 70
   192
  0
VERTEX
  5
16CE45
  8
0
 10
-0.5
 20
-26.0
 30
0.0000000000000144
 70
   192
  0
VERTEX
  5
16CE46
  8
0
 10
-0.4999999999999999
 20
26.0
 30
0.0
 70
   192
  0
VERTEX
  5
16CE47
  8
0
 10
0.0
 20
25.5
 30
0.0
 70
   192
  0
VERTEX
  5
16CE48
  8
0
 10
0.0
 20
-12.74999999999999
 30
22.08364779650319
 70
   192
  0
VERTEX
  5
16CE49
  8
0
 10
0.0000000000000004
 20
-25.5
 30
0.0
 70
   192
  0
VERTEX
  5
16CE4A
  8
0
 10
0.0
 20
22.08364779650319
 30
12.75
 70
   192
  0
VERTEX
  5
16CE4B
  8
0
 10
-0.5
 20
-22.5166604983954
 30
13.00000000000001
 70
   192
  0
VERTEX
  5
16CE4C
  8
0
 10
-0.5
 20
13.00000000000001
 30
22.5166604983954
 70
   192
  0
VERTEX
  5
16CE4D
  8
0
 10
0.0
 20
0.0
 30
0.0
 70
   128
 71
     1
 72
     2
 73
     3
  0
VERTEX
  5
16CE4E
  8
0
 10
0.0
 20
0.0
 30
0.0
 70
   128
 71
     4
 72
     5
 73
     6
  0
VERTEX
  5
16CE4F
  8
0
 10
0.0
 20
0.0
 30
0.0
 70
   128
 71
     7
 72
     8
 73
     9
  0
VERTEX
  5
16CE50
  8
0
 10
0.0
 20
0.0
 30
0.0
 70
   128
 71
    10
 72
    11
 73
    -3
  0
VERTEX
  5
16CE51
  8
0
 10
0.0
 20
0.0
 30
0.0
 70
   128
 71
   -10
 72
     3
 73
     2
  0
VERTEX
  5
16CE52
  8
0
 10
0.0
 20
0.0
 30
0.0
 70
   128
 71
    12
 72
    13
 73
    -4
  0
VERTEX
  5
16CE53
  8
0
 10
0.0
 20
0.0
 30
0.0
 70
   128
 71
   -12
 72
     4
 73
     6
  0
VERTEX
  5
16CE54
  8
0
 10
0.0
 20
0.0
 30
0.0
 70
   128
 71
    13
 72
    10
 73
    -2
  0
VERTEX
  5
16CE55
  8
0
 10
0.0
 20
0.0
 30
0.0
 70
   128
 71
   -13
 72
     2
 73
     4
  0
VERTEX
  5
16CE56
  8
0
 10
0.0
 20
0.0
 30
0.0
 70
   128
 71
    14
 72
    15
 73
    -9
  0
VERTEX
  5
16CE57
  8
0
 10
0.0
 20
0.0
 30
0.0
 70
   128
 71
   -14
 72
     9
 73
     8
  0
VERTEX
  5
16CE58
  8
0
 10
0.0
 20
0.0
 30
0.0
 70
   128
 71
    15
 72
    12
 73
    -6
  0
VERTEX
  5
16CE59
  8
0
 10
0.0
 20
0.0
 30
0.0
 70
   128
 71
   -15
 72
     6
 73
     9
  0
VERTEX
  5
16CE5A
  8
0
 10
0.0
 20
0.0
 30
0.0
 70
   128
 71
    16
 72
    17
 73
    18
  0
VERTEX
  5
16CE5B
  8
0
 10
0.0
 20
0.0
 30
0.0
 70
   128
 71
    17
 72
    14
 73
    -8
  0
VERTEX
  5
16CE5C
  8
0
 10
0.0
 20
0.0
 30
0.0
 70
   128
 71
   -17
 72
     8
 73
    18
  0
VERTEX
  5
16CE5D
  8
0
 10
0.0
 20
0.0
 30
0.0
 70
   128
 71
    19
 72
    20
 73
   -11
  0
VERTEX
  5
16CE5E
  8
0
 10
0.0
 20
0.0
 30
0.0
 70
   128
 71
   -19
 72
    11
 73
    10
  0
VERTEX
  5
16CE5F
  8
0
 10
0.0
 20
0.0
 30
0.0
 70
   128
 71
    21
 72
    11
 73
    20
  0
VERTEX
  5
16CE60
  8
0
 10
0.0
 20
0.0
 30
0.0
 70
   128
 71
    22
 72
    23
 73
   -13
  0
VERTEX
  5
16CE61
  8
0
 10
0.0
 20
0.0
 30
0.0
 70
   128
 71
   -22
 72
    13
 73
    12
  0
VERTEX
  5
16CE62
  8
0
 10
0.0
 20
0.0
 30
0.0
 70
   128
 71
    23
 72
    19
 73
   -10
  0
VERTEX
  5
16CE63
  8
0
 10
0.0
 20
0.0
 30
0.0
 70
   128
 71
   -23
 72
    10
 73
    13
  0
VERTEX
  5
16CE64
  8
0
 10
0.0
 20
0.0
 30
0.0
 70
   128
 71
    24
 72
    25
 73
   -15
  0
VERTEX
  5
16CE65
  8
0
 10
0.0
 20
0.0
 30
0.0
 70
   128
 71
   -24
 72
    15
 73
    14
  0
VERTEX
  5
16CE66
  8
0
 10
0.0
 20
0.0
 30
0.0
 70
   128
 71
    25
 72
    22
 73
   -12
  0
VERTEX
  5
16CE67
  8
0
 10
0.0
 20
0.0
 30
0.0
 70
   128
 71
   -25
 72
    12
 73
    15
  0
VERTEX
  5
16CE68
  8
0
 10
0.0
 20
0.0
 30
0.0
 70
   128
 71
    26
 72
    24
 73
   -14
  0
VERTEX
  5
16CE69
  8
0
 10
0.0
 20
0.0
 30
0.0
 70
   128
 71
   -26
 72
    14
 73
    17
  0
VERTEX
  5
16CE6A
  8
0
 10
0.0
 20
0.0
 30
0.0
 70
   128
 71
    27
 72
    19
 73
    23
  0
VERTEX
  5
16CE6B
  8
0
 10
0.0
 20
0.0
 30
0.0
 70
   128
 71
    25
 72
    28
 73
    22
  0
VERTEX
  5
16CE6C
  8
0
 10
0.0
 20
0.0
 30
0.0
 70
   128
 71
    29
 72
    24
 73
    26
  0
VERTEX
  5
16CE6D
  8
0
 10
0.0
 20
0.0
 30
0.0
 70
   128
 71
     3
 72
    11
 73
    21
  0
VERTEX
  5
16CE6E
  8
0
 10
0.0
 20
0.0
 30
0.0
 70
   128
 71
     3
 72
    21
 73
    30
  0
VERTEX
  5
16CE6F
  8
0
 10
0.0
 20
0.0
 30
0.0
 70
   128
 71
    31
 72
    26
 73
    17
  0
VERTEX
  5
16CE70
  8
0
 10
0.0
 20
0.0
 30
0.0
 70
   128
 71
    31
 72
    17
 73
    16
  0
VERTEX
  5
16CE71
  8
0
 10
0.0
 20
0.0
 30
0.0
 70
   128
 71
    20
 72
    32
 73
    21
  0
VERTEX
  5
16CE72
  8
0
 10
0.0
 20
0.0
 30
0.0
 70
   128
 71
    33
 72
    26
 73
    31
  0
VERTEX
  5
16CE73
  8
0
 10
0.0
 20
0.0
 30
0.0
 70
   128
 71
    16
 72
    18
 73
    34
  0
VERTEX
  5
16CE74
  8
0
 10
0.0
 20
0.0
 30
0.0
 70
   128
 71
    35
 72
     4
 73
     2
  0
VERTEX
  5
16CE75
  8
0
 10
0.0
 20
0.0
 30
0.0
 70
   128
 71
    35
 72
     2
 73
     1
  0
VERTEX
  5
16CE76
  8
0
 10
0.0
 20
0.0
 30
0.0
 70
   128
 71
     1
 72
     3
 73
    30
  0
VERTEX
  5
16CE77
  8
0
 10
0.0
 20
0.0
 30
0.0
 70
   128
 71
     1
 72
    30
 73
    36
  0
VERTEX
  5
16CE78
  8
0
 10
0.0
 20
0.0
 30
0.0
 70
   128
 71
     5
 72
     4
 73
    35
  0
VERTEX
  5
16CE79
  8
0
 10
0.0
 20
0.0
 30
0.0
 70
   128
 71
    37
 72
    18
 73
     8
  0
VERTEX
  5
16CE7A
  8
0
 10
0.0
 20
0.0
 30
0.0
 70
   128
 71
    37
 72
     8
 73
     7
  0
VERTEX
  5
16CE7B
  8
0
 10
0.0
 20
0.0
 30
0.0
 70
   128
 71
     7
 72
     9
 73
     6
  0
VERTEX
  5
16CE7C
  8
0
 10
0.0
 20
0.0
 30
0.0
 70
   128
 71
     7
 72
     6
 73
     5
  0
VERTEX
  5
16CE7D
  8
0
 10
0.0
 20
0.0
 30
0.0
 70
   128
 71
    34
 72
    18
 73
    37
  0
VERTEX
  5
16CE7E
  8
0
 10
0.0
 20
0.0
 30
0.0
 70
   128
 71
    27
 72
    38
 73
    20
  0
VERTEX
  5
16CE7F
  8
0
 10
0.0
 20
0.0
 30
0.0
 70
   128
 71
    27
 72
    20
 73
    19
  0
VERTEX
  5
16CE80
  8
0
 10
0.0
 20
0.0
 30
0.0
 70
   128
 71
    38
 72
    32
 73
    20
  0
VERTEX
  5
16CE81
  8
0
 10
0.0
 20
0.0
 30
0.0
 70
   128
 71
    22
 72
    28
 73
    27
  0
VERTEX
  5
16CE82
  8
0
 10
0.0
 20
0.0
 30
0.0
 70
   128
 71
    22
 72
    27
 73
    23
  0
VERTEX
  5
16CE83
  8
0
 10
0.0
 20
0.0
 30
0.0
 70
   128
 71
    29
 72
    39
 73
    25
  0
VERTEX
  5
16CE84
  8
0
 10
0.0
 20
0.0
 30
0.0
 70
   128
 71
    29
 72
    25
 73
    24
  0
VERTEX
  5
16CE85
  8
0
 10
0.0
 20
0.0
 30
0.0
 70
   128
 71
    39
 72
    28
 73
    25
  0
VERTEX
  5
16CE86
  8
0
 10
0.0
 20
0.0
 30
0.0
 70
   128
 71
    33
 72
    29
 73
    26
  0
SEQEND
  5
16D0A6
  8
0
  0
POLYLINE
  5
16CE87
  8
0
 66
     1
 10
0.0
 20
0.0
 30
0.0
 70
    64
 71
    14
 72
    12
  0
VERTEX
  5
16CE88
  8
0
 10
-0.5
 20
22.51666049839541
 30
13.0
 70
   192
  0
VERTEX
  5
16CE89
  8
0
 10
-8.0
 20
22.51666049839541
 30
13.0
 70
   192
  0
VERTEX
  5
16CE8A
  8
0
 10
-8.0
 20
13.00000000000001
 30
22.5166604983954
 70
   192
  0
VERTEX
  5
16CE8B
  8
0
 10
-0.5
 20
13.00000000000001
 30
22.5166604983954
 70
   192
  0
VERTEX
  5
16CE8C
  8
0
 10
-0.5
 20
-12.99999999999999
 30
22.51666049839541
 70
   192
  0
VERTEX
  5
16CE8D
  8
0
 10
-8.0
 20
-12.99999999999999
 30
22.51666049839541
 70
   192
  0
VERTEX
  5
16CE8E
  8
0
 10
-8.0
 20
-22.5166604983954
 30
13.00000000000001
 70
   192
  0
VERTEX
  5
16CE8F
  8
0
 10
-0.5
 20
-22.5166604983954
 30
13.00000000000001
 70
   192
  0
VERTEX
  5
16CE90
  8
0
 10
-8.0
 20
-26.0
 30
0.0000000000000144
 70
   192
  0
VERTEX
  5
16CE91
  8
0
 10
-0.5
 20
-26.0
 30
0.0000000000000816
 70
   192
  0
VERTEX
  5
16CE92
  8
0
 10
-0.5
 20
0.0000000000000072
 30
26.0
 70
   192
  0
VERTEX
  5
16CE93
  8
0
 10
-8.0
 20
0.0000000000000072
 30
26.0
 70
   192
  0
VERTEX
  5
16CE94
  8
0
 10
-0.5
 20
26.0
 30
0.0
 70
   192
  0
VERTEX
  5
16CE95
  8
0
 10
-8.0
 20
26.0
 30
0.0
 70
   192
  0
VERTEX
  5
16CE96
  8
0
 10
0.0
 20
0.0
 30
0.0
 70
   128
 71
     1
 72
     2
 73
    -3
  0
VERTEX
  5
16CE97
  8
0
 10
0.0
 20
0.0
 30
0.0
 70
   128
 71
    -1
 72
     3
 73
     4
  0
VERTEX
  5
16CE98
  8
0
 10
0.0
 20
0.0
 30
0.0
 70
   128
 71
     5
 72
     6
 73
    -7
  0
VERTEX
  5
16CE99
  8
0
 10
0.0
 20
0.0
 30
0.0
 70
   128
 71
    -5
 72
     7
 73
     8
  0
VERTEX
  5
16CE9A
  8
0
 10
0.0
 20
0.0
 30
0.0
 70
   128
 71
     8
 72
     7
 73
    -9
  0
VERTEX
  5
16CE9B
  8
0
 10
0.0
 20
0.0
 30
0.0
 70
   128
 71
    -8
 72
     9
 73
    10
  0
VERTEX
  5
16CE9C
  8
0
 10
0.0
 20
0.0
 30
0.0
 70
   128
 71
    11
 72
    12
 73
    -6
  0
VERTEX
  5
16CE9D
  8
0
 10
0.0
 20
0.0
 30
0.0
 70
   128
 71
   -11
 72
     6
 73
     5
  0
VERTEX
  5
16CE9E
  8
0
 10
0.0
 20
0.0
 30
0.0
 70
   128
 71
     4
 72
     3
 73
   -12
  0
VERTEX
  5
16CE9F
  8
0
 10
0.0
 20
0.0
 30
0.0
 70
   128
 71
    -4
 72
    12
 73
    11
  0
VERTEX
  5
16CEA0
  8
0
 10
0.0
 20
0.0
 30
0.0
 70
   128
 71
    13
 72
    14
 73
    -2
  0
VERTEX
  5
16CEA1
  8
0
 10
0.0
 20
0.0
 30
0.0
 70
   128
 71
   -13
 72
     2
 73
     1
  0
SEQEND
  5
16D0A7
  8
0
  0
ENDBLK
  5
16D09A
  8
0
  0
BLOCK
  8
0
  2
*X3
 70
     1
 10
0.0
 20
0.0
 30
0.0
  3
*X3
  1

  0
POLYLINE
  5
16CEA3
  8
0
 66
     1
 10
0.0
 20
0.0
 30
0.0
 70
    64
 71
    38
 72
    36
  0
VERTEX
  5
16CEA4
  8
0
 10
56.20268509956332
 20
8.80528087110759
 30
12.22216764481938
 70
   192
  0
VERTEX
  5
16CEA5
  8
0
 10
52.76663114152769
 20
8.812879014800988
 30
12.21259627879119
 70
   192
  0
VERTEX
  5
16CEA6
  8
0
 10
51.09310781408127
 20
-11.04325536328003
 30
11.52917559070286
 70
   192
  0
VERTEX
  5
16CEA7
  8
0
 10
55.73125824587311
 20
-10.55549965817857
 30
11.97386608777511
 70
   192
  0
VERTEX
  5
16CEA8
  8
0
 10
62.40233325466343
 20
9.999997174569998
 30
9.514807670666276
 70
   192
  0
VERTEX
  5
16CEA9
  8
0
 10
60.97828530099154
 20
9.999997174569998
 30
10.53355714856405
 70
   192
  0
VERTEX
  5
16CEAA
  8
0
 10
63.49858344066855
 20
2.001641412535683
 30
8.304999999999998
 70
   192
  0
VERTEX
  5
16CEAB
  8
0
 10
63.66808539172176
 20
9.999997174569998
 30
8.305
 70
   192
  0
VERTEX
  5
16CEAC
  8
0
 10
59.30819096144872
 20
-11.55144110478909
 30
11.02420764239735
 70
   192
  0
VERTEX
  5
16CEAD
  8
0
 10
63.33004562004085
 20
-5.882496903009257
 30
8.305
 70
   192
  0
VERTEX
  5
16CEAE
  8
0
 10
63.16242143669001
 20
-13.65383188976
 30
8.305
 70
   192
  0
VERTEX
  5
16CEAF
  8
0
 10
42.16286715186772
 20
9.999997174569998
 30
0.0025331096982388
 70
   192
  0
VERTEX
  5
16CEB0
  8
0
 10
42.56910464253
 20
-15.99921884535
 30
-0.0000000000000834
 70
   192
  0
VERTEX
  5
16CEB1
  8
0
 10
44.09402509627699
 20
-14.87097233238388
 30
5.877233670229116
 70
   192
  0
VERTEX
  5
16CEB2
  8
0
 10
44.19584687888208
 20
9.999997174569998
 30
6.790212463515906
 70
   192
  0
VERTEX
  5
16CEB3
  8
0
 10
63.33005495787258
 20
-5.882062023047274
 30
-8.305000000000001
 70
   192
  0
VERTEX
  5
16CEB4
  8
0
 10
63.16242103593
 20
-13.65385038458
 30
-8.305
 70
   192
  0
VERTEX
  5
16CEB5
  8
0
 10
61.09519635885813
 20
-12.41936112284705
 30
-10.04478603066715
 70
   192
  0
VERTEX
  5
16CEB6
  8
0
 10
62.40215958999811
 20
9.999997174569998
 30
-9.514951552898621
 70
   192
  0
VERTEX
  5
16CEB7
  8
0
 10
63.49859295669284
 20
2.002088528326941
 30
-8.305
 70
   192
  0
VERTEX
  5
16CEB8
  8
0
 10
63.66808539357879
 20
9.999997174569998
 30
-8.305000001572504
 70
   192
  0
VERTEX
  5
16CEB9
  8
0
 10
57.92736236490738
 20
-11.03749816292881
 30
-11.53452949512606
 70
   192
  0
VERTEX
  5
16CEBA
  8
0
 10
60.97790078167764
 20
9.999997174569998
 30
-10.53379292605218
 70
   192
  0
VERTEX
  5
16CEBB
  8
0
 10
59.4239155624722
 20
9.999997174569998
 30
-11.34106043761131
 70
   192
  0
VERTEX
  5
16CEBC
  8
0
 10
52.76629361078
 20
8.812934571353587
 30
-12.21254655216948
 70
   192
  0
VERTEX
  5
16CEBD
  8
0
 10
56.21507788471159
 20
8.80606974534752
 30
-12.2204670347066
 70
   192
  0
VERTEX
  5
16CEBE
  8
0
 10
55.30218285549225
 20
-10.51369234709036
 30
-12.01021618043133
 70
   192
  0
VERTEX
  5
16CEBF
  8
0
 10
52.24935750199995
 20
-10.73285459296327
 30
-11.81627251332695
 70
   192
  0
VERTEX
  5
16CEC0
  8
0
 10
59.42453654309804
 20
9.999997174569998
 30
11.34079185446964
 70
   192
  0
VERTEX
  5
16CEC1
  8
0
 10
46.91173023571572
 20
-13.00819087598052
 30
9.276289902533797
 70
   192
  0
VERTEX
  5
16CEC2
  8
0
 10
49.62348617351684
 20
9.999997174569998
 30
11.34502632008905
 70
   192
  0
VERTEX
  5
16CEC3
  8
0
 10
49.62348597436377
 20
9.999997209553888
 30
11.34502678160254
 70
   192
  0
VERTEX
  5
16CEC4
  8
0
 10
44.19306367195002
 20
9.999997174569998
 30
-6.78597922147858
 70
   192
  0
VERTEX
  5
16CEC5
  8
0
 10
48.26203463731147
 20
-12.24945631294383
 30
-10.24965267140551
 70
   192
  0
VERTEX
  5
16CEC6
  8
0
 10
44.41982634575199
 20
-14.63955181549657
 30
-6.427698089452513
 70
   192
  0
VERTEX
  5
16CEC7
  8
0
 10
43.14620598858527
 20
-15.56419777995321
 30
-3.690824124044905
 70
   192
  0
VERTEX
  5
16CEC8
  8
0
 10
49.61883497795608
 20
9.999997174569998
 30
-11.34301809728547
 70
   192
  0
VERTEX
  5
16CEC9
  8
0
 10
59.42391922725681
 20
9.999997174570002
 30
-11.34106891145387
 70
   192
  0
VERTEX
  5
16CECA
  8
0
 10
0.0
 20
0.0
 30
0.0
 70
   128
 71
     1
 72
     2
 73
     3
  0
VERTEX
  5
16CECB
  8
0
 10
0.0
 20
0.0
 30
0.0
 70
   128
 71
     1
 72
     3
 73
     4
  0
VERTEX
  5
16CECC
  8
0
 10
0.0
 20
0.0
 30
0.0
 70
   128
 71
     5
 72
     6
 73
     7
  0
VERTEX
  5
16CECD
  8
0
 10
0.0
 20
0.0
 30
0.0
 70
   128
 71
     7
 72
     8
 73
     5
  0
VERTEX
  5
16CECE
  8
0
 10
0.0
 20
0.0
 30
0.0
 70
   128
 71
     6
 72
     9
 73
    10
  0
VERTEX
  5
16CECF
  8
0
 10
0.0
 20
0.0
 30
0.0
 70
   128
 71
     6
 72
    10
 73
     7
  0
VERTEX
  5
16CED0
  8
0
 10
0.0
 20
0.0
 30
0.0
 70
   128
 71
     9
 72
    11
 73
    10
  0
VERTEX
  5
16CED1
  8
0
 10
0.0
 20
0.0
 30
0.0
 70
   128
 71
    12
 72
    13
 73
    14
  0
VERTEX
  5
16CED2
  8
0
 10
0.0
 20
0.0
 30
0.0
 70
   128
 71
    14
 72
    15
 73
    12
  0
VERTEX
  5
16CED3
  8
0
 10
0.0
 20
0.0
 30
0.0
 70
   128
 71
    16
 72
    17
 73
    18
  0
VERTEX
  5
16CED4
  8
0
 10
0.0
 20
0.0
 30
0.0
 70
   128
 71
    18
 72
    19
 73
    20
  0
VERTEX
  5
16CED5
  8
0
 10
0.0
 20
0.0
 30
0.0
 70
   128
 71
    18
 72
    20
 73
    16
  0
VERTEX
  5
16CED6
  8
0
 10
0.0
 20
0.0
 30
0.0
 70
   128
 71
    19
 72
    21
 73
    20
  0
VERTEX
  5
16CED7
  8
0
 10
0.0
 20
0.0
 30
0.0
 70
   128
 71
    18
 72
    22
 73
    23
  0
VERTEX
  5
16CED8
  8
0
 10
0.0
 20
0.0
 30
0.0
 70
   128
 71
    18
 72
    23
 73
    19
  0
VERTEX
  5
16CED9
  8
0
 10
0.0
 20
0.0
 30
0.0
 70
   128
 71
    22
 72
    24
 73
    23
  0
VERTEX
  5
16CEDA
  8
0
 10
0.0
 20
0.0
 30
0.0
 70
   128
 71
    25
 72
    26
 73
    27
  0
VERTEX
  5
16CEDB
  8
0
 10
0.0
 20
0.0
 30
0.0
 70
   128
 71
    25
 72
    27
 73
    28
  0
VERTEX
  5
16CEDC
  8
0
 10
0.0
 20
0.0
 30
0.0
 70
   128
 71
     1
 72
     6
 73
    29
  0
VERTEX
  5
16CEDD
  8
0
 10
0.0
 20
0.0
 30
0.0
 70
   128
 71
     1
 72
     4
 73
     9
  0
VERTEX
  5
16CEDE
  8
0
 10
0.0
 20
0.0
 30
0.0
 70
   128
 71
     1
 72
     9
 73
     6
  0
VERTEX
  5
16CEDF
  8
0
 10
0.0
 20
0.0
 30
0.0
 70
   128
 71
    30
 72
     3
 73
     2
  0
VERTEX
  5
16CEE0
  8
0
 10
0.0
 20
0.0
 30
0.0
 70
   128
 71
    31
 72
    30
 73
     2
  0
VERTEX
  5
16CEE1
  8
0
 10
0.0
 20
0.0
 30
0.0
 70
   128
 71
     2
 72
    32
 73
    31
  0
VERTEX
  5
16CEE2
  8
0
 10
0.0
 20
0.0
 30
0.0
 70
   128
 71
    15
 72
    30
 73
    31
  0
VERTEX
  5
16CEE3
  8
0
 10
0.0
 20
0.0
 30
0.0
 70
   128
 71
    15
 72
    14
 73
    30
  0
VERTEX
  5
16CEE4
  8
0
 10
0.0
 20
0.0
 30
0.0
 70
   128
 71
    33
 72
    13
 73
    12
  0
VERTEX
  5
16CEE5
  8
0
 10
0.0
 20
0.0
 30
0.0
 70
   128
 71
    34
 72
    35
 73
    36
  0
VERTEX
  5
16CEE6
  8
0
 10
0.0
 20
0.0
 30
0.0
 70
   128
 71
    34
 72
    36
 73
    13
  0
VERTEX
  5
16CEE7
  8
0
 10
0.0
 20
0.0
 30
0.0
 70
   128
 71
    34
 72
    13
 73
    33
  0
VERTEX
  5
16CEE8
  8
0
 10
0.0
 20
0.0
 30
0.0
 70
   128
 71
    25
 72
    28
 73
    34
  0
VERTEX
  5
16CEE9
  8
0
 10
0.0
 20
0.0
 30
0.0
 70
   128
 71
    25
 72
    34
 73
    33
  0
VERTEX
  5
16CEEA
  8
0
 10
0.0
 20
0.0
 30
0.0
 70
   128
 71
    25
 72
    33
 73
    37
  0
VERTEX
  5
16CEEB
  8
0
 10
0.0
 20
0.0
 30
0.0
 70
   128
 71
    26
 72
    38
 73
    24
  0
VERTEX
  5
16CEEC
  8
0
 10
0.0
 20
0.0
 30
0.0
 70
   128
 71
    24
 72
    22
 73
    27
  0
VERTEX
  5
16CEED
  8
0
 10
0.0
 20
0.0
 30
0.0
 70
   128
 71
    24
 72
    27
 73
    26
  0
SEQEND
  5
16D0AA
  8
0
  0
POLYLINE
  5
16CEEE
  8
0
 66
     1
 10
0.0
 20
0.0
 30
0.0
 70
    64
 71
    10
 72
     8
  0
VERTEX
  5
16CEEF
  8
0
 10
61.72366120686001
 20
-13.14513009119
 30
8.305
 70
   192
  0
VERTEX
  5
16CEF0
  8
0
 10
62.18612642053336
 20
-13.31950136501084
 30
8.305
 70
   192
  0
VERTEX
  5
16CEF1
  8
0
 10
62.66573393143418
 20
-13.48925288947917
 30
8.305
 70
   192
  0
VERTEX
  5
16CEF2
  8
0
 10
63.16242143669001
 20
-13.65383188976
 30
8.305
 70
   192
  0
VERTEX
  5
16CEF3
  8
0
 10
63.33004562004085
 20
-5.882496903009257
 30
8.305
 70
   192
  0
VERTEX
  5
16CEF4
  8
0
 10
63.49858344066855
 20
2.001641412535683
 30
8.304999999999998
 70
   192
  0
VERTEX
  5
16CEF5
  8
0
 10
63.66808539172176
 20
9.999997174569998
 30
8.305
 70
   192
  0
VERTEX
  5
16CEF6
  8
0
 10
62.26430714853606
 20
9.999997361838407
 30
8.305012784817256
 70
   192
  0
VERTEX
  5
16CEF7
  8
0
 10
62.08168014128358
 20
2.079234965265549
 30
8.305003788094002
 70
   192
  0
VERTEX
  5
16CEF8
  8
0
 10
61.90146664405773
 20
-5.635807560694837
 30
8.305000473511752
 70
   192
  0
VERTEX
  5
16CEF9
  8
0
 10
0.0
 20
0.0
 30
0.0
 70
   128
 71
     9
 72
     8
 73
    -7
  0
VERTEX
  5
16CEFA
  8
0
 10
0.0
 20
0.0
 30
0.0
 70
   128
 71
    -9
 72
     7
 73
    -6
  0
VERTEX
  5
16CEFB
  8
0
 10
0.0
 20
0.0
 30
0.0
 70
   128
 71
     6
 72
    -5
 73
   -10
  0
VERTEX
  5
16CEFC
  8
0
 10
0.0
 20
0.0
 30
0.0
 70
   128
 71
    -6
 72
    10
 73
    -9
  0
VERTEX
  5
16CEFD
  8
0
 10
0.0
 20
0.0
 30
0.0
 70
   128
 71
     2
 72
     1
 73
   -10
  0
VERTEX
  5
16CEFE
  8
0
 10
0.0
 20
0.0
 30
0.0
 70
   128
 71
    -2
 72
   -10
 73
    -5
  0
VERTEX
  5
16CEFF
  8
0
 10
0.0
 20
0.0
 30
0.0
 70
   128
 71
    -5
 72
     3
 73
    -2
  0
VERTEX
  5
16CF00
  8
0
 10
0.0
 20
0.0
 30
0.0
 70
   128
 71
     5
 72
     4
 73
    -3
  0
SEQEND
  5
16D0AB
  8
0
  0
POLYLINE
  5
16CF01
  8
0
 66
     1
 10
0.0
 20
0.0
 30
0.0
 70
    64
 71
    13
 72
    11
  0
VERTEX
  5
16CF02
  8
0
 10
49.85998668216862
 20
9.999997173669545
 30
10.50287359681299
 70
   192
  0
VERTEX
  5
16CF03
  8
0
 10
49.9626989906839
 20
9.999997150273234
 30
10.61945326042272
 70
   192
  0
VERTEX
  5
16CF04
  8
0
 10
53.11023269883179
 20
8.77647065510481
 30
11.45051910805458
 70
   192
  0
VERTEX
  5
16CF05
  8
0
 10
52.22460314850677
 20
8.808633679263743
 30
11.10289574216446
 70
   192
  0
VERTEX
  5
16CF06
  8
0
 10
49.75935444418258
 20
10.00000730620735
 30
10.38446987575127
 70
   192
  0
VERTEX
  5
16CF07
  8
0
 10
49.66001233016594
 20
10.00027090296365
 30
10.26373807609376
 70
   192
  0
VERTEX
  5
16CF08
  8
0
 10
59.28672381994421
 20
10.00000786980749
 30
10.38091320938214
 70
   192
  0
VERTEX
  5
16CF09
  8
0
 10
56.78175851092389
 20
8.806000281982145
 30
11.10939021977227
 70
   192
  0
VERTEX
  5
16CF0A
  8
0
 10
54.4930218568233
 20
8.440419955594301
 30
11.33172336377488
 70
   192
  0
VERTEX
  5
16CF0B
  8
0
 10
59.38543255712145
 20
10.0002860205972
 30
10.26066558851422
 70
   192
  0
VERTEX
  5
16CF0C
  8
0
 10
55.85244160019659
 20
8.767976892627855
 30
11.45961347829942
 70
   192
  0
VERTEX
  5
16CF0D
  8
0
 10
59.08424458879253
 20
9.999997215512094
 30
10.61611333012771
 70
   192
  0
VERTEX
  5
16CF0E
  8
0
 10
59.18629230638872
 20
9.999997176086762
 30
10.49936777382124
 70
   192
  0
VERTEX
  5
16CF0F
  8
0
 10
0.0
 20
0.0
 30
0.0
 70
   128
 71
     1
 72
     2
 73
     3
  0
VERTEX
  5
16CF10
  8
0
 10
0.0
 20
0.0
 30
0.0
 70
   128
 71
     3
 72
     4
 73
     5
  0
VERTEX
  5
16CF11
  8
0
 10
0.0
 20
0.0
 30
0.0
 70
   128
 71
     3
 72
     5
 73
     1
  0
VERTEX
  5
16CF12
  8
0
 10
0.0
 20
0.0
 30
0.0
 70
   128
 71
     4
 72
     6
 73
     5
  0
VERTEX
  5
16CF13
  8
0
 10
0.0
 20
0.0
 30
0.0
 70
   128
 71
     7
 72
     8
 73
     9
  0
VERTEX
  5
16CF14
  8
0
 10
0.0
 20
0.0
 30
0.0
 70
   128
 71
     7
 72
    10
 73
     8
  0
VERTEX
  5
16CF15
  8
0
 10
0.0
 20
0.0
 30
0.0
 70
   128
 71
    11
 72
    12
 73
    13
  0
VERTEX
  5
16CF16
  8
0
 10
0.0
 20
0.0
 30
0.0
 70
   128
 71
     4
 72
    13
 73
     7
  0
VERTEX
  5
16CF17
  8
0
 10
0.0
 20
0.0
 30
0.0
 70
   128
 71
     4
 72
     7
 73
     9
  0
VERTEX
  5
16CF18
  8
0
 10
0.0
 20
0.0
 30
0.0
 70
   128
 71
    13
 72
     4
 73
     3
  0
VERTEX
  5
16CF19
  8
0
 10
0.0
 20
0.0
 30
0.0
 70
   128
 71
    13
 72
     3
 73
    11
  0
SEQEND
  5
16D0AC
  8
0
  0
POLYLINE
  5
16CF1A
  8
0
 66
     1
 10
0.0
 20
0.0
 30
0.0
 70
    64
 71
    12
 72
    10
  0
VERTEX
  5
16CF1B
  8
0
 10
59.19761491097155
 20
9.999997174570593
 30
10.8578447654968
 70
   192
  0
VERTEX
  5
16CF1C
  8
0
 10
59.08424458879253
 20
9.999997215512094
 30
10.61611333012771
 70
   192
  0
VERTEX
  5
16CF1D
  8
0
 10
55.85244160019659
 20
8.767976892627855
 30
11.45961347829942
 70
   192
  0
VERTEX
  5
16CF1E
  8
0
 10
56.20268509956332
 20
8.80528087110759
 30
12.22216764481938
 70
   192
  0
VERTEX
  5
16CF1F
  8
0
 10
59.3109131402944
 20
9.999997174569998
 30
11.09940066488946
 70
   192
  0
VERTEX
  5
16CF20
  8
0
 10
59.42453654309804
 20
9.999997174569998
 30
11.34079185446964
 70
   192
  0
VERTEX
  5
16CF21
  8
0
 10
49.73680342783559
 20
9.999997174570764
 30
11.1032333612593
 70
   192
  0
VERTEX
  5
16CF22
  8
0
 10
49.62348597436377
 20
9.999997209553888
 30
11.34502678160254
 70
   192
  0
VERTEX
  5
16CF23
  8
0
 10
52.76663114152769
 20
8.812879014800988
 30
12.21259627879119
 70
   192
  0
VERTEX
  5
16CF24
  8
0
 10
53.11023269883179
 20
8.77647065510481
 30
11.45051910805458
 70
   192
  0
VERTEX
  5
16CF25
  8
0
 10
49.9626989906839
 20
9.999997150273234
 30
10.61945326042272
 70
   192
  0
VERTEX
  5
16CF26
  8
0
 10
49.84998966663732
 20
9.99999717457
 30
10.86137043170066
 70
   192
  0
VERTEX
  5
16CF27
  8
0
 10
0.0
 20
0.0
 30
0.0
 70
   128
 71
     1
 72
     2
 73
     3
  0
VERTEX
  5
16CF28
  8
0
 10
0.0
 20
0.0
 30
0.0
 70
   128
 71
     3
 72
     4
 73
     5
  0
VERTEX
  5
16CF29
  8
0
 10
0.0
 20
0.0
 30
0.0
 70
   128
 71
     3
 72
     5
 73
     1
  0
VERTEX
  5
16CF2A
  8
0
 10
0.0
 20
0.0
 30
0.0
 70
   128
 71
     4
 72
     6
 73
     5
  0
VERTEX
  5
16CF2B
  8
0
 10
0.0
 20
0.0
 30
0.0
 70
   128
 71
     7
 72
     8
 73
     9
  0
VERTEX
  5
16CF2C
  8
0
 10
0.0
 20
0.0
 30
0.0
 70
   128
 71
    10
 72
    11
 73
    12
  0
VERTEX
  5
16CF2D
  8
0
 10
0.0
 20
0.0
 30
0.0
 70
   128
 71
     9
 72
     4
 73
     3
  0
VERTEX
  5
16CF2E
  8
0
 10
0.0
 20
0.0
 30
0.0
 70
   128
 71
     9
 72
    12
 73
     7
  0
VERTEX
  5
16CF2F
  8
0
 10
0.0
 20
0.0
 30
0.0
 70
   128
 71
    12
 72
     9
 73
     3
  0
VERTEX
  5
16CF30
  8
0
 10
0.0
 20
0.0
 30
0.0
 70
   128
 71
    12
 72
     3
 73
    10
  0
SEQEND
  5
16D0AD
  8
0
  0
POLYLINE
  5
16CF31
  8
0
 66
     1
 10
0.0
 20
0.0
 30
0.0
 70
    64
 71
    12
 72
    10
  0
VERTEX
  5
16CF32
  8
0
 10
49.84568929528279
 20
9.999997174569922
 30
-10.8595897524962
 70
   192
  0
VERTEX
  5
16CF33
  8
0
 10
49.9587861831122
 20
9.999997170127173
 30
-10.61789320638849
 70
   192
  0
VERTEX
  5
16CF34
  8
0
 10
53.10380948052936
 20
8.77813374911818
 30
-11.4498291911147
 70
   192
  0
VERTEX
  5
16CF35
  8
0
 10
52.76629361078
 20
8.812934571353587
 30
-12.21254655216948
 70
   192
  0
VERTEX
  5
16CF36
  8
0
 10
49.73241355551111
 20
9.999997174569996
 30
-11.1013761163797
 70
   192
  0
VERTEX
  5
16CF37
  8
0
 10
49.61883475688529
 20
9.999997174678306
 30
-11.34301860901378
 70
   192
  0
VERTEX
  5
16CF38
  8
0
 10
59.31029242895413
 20
9.999997174570002
 30
-11.09963506334852
 70
   192
  0
VERTEX
  5
16CF39
  8
0
 10
59.42391922725681
 20
9.999997174570002
 30
-11.34106891145387
 70
   192
  0
VERTEX
  5
16CF3A
  8
0
 10
56.21507788471159
 20
8.80606974534752
 30
-12.2204670347066
 70
   192
  0
VERTEX
  5
16CF3B
  8
0
 10
55.85497580866929
 20
8.766753627510363
 30
-11.45936872910705
 70
   192
  0
VERTEX
  5
16CF3C
  8
0
 10
59.08365067904859
 20
9.9999971779147
 30
-10.61633220703993
 70
   192
  0
VERTEX
  5
16CF3D
  8
0
 10
59.1969955781422
 20
9.999997174569996
 30
-10.85804620530677
 70
   192
  0
VERTEX
  5
16CF3E
  8
0
 10
0.0
 20
0.0
 30
0.0
 70
   128
 71
     1
 72
     2
 73
     3
  0
VERTEX
  5
16CF3F
  8
0
 10
0.0
 20
0.0
 30
0.0
 70
   128
 71
     3
 72
     4
 73
     5
  0
VERTEX
  5
16CF40
  8
0
 10
0.0
 20
0.0
 30
0.0
 70
   128
 71
     3
 72
     5
 73
     1
  0
VERTEX
  5
16CF41
  8
0
 10
0.0
 20
0.0
 30
0.0
 70
   128
 71
     4
 72
     6
 73
     5
  0
VERTEX
  5
16CF42
  8
0
 10
0.0
 20
0.0
 30
0.0
 70
   128
 71
     7
 72
     8
 73
     9
  0
VERTEX
  5
16CF43
  8
0
 10
0.0
 20
0.0
 30
0.0
 70
   128
 71
    10
 72
    11
 73
    12
  0
VERTEX
  5
16CF44
  8
0
 10
0.0
 20
0.0
 30
0.0
 70
   128
 71
     4
 72
    12
 73
     7
  0
VERTEX
  5
16CF45
  8
0
 10
0.0
 20
0.0
 30
0.0
 70
   128
 71
     4
 72
     7
 73
     9
  0
VERTEX
  5
16CF46
  8
0
 10
0.0
 20
0.0
 30
0.0
 70
   128
 71
    10
 72
    12
 73
     4
  0
VERTEX
  5
16CF47
  8
0
 10
0.0
 20
0.0
 30
0.0
 70
   128
 71
    10
 72
     4
 73
     3
  0
SEQEND
  5
16D0AE
  8
0
  0
POLYLINE
  5
16CF48
  8
0
 66
     1
 10
0.0
 20
0.0
 30
0.0
 70
    64
 71
    13
 72
    11
  0
VERTEX
  5
16CF49
  8
0
 10
54.49299974112049
 20
8.440189920167004
 30
-11.33171971852349
 70
   192
  0
VERTEX
  5
16CF4A
  8
0
 10
56.78249008776935
 20
8.804790098489148
 30
-11.10922189696319
 70
   192
  0
VERTEX
  5
16CF4B
  8
0
 10
55.85497580866929
 20
8.766753627510363
 30
-11.45936872910705
 70
   192
  0
VERTEX
  5
16CF4C
  8
0
 10
59.1857280617121
 20
9.999997174693748
 30
-10.49963781589707
 70
   192
  0
VERTEX
  5
16CF4D
  8
0
 10
59.08365067904859
 20
9.9999971779147
 30
-10.61633220703993
 70
   192
  0
VERTEX
  5
16CF4E
  8
0
 10
59.28618105954134
 20
10.00000685468364
 30
-10.38117176988389
 70
   192
  0
VERTEX
  5
16CF4F
  8
0
 10
59.38518504384111
 20
10.00025826473397
 30
-10.26045328911223
 70
   192
  0
VERTEX
  5
16CF50
  8
0
 10
49.75588760732745
 20
10.00000707471174
 30
-10.38303123333056
 70
   192
  0
VERTEX
  5
16CF51
  8
0
 10
49.65696643725605
 20
10.00026363408388
 30
-10.26273944680515
 70
   192
  0
VERTEX
  5
16CF52
  8
0
 10
52.21923108933406
 20
8.810822961419387
 30
-11.10181913916142
 70
   192
  0
VERTEX
  5
16CF53
  8
0
 10
53.10380948052936
 20
8.77813374911818
 30
-11.4498291911147
 70
   192
  0
VERTEX
  5
16CF54
  8
0
 10
49.9587861831122
 20
9.999997170127173
 30
-10.61789320638849
 70
   192
  0
VERTEX
  5
16CF55
  8
0
 10
49.85642159234888
 20
9.99999717440597
 30
-10.50143701288004
 70
   192
  0
VERTEX
  5
16CF56
  8
0
 10
0.0
 20
0.0
 30
0.0
 70
   128
 71
     1
 72
     2
 73
     3
  0
VERTEX
  5
16CF57
  8
0
 10
0.0
 20
0.0
 30
0.0
 70
   128
 71
     4
 72
     5
 73
     3
  0
VERTEX
  5
16CF58
  8
0
 10
0.0
 20
0.0
 30
0.0
 70
   128
 71
     3
 72
     2
 73
     6
  0
VERTEX
  5
16CF59
  8
0
 10
0.0
 20
0.0
 30
0.0
 70
   128
 71
     3
 72
     6
 73
     4
  0
VERTEX
  5
16CF5A
  8
0
 10
0.0
 20
0.0
 30
0.0
 70
   128
 71
     2
 72
     7
 73
     6
  0
VERTEX
  5
16CF5B
  8
0
 10
0.0
 20
0.0
 30
0.0
 70
   128
 71
     8
 72
     9
 73
    10
  0
VERTEX
  5
16CF5C
  8
0
 10
0.0
 20
0.0
 30
0.0
 70
   128
 71
    11
 72
    12
 73
    13
  0
VERTEX
  5
16CF5D
  8
0
 10
0.0
 20
0.0
 30
0.0
 70
   128
 71
    10
 72
    13
 73
     8
  0
VERTEX
  5
16CF5E
  8
0
 10
0.0
 20
0.0
 30
0.0
 70
   128
 71
    13
 72
    10
 73
     1
  0
VERTEX
  5
16CF5F
  8
0
 10
0.0
 20
0.0
 30
0.0
 70
   128
 71
    13
 72
     1
 73
     3
  0
VERTEX
  5
16CF60
  8
0
 10
0.0
 20
0.0
 30
0.0
 70
   128
 71
    13
 72
     3
 73
    11
  0
SEQEND
  5
16D0AF
  8
0
  0
POLYLINE
  5
16CF61
  8
0
 66
     1
 10
0.0
 20
0.0
 30
0.0
 70
    64
 71
    10
 72
     8
  0
VERTEX
  5
16CF62
  8
0
 10
63.16242103593
 20
-13.65385038458
 30
-8.305
 70
   192
  0
VERTEX
  5
16CF63
  8
0
 10
62.6651869313425
 20
-13.48913080667
 30
-8.305
 70
   192
  0
VERTEX
  5
16CF64
  8
0
 10
62.18559583450502
 20
-13.3193061206675
 30
-8.305
 70
   192
  0
VERTEX
  5
16CF65
  8
0
 10
61.72366161527
 20
-13.14511296303
 30
-8.305
 70
   192
  0
VERTEX
  5
16CF66
  8
0
 10
61.90147765170082
 20
-5.635350326250707
 30
-8.305000462712416
 70
   192
  0
VERTEX
  5
16CF67
  8
0
 10
62.08169125603841
 20
2.079686487935988
 30
-8.30500370169932
 70
   192
  0
VERTEX
  5
16CF68
  8
0
 10
62.26430775313369
 20
9.999997174569994
 30
-8.305
 70
   192
  0
VERTEX
  5
16CF69
  8
0
 10
63.66808539184648
 20
9.999997174569994
 30
-8.305
 70
   192
  0
VERTEX
  5
16CF6A
  8
0
 10
63.49859295669284
 20
2.002088528326941
 30
-8.305
 70
   192
  0
VERTEX
  5
16CF6B
  8
0
 10
63.33005495787258
 20
-5.882062023047274
 30
-8.305000000000001
 70
   192
  0
VERTEX
  5
16CF6C
  8
0
 10
0.0
 20
0.0
 30
0.0
 70
   128
 71
     9
 72
     8
 73
    -7
  0
VERTEX
  5
16CF6D
  8
0
 10
0.0
 20
0.0
 30
0.0
 70
   128
 71
    -9
 72
     7
 73
    -6
  0
VERTEX
  5
16CF6E
  8
0
 10
0.0
 20
0.0
 30
0.0
 70
   128
 71
     6
 72
    -5
 73
   -10
  0
VERTEX
  5
16CF6F
  8
0
 10
0.0
 20
0.0
 30
0.0
 70
   128
 71
    -6
 72
    10
 73
    -9
  0
VERTEX
  5
16CF70
  8
0
 10
0.0
 20
0.0
 30
0.0
 70
   128
 71
     3
 72
     2
 73
    -1
  0
VERTEX
  5
16CF71
  8
0
 10
0.0
 20
0.0
 30
0.0
 70
   128
 71
    -3
 72
     1
 73
   -10
  0
VERTEX
  5
16CF72
  8
0
 10
0.0
 20
0.0
 30
0.0
 70
   128
 71
   -10
 72
     5
 73
    -4
  0
VERTEX
  5
16CF73
  8
0
 10
0.0
 20
0.0
 30
0.0
 70
   128
 71
   -10
 72
     4
 73
    -3
  0
SEQEND
  5
16D0B0
  8
0
  0
POLYLINE
  5
16CF74
  8
0
 66
     1
 10
0.0
 20
0.0
 30
0.0
 70
    64
 71
    19
 72
    17
  0
VERTEX
  5
16CF75
  8
0
 10
48.32718747874074
 20
-12.50140307573832
 30
-9.097248491360874
 70
   192
  0
VERTEX
  5
16CF76
  8
0
 10
44.41982634575199
 20
-14.63955181549657
 30
-6.427698089452513
 70
   192
  0
VERTEX
  5
16CF77
  8
0
 10
48.26203463731147
 20
-12.24945631294383
 30
-10.24965267140551
 70
   192
  0
VERTEX
  5
16CF78
  8
0
 10
45.12768983479392
 20
-14.72872677198385
 30
-5.668889604726259
 70
   192
  0
VERTEX
  5
16CF79
  8
0
 10
44.05138415952153
 20
-15.58595716450658
 30
-3.235464659295266
 70
   192
  0
VERTEX
  5
16CF7A
  8
0
 10
43.14620598858527
 20
-15.56419777995321
 30
-3.690824124044905
 70
   192
  0
VERTEX
  5
16CF7B
  8
0
 10
43.56898259457
 20
-15.98359575235
 30
-0.0000000000000766
 70
   192
  0
VERTEX
  5
16CF7C
  8
0
 10
42.56910464253
 20
-15.99921884535
 30
-0.0000000000000834
 70
   192
  0
VERTEX
  5
16CF7D
  8
0
 10
62.18559583450502
 20
-13.3193061206675
 30
-8.305
 70
   192
  0
VERTEX
  5
16CF7E
  8
0
 10
61.72366161527
 20
-13.14511296303
 30
-8.305
 70
   192
  0
VERTEX
  5
16CF7F
  8
0
 10
59.75218550769058
 20
-11.95607913241051
 30
-9.69035951762492
 70
   192
  0
VERTEX
  5
16CF80
  8
0
 10
61.09519635885813
 20
-12.41936112284705
 30
-10.04478603066715
 70
   192
  0
VERTEX
  5
16CF81
  8
0
 10
63.16242103593
 20
-13.65385038458
 30
-8.305
 70
   192
  0
VERTEX
  5
16CF82
  8
0
 10
62.6651869313425
 20
-13.48913080667
 30
-8.305
 70
   192
  0
VERTEX
  5
16CF83
  8
0
 10
57.92736236490738
 20
-11.03749816292881
 30
-11.53452949512606
 70
   192
  0
VERTEX
  5
16CF84
  8
0
 10
56.28262363070107
 20
-10.64770880623023
 30
-10.89165513091873
 70
   192
  0
VERTEX
  5
16CF85
  8
0
 10
52.24935750199995
 20
-10.73285459296327
 30
-11.81627251332695
 70
   192
  0
VERTEX
  5
16CF86
  8
0
 10
55.30218285549225
 20
-10.51369234709036
 30
-12.01021618043133
 70
   192
  0
VERTEX
  5
16CF87
  8
0
 10
51.24270036450564
 20
-11.07548420979035
 30
-10.52877246514047
 70
   192
  0
VERTEX
  5
16CF88
  8
0
 10
0.0
 20
0.0
 30
0.0
 70
   128
 71
     1
 72
     2
 73
     3
  0
VERTEX
  5
16CF89
  8
0
 10
0.0
 20
0.0
 30
0.0
 70
   128
 71
     4
 72
     5
 73
     6
  0
VERTEX
  5
16CF8A
  8
0
 10
0.0
 20
0.0
 30
0.0
 70
   128
 71
     4
 72
     6
 73
     2
  0
VERTEX
  5
16CF8B
  8
0
 10
0.0
 20
0.0
 30
0.0
 70
   128
 71
     5
 72
     7
 73
     8
  0
VERTEX
  5
16CF8C
  8
0
 10
0.0
 20
0.0
 30
0.0
 70
   128
 71
     5
 72
     8
 73
     6
  0
VERTEX
  5
16CF8D
  8
0
 10
0.0
 20
0.0
 30
0.0
 70
   128
 71
     9
 72
    10
 73
    11
  0
VERTEX
  5
16CF8E
  8
0
 10
0.0
 20
0.0
 30
0.0
 70
   128
 71
    12
 72
    13
 73
    14
  0
VERTEX
  5
16CF8F
  8
0
 10
0.0
 20
0.0
 30
0.0
 70
   128
 71
    14
 72
    15
 73
    12
  0
VERTEX
  5
16CF90
  8
0
 10
0.0
 20
0.0
 30
0.0
 70
   128
 71
    16
 72
    17
 73
    18
  0
VERTEX
  5
16CF91
  8
0
 10
0.0
 20
0.0
 30
0.0
 70
   128
 71
    19
 72
     3
 73
    17
  0
VERTEX
  5
16CF92
  8
0
 10
0.0
 20
0.0
 30
0.0
 70
   128
 71
     2
 72
     1
 73
     4
  0
VERTEX
  5
16CF93
  8
0
 10
0.0
 20
0.0
 30
0.0
 70
   128
 71
     3
 72
    19
 73
     1
  0
VERTEX
  5
16CF94
  8
0
 10
0.0
 20
0.0
 30
0.0
 70
   128
 71
    18
 72
    15
 73
    14
  0
VERTEX
  5
16CF95
  8
0
 10
0.0
 20
0.0
 30
0.0
 70
   128
 71
    18
 72
    14
 73
     9
  0
VERTEX
  5
16CF96
  8
0
 10
0.0
 20
0.0
 30
0.0
 70
   128
 71
    18
 72
     9
 73
    11
  0
VERTEX
  5
16CF97
  8
0
 10
0.0
 20
0.0
 30
0.0
 70
   128
 71
    18
 72
    11
 73
    16
  0
VERTEX
  5
16CF98
  8
0
 10
0.0
 20
0.0
 30
0.0
 70
   128
 71
    17
 72
    16
 73
    19
  0
SEQEND
  5
16D0B1
  8
0
  0
POLYLINE
  5
16CF99
  8
0
 66
     1
 10
0.0
 20
0.0
 30
0.0
 70
    64
 71
    16
 72
    14
  0
VERTEX
  5
16CF9A
  8
0
 10
62.66573393143418
 20
-13.48925288947917
 30
8.305
 70
   192
  0
VERTEX
  5
16CF9B
  8
0
 10
63.16242143669001
 20
-13.65383188976
 30
8.305
 70
   192
  0
VERTEX
  5
16CF9C
  8
0
 10
59.30819096144872
 20
-11.55144110478909
 30
11.02420764239735
 70
   192
  0
VERTEX
  5
16CF9D
  8
0
 10
62.18612642053336
 20
-13.31950136501084
 30
8.305
 70
   192
  0
VERTEX
  5
16CF9E
  8
0
 10
44.09402509627699
 20
-14.87097233238388
 30
5.877233670229116
 70
   192
  0
VERTEX
  5
16CF9F
  8
0
 10
42.56910464253
 20
-15.99921884535
 30
-0.0000000000000834
 70
   192
  0
VERTEX
  5
16CFA0
  8
0
 10
43.56898259456999
 20
-15.98359575234931
 30
-0.0000000000000834
 70
   192
  0
VERTEX
  5
16CFA1
  8
0
 10
44.78152394588819
 20
-14.99948228998762
 30
5.042152733630866
 70
   192
  0
VERTEX
  5
16CFA2
  8
0
 10
51.09310781408127
 20
-11.04325536328003
 30
11.52917559070286
 70
   192
  0
VERTEX
  5
16CFA3
  8
0
 10
46.91173023571572
 20
-13.00819087598052
 30
9.276289902533797
 70
   192
  0
VERTEX
  5
16CFA4
  8
0
 10
46.9358818940854
 20
-13.40165484087591
 30
7.955303141333756
 70
   192
  0
VERTEX
  5
16CFA5
  8
0
 10
50.39646994141246
 20
-11.41465600720893
 30
10.22148710386961
 70
   192
  0
VERTEX
  5
16CFA6
  8
0
 10
61.72366120686001
 20
-13.14513009119
 30
8.305
 70
   192
  0
VERTEX
  5
16CFA7
  8
0
 10
57.92354221854862
 20
-11.12243779399919
 30
10.48729261029455
 70
   192
  0
VERTEX
  5
16CFA8
  8
0
 10
54.41058063181317
 20
-10.46887011264243
 30
11.03571297578596
 70
   192
  0
VERTEX
  5
16CFA9
  8
0
 10
55.73125824587311
 20
-10.55549965817857
 30
11.97386608777511
 70
   192
  0
VERTEX
  5
16CFAA
  8
0
 10
0.0
 20
0.0
 30
0.0
 70
   128
 71
     1
 72
     2
 73
     3
  0
VERTEX
  5
16CFAB
  8
0
 10
0.0
 20
0.0
 30
0.0
 70
   128
 71
     3
 72
     4
 73
     1
  0
VERTEX
  5
16CFAC
  8
0
 10
0.0
 20
0.0
 30
0.0
 70
   128
 71
     5
 72
     6
 73
     7
  0
VERTEX
  5
16CFAD
  8
0
 10
0.0
 20
0.0
 30
0.0
 70
   128
 71
     5
 72
     7
 73
     8
  0
VERTEX
  5
16CFAE
  8
0
 10
0.0
 20
0.0
 30
0.0
 70
   128
 71
     9
 72
    10
 73
    11
  0
VERTEX
  5
16CFAF
  8
0
 10
0.0
 20
0.0
 30
0.0
 70
   128
 71
     9
 72
    11
 73
    12
  0
VERTEX
  5
16CFB0
  8
0
 10
0.0
 20
0.0
 30
0.0
 70
   128
 71
    13
 72
     4
 73
     3
  0
VERTEX
  5
16CFB1
  8
0
 10
0.0
 20
0.0
 30
0.0
 70
   128
 71
    13
 72
     3
 73
    14
  0
VERTEX
  5
16CFB2
  8
0
 10
0.0
 20
0.0
 30
0.0
 70
   128
 71
    15
 72
    16
 73
     9
  0
VERTEX
  5
16CFB3
  8
0
 10
0.0
 20
0.0
 30
0.0
 70
   128
 71
    15
 72
     9
 73
    12
  0
VERTEX
  5
16CFB4
  8
0
 10
0.0
 20
0.0
 30
0.0
 70
   128
 71
    14
 72
     3
 73
    16
  0
VERTEX
  5
16CFB5
  8
0
 10
0.0
 20
0.0
 30
0.0
 70
   128
 71
    14
 72
    16
 73
    15
  0
VERTEX
  5
16CFB6
  8
0
 10
0.0
 20
0.0
 30
0.0
 70
   128
 71
    11
 72
    10
 73
     5
  0
VERTEX
  5
16CFB7
  8
0
 10
0.0
 20
0.0
 30
0.0
 70
   128
 71
    11
 72
     5
 73
     8
  0
SEQEND
  5
16D0B2
  8
0
  0
POLYLINE
  5
16CFB8
  8
0
 66
     1
 10
0.0
 20
0.0
 30
0.0
 70
    64
 71
    41
 72
    39
  0
VERTEX
  5
16CFB9
  8
0
 10
52.22460314850677
 20
8.808633679263743
 30
11.10289574216446
 70
   192
  0
VERTEX
  5
16CFBA
  8
0
 10
54.41058063181317
 20
-10.46887011264243
 30
11.03571297578596
 70
   192
  0
VERTEX
  5
16CFBB
  8
0
 10
50.39646994141246
 20
-11.41465600720893
 30
10.22148710386961
 70
   192
  0
VERTEX
  5
16CFBC
  8
0
 10
54.4930218568233
 20
8.440419955594301
 30
11.33172336377488
 70
   192
  0
VERTEX
  5
16CFBD
  8
0
 10
56.78175851092389
 20
8.806000281982145
 30
11.10939021977227
 70
   192
  0
VERTEX
  5
16CFBE
  8
0
 10
59.38543255712145
 20
10.0002860205972
 30
10.26066558851422
 70
   192
  0
VERTEX
  5
16CFBF
  8
0
 10
59.38541662951456
 20
9.999997174569998
 30
10.26063200506983
 70
   192
  0
VERTEX
  5
16CFC0
  8
0
 10
60.41033558407207
 20
9.999997174569998
 30
9.708499987149459
 70
   192
  0
VERTEX
  5
16CFC1
  8
0
 10
61.37334127205563
 20
9.999997174569998
 30
9.054337412910163
 70
   192
  0
VERTEX
  5
16CFC2
  8
0
 10
62.26431307687017
 20
9.999997174569998
 30
8.305019141646465
 70
   192
  0
VERTEX
  5
16CFC3
  8
0
 10
62.08168014128358
 20
2.079234965265549
 30
8.305003788094002
 70
   192
  0
VERTEX
  5
16CFC4
  8
0
 10
61.90146664405773
 20
-5.635807560694837
 30
8.305000473511752
 70
   192
  0
VERTEX
  5
16CFC5
  8
0
 10
57.92354221854862
 20
-11.12243779399919
 30
10.48729261029455
 70
   192
  0
VERTEX
  5
16CFC6
  8
0
 10
61.72366120686001
 20
-13.14513009119
 30
8.305
 70
   192
  0
VERTEX
  5
16CFC7
  8
0
 10
44.78152394588819
 20
-14.99948228998762
 30
5.042152733630866
 70
   192
  0
VERTEX
  5
16CFC8
  8
0
 10
43.56898259457
 20
-15.98359575235
 30
-0.0000000000000765
 70
   192
  0
VERTEX
  5
16CFC9
  8
0
 10
43.16298906641119
 20
9.999997174569998
 30
0.0015901197282162
 70
   192
  0
VERTEX
  5
16CFCA
  8
0
 10
44.92413675914695
 20
9.999997174569998
 30
6.074370446223393
 70
   192
  0
VERTEX
  5
16CFCB
  8
0
 10
59.75218550769058
 20
-11.95607913241051
 30
-9.69035951762492
 70
   192
  0
VERTEX
  5
16CFCC
  8
0
 10
61.72366161527
 20
-13.14511296303
 30
-8.305
 70
   192
  0
VERTEX
  5
16CFCD
  8
0
 10
61.90147765170082
 20
-5.635350326250707
 30
-8.305000462712416
 70
   192
  0
VERTEX
  5
16CFCE
  8
0
 10
62.08169125603841
 20
2.079686487935988
 30
-8.30500370169932
 70
   192
  0
VERTEX
  5
16CFCF
  8
0
 10
62.26430775313369
 20
9.999997357543192
 30
-8.3050124932352
 70
   192
  0
VERTEX
  5
16CFD0
  8
0
 10
61.37330635432171
 20
9.999997174569998
 30
-9.05436384590331
 70
   192
  0
VERTEX
  5
16CFD1
  8
0
 10
56.78249008776935
 20
8.804790098489148
 30
-11.10922189696319
 70
   192
  0
VERTEX
  5
16CFD2
  8
0
 10
60.41026015500463
 20
9.999997174569998
 30
-9.708545757938364
 70
   192
  0
VERTEX
  5
16CFD3
  8
0
 10
59.38529676168061
 20
9.999997174569998
 30
-10.26068885388239
 70
   192
  0
VERTEX
  5
16CFD4
  8
0
 10
59.38518504384111
 20
10.00025826473397
 30
-10.26045328911223
 70
   192
  0
VERTEX
  5
16CFD5
  8
0
 10
46.9358818940854
 20
-13.40165484087591
 30
7.955303141333756
 70
   192
  0
VERTEX
  5
16CFD6
  8
0
 10
49.65989278249695
 20
9.999997174569998
 30
10.26399059330111
 70
   192
  0
VERTEX
  5
16CFD7
  8
0
 10
49.66001233016594
 20
10.00027090296365
 30
10.26373807609376
 70
   192
  0
VERTEX
  5
16CFD8
  8
0
 10
44.05138415952153
 20
-15.58595716450658
 30
-3.235464659295266
 70
   192
  0
VERTEX
  5
16CFD9
  8
0
 10
45.12768983479392
 20
-14.72872677198385
 30
-5.668889604726259
 70
   192
  0
VERTEX
  5
16CFDA
  8
0
 10
48.32718747874074
 20
-12.50140307573832
 30
-9.097248491360874
 70
   192
  0
VERTEX
  5
16CFDB
  8
0
 10
44.92243603067431
 20
9.999997174569998
 30
-6.071683171458393
 70
   192
  0
VERTEX
  5
16CFDC
  8
0
 10
51.24270036450564
 20
-11.07548420979035
 30
-10.52877246514047
 70
   192
  0
VERTEX
  5
16CFDD
  8
0
 10
52.21923108933406
 20
8.810822961419387
 30
-11.10181913916142
 70
   192
  0
VERTEX
  5
16CFDE
  8
0
 10
49.65696643725605
 20
10.00026363408388
 30
-10.26273944680515
 70
   192
  0
VERTEX
  5
16CFDF
  8
0
 10
49.65701858087205
 20
9.999997174569998
 30
-10.26262938500713
 70
   192
  0
VERTEX
  5
16CFE0
  8
0
 10
56.28262363070107
 20
-10.64770880623023
 30
-10.89165513091873
 70
   192
  0
VERTEX
  5
16CFE1
  8
0
 10
54.49299974112049
 20
8.440189920167004
 30
-11.33171971852349
 70
   192
  0
VERTEX
  5
16CFE2
  8
0
 10
0.0
 20
0.0
 30
0.0
 70
   128
 71
     1
 72
     2
 73
     3
  0
VERTEX
  5
16CFE3
  8
0
 10
0.0
 20
0.0
 30
0.0
 70
   128
 71
     1
 72
     4
 73
     2
  0
VERTEX
  5
16CFE4
  8
0
 10
0.0
 20
0.0
 30
0.0
 70
   128
 71
     5
 72
     6
 73
     7
  0
VERTEX
  5
16CFE5
  8
0
 10
0.0
 20
0.0
 30
0.0
 70
   128
 71
     7
 72
     8
 73
     5
  0
VERTEX
  5
16CFE6
  8
0
 10
0.0
 20
0.0
 30
0.0
 70
   128
 71
     8
 72
     9
 73
     5
  0
VERTEX
  5
16CFE7
  8
0
 10
0.0
 20
0.0
 30
0.0
 70
   128
 71
    10
 72
    11
 73
     5
  0
VERTEX
  5
16CFE8
  8
0
 10
0.0
 20
0.0
 30
0.0
 70
   128
 71
     9
 72
    10
 73
     5
  0
VERTEX
  5
16CFE9
  8
0
 10
0.0
 20
0.0
 30
0.0
 70
   128
 71
    12
 72
    13
 73
     5
  0
VERTEX
  5
16CFEA
  8
0
 10
0.0
 20
0.0
 30
0.0
 70
   128
 71
    11
 72
    12
 73
     5
  0
VERTEX
  5
16CFEB
  8
0
 10
0.0
 20
0.0
 30
0.0
 70
   128
 71
    12
 72
    14
 73
    13
  0
VERTEX
  5
16CFEC
  8
0
 10
0.0
 20
0.0
 30
0.0
 70
   128
 71
    15
 72
    16
 73
    17
  0
VERTEX
  5
16CFED
  8
0
 10
0.0
 20
0.0
 30
0.0
 70
   128
 71
    17
 72
    18
 73
    15
  0
VERTEX
  5
16CFEE
  8
0
 10
0.0
 20
0.0
 30
0.0
 70
   128
 71
    19
 72
    20
 73
    21
  0
VERTEX
  5
16CFEF
  8
0
 10
0.0
 20
0.0
 30
0.0
 70
   128
 71
    22
 72
    23
 73
    24
  0
VERTEX
  5
16CFF0
  8
0
 10
0.0
 20
0.0
 30
0.0
 70
   128
 71
    25
 72
    22
 73
    24
  0
VERTEX
  5
16CFF1
  8
0
 10
0.0
 20
0.0
 30
0.0
 70
   128
 71
    24
 72
    26
 73
    25
  0
VERTEX
  5
16CFF2
  8
0
 10
0.0
 20
0.0
 30
0.0
 70
   128
 71
    26
 72
    27
 73
    25
  0
VERTEX
  5
16CFF3
  8
0
 10
0.0
 20
0.0
 30
0.0
 70
   128
 71
    27
 72
    28
 73
    25
  0
VERTEX
  5
16CFF4
  8
0
 10
0.0
 20
0.0
 30
0.0
 70
   128
 71
    13
 72
     2
 73
     4
  0
VERTEX
  5
16CFF5
  8
0
 10
0.0
 20
0.0
 30
0.0
 70
   128
 71
     5
 72
    13
 73
     4
  0
VERTEX
  5
16CFF6
  8
0
 10
0.0
 20
0.0
 30
0.0
 70
   128
 71
     3
 72
    29
 73
    30
  0
VERTEX
  5
16CFF7
  8
0
 10
0.0
 20
0.0
 30
0.0
 70
   128
 71
     1
 72
     3
 73
    30
  0
VERTEX
  5
16CFF8
  8
0
 10
0.0
 20
0.0
 30
0.0
 70
   128
 71
    30
 72
    31
 73
     1
  0
VERTEX
  5
16CFF9
  8
0
 10
0.0
 20
0.0
 30
0.0
 70
   128
 71
    30
 72
    29
 73
    18
  0
VERTEX
  5
16CFFA
  8
0
 10
0.0
 20
0.0
 30
0.0
 70
   128
 71
    29
 72
    15
 73
    18
  0
VERTEX
  5
16CFFB
  8
0
 10
0.0
 20
0.0
 30
0.0
 70
   128
 71
    32
 72
    33
 73
    34
  0
VERTEX
  5
16CFFC
  8
0
 10
0.0
 20
0.0
 30
0.0
 70
   128
 71
    16
 72
    32
 73
    34
  0
VERTEX
  5
16CFFD
  8
0
 10
0.0
 20
0.0
 30
0.0
 70
   128
 71
    17
 72
    16
 73
    34
  0
VERTEX
  5
16CFFE
  8
0
 10
0.0
 20
0.0
 30
0.0
 70
   128
 71
    35
 72
    17
 73
    34
  0
VERTEX
  5
16CFFF
  8
0
 10
0.0
 20
0.0
 30
0.0
 70
   128
 71
    35
 72
    34
 73
    36
  0
VERTEX
  5
16D000
  8
0
 10
0.0
 20
0.0
 30
0.0
 70
   128
 71
    37
 72
    38
 73
    39
  0
VERTEX
  5
16D001
  8
0
 10
0.0
 20
0.0
 30
0.0
 70
   128
 71
    36
 72
    40
 73
    37
  0
VERTEX
  5
16D002
  8
0
 10
0.0
 20
0.0
 30
0.0
 70
   128
 71
    35
 72
    36
 73
    37
  0
VERTEX
  5
16D003
  8
0
 10
0.0
 20
0.0
 30
0.0
 70
   128
 71
    39
 72
    35
 73
    37
  0
VERTEX
  5
16D004
  8
0
 10
0.0
 20
0.0
 30
0.0
 70
   128
 71
    22
 72
    25
 73
    41
  0
VERTEX
  5
16D005
  8
0
 10
0.0
 20
0.0
 30
0.0
 70
   128
 71
    21
 72
    22
 73
    41
  0
VERTEX
  5
16D006
  8
0
 10
0.0
 20
0.0
 30
0.0
 70
   128
 71
    19
 72
    21
 73
    41
  0
VERTEX
  5
16D007
  8
0
 10
0.0
 20
0.0
 30
0.0
 70
   128
 71
    40
 72
    19
 73
    41
  0
VERTEX
  5
16D008
  8
0
 10
0.0
 20
0.0
 30
0.0
 70
   128
 71
    41
 72
    37
 73
    40
  0
SEQEND
  5
16D0B3
  8
0
  0
POLYLINE
  5
16D009
  8
0
 66
     1
 10
0.0
 20
0.0
 30
0.0
 70
    64
 71
    15
 72
    13
  0
VERTEX
  5
16D00A
  8
0
 10
59.42453654309804
 20
9.999997174569998
 30
11.34079185446964
 70
   192
  0
VERTEX
  5
16D00B
  8
0
 10
59.3109131402944
 20
9.999997174569998
 30
11.09940066488946
 70
   192
  0
VERTEX
  5
16D00C
  8
0
 10
59.19761491097155
 20
9.999997174570593
 30
10.8578447654968
 70
   192
  0
VERTEX
  5
16D00D
  8
0
 10
59.08424458879253
 20
9.999997215512094
 30
10.61611333012771
 70
   192
  0
VERTEX
  5
16D00E
  8
0
 10
59.18629230638872
 20
9.999997176086762
 30
10.49936777382124
 70
   192
  0
VERTEX
  5
16D00F
  8
0
 10
59.28672381994421
 20
10.00000786980749
 30
10.38091320938214
 70
   192
  0
VERTEX
  5
16D010
  8
0
 10
59.38543255712145
 20
10.0002860205972
 30
10.26066558851422
 70
   192
  0
VERTEX
  5
16D011
  8
0
 10
59.38541662951456
 20
9.999997174569998
 30
10.26063200506983
 70
   192
  0
VERTEX
  5
16D012
  8
0
 10
60.41033558407207
 20
9.999997174569998
 30
9.708499987149459
 70
   192
  0
VERTEX
  5
16D013
  8
0
 10
61.37334127205563
 20
9.999997174569998
 30
9.054337412910163
 70
   192
  0
VERTEX
  5
16D014
  8
0
 10
62.26431307687017
 20
9.999997174569998
 30
8.305019141646465
 70
   192
  0
VERTEX
  5
16D015
  8
0
 10
62.26430714853606
 20
9.999997174569998
 30
8.305
 70
   192
  0
VERTEX
  5
16D016
  8
0
 10
63.66808539352244
 20
9.999997174569998
 30
8.305000001634577
 70
   192
  0
VERTEX
  5
16D017
  8
0
 10
62.40233325466343
 20
9.999997174569998
 30
9.514807670666276
 70
   192
  0
VERTEX
  5
16D018
  8
0
 10
60.97828530099154
 20
9.999997174569998
 30
10.53355714856405
 70
   192
  0
VERTEX
  5
16D019
  8
0
 10
0.0
 20
0.0
 30
0.0
 70
   128
 71
     2
 72
    -1
 73
    -5
  0
VERTEX
  5
16D01A
  8
0
 10
0.0
 20
0.0
 30
0.0
 70
   128
 71
    -5
 72
     3
 73
    -2
  0
VERTEX
  5
16D01B
  8
0
 10
0.0
 20
0.0
 30
0.0
 70
   128
 71
     5
 72
     4
 73
    -3
  0
VERTEX
  5
16D01C
  8
0
 10
0.0
 20
0.0
 30
0.0
 70
   128
 71
    -1
 72
     6
 73
    -5
  0
VERTEX
  5
16D01D
  8
0
 10
0.0
 20
0.0
 30
0.0
 70
   128
 71
     1
 72
   -15
 73
    -9
  0
VERTEX
  5
16D01E
  8
0
 10
0.0
 20
0.0
 30
0.0
 70
   128
 71
    -1
 72
    -9
 73
    -7
  0
VERTEX
  5
16D01F
  8
0
 10
0.0
 20
0.0
 30
0.0
 70
   128
 71
    -1
 72
     7
 73
    -6
  0
VERTEX
  5
16D020
  8
0
 10
0.0
 20
0.0
 30
0.0
 70
   128
 71
     9
 72
     8
 73
    -7
  0
VERTEX
  5
16D021
  8
0
 10
0.0
 20
0.0
 30
0.0
 70
   128
 71
    15
 72
   -14
 73
   -10
  0
VERTEX
  5
16D022
  8
0
 10
0.0
 20
0.0
 30
0.0
 70
   128
 71
   -15
 72
    10
 73
    -9
  0
VERTEX
  5
16D023
  8
0
 10
0.0
 20
0.0
 30
0.0
 70
   128
 71
    14
 72
   -13
 73
   -11
  0
VERTEX
  5
16D024
  8
0
 10
0.0
 20
0.0
 30
0.0
 70
   128
 71
   -14
 72
    11
 73
   -10
  0
VERTEX
  5
16D025
  8
0
 10
0.0
 20
0.0
 30
0.0
 70
   128
 71
    13
 72
    12
 73
   -11
  0
SEQEND
  5
16D0B4
  8
0
  0
POLYLINE
  5
16D026
  8
0
 66
     1
 10
0.0
 20
0.0
 30
0.0
 70
    64
 71
    22
 72
    20
  0
VERTEX
  5
16D027
  8
0
 10
49.9626989906839
 20
9.999997150273234
 30
10.61945326042272
 70
   192
  0
VERTEX
  5
16D028
  8
0
 10
49.84998966663732
 20
9.99999717457
 30
10.86137043170066
 70
   192
  0
VERTEX
  5
16D029
  8
0
 10
49.73680342783559
 20
9.999997174570764
 30
11.1032333612593
 70
   192
  0
VERTEX
  5
16D02A
  8
0
 10
49.62348617351684
 20
9.999997174569998
 30
11.34502632008905
 70
   192
  0
VERTEX
  5
16D02B
  8
0
 10
44.19584687888208
 20
9.999997174569998
 30
6.790212463515906
 70
   192
  0
VERTEX
  5
16D02C
  8
0
 10
42.16286715186772
 20
9.999997174569998
 30
0.0025331096982388
 70
   192
  0
VERTEX
  5
16D02D
  8
0
 10
44.19306367195002
 20
9.999997174569998
 30
-6.78597922147858
 70
   192
  0
VERTEX
  5
16D02E
  8
0
 10
49.61883475688529
 20
9.999997174678306
 30
-11.34301860901378
 70
   192
  0
VERTEX
  5
16D02F
  8
0
 10
49.73241355551111
 20
9.999997174569996
 30
-11.1013761163797
 70
   192
  0
VERTEX
  5
16D030
  8
0
 10
49.84568929528279
 20
9.999997174569922
 30
-10.8595897524962
 70
   192
  0
VERTEX
  5
16D031
  8
0
 10
49.9587861831122
 20
9.999997170127173
 30
-10.61789320638849
 70
   192
  0
VERTEX
  5
16D032
  8
0
 10
49.85642159234888
 20
9.99999717440597
 30
-10.50143701288004
 70
   192
  0
VERTEX
  5
16D033
  8
0
 10
49.75588760732745
 20
10.00000707471174
 30
-10.38303123333056
 70
   192
  0
VERTEX
  5
16D034
  8
0
 10
49.65696643725605
 20
10.00026363408388
 30
-10.26273944680515
 70
   192
  0
VERTEX
  5
16D035
  8
0
 10
49.65701858087205
 20
9.999997174569998
 30
-10.26262938500713
 70
   192
  0
VERTEX
  5
16D036
  8
0
 10
44.92243603067431
 20
9.999997174569998
 30
-6.071683171458393
 70
   192
  0
VERTEX
  5
16D037
  8
0
 10
43.16298906641119
 20
9.999997174569998
 30
0.0015901197282162
 70
   192
  0
VERTEX
  5
16D038
  8
0
 10
44.92413675914695
 20
9.999997174569998
 30
6.074370446223393
 70
   192
  0
VERTEX
  5
16D039
  8
0
 10
49.65989278249695
 20
9.999997174569998
 30
10.26399059330111
 70
   192
  0
VERTEX
  5
16D03A
  8
0
 10
49.66001233016594
 20
10.00027090296365
 30
10.26373807609376
 70
   192
  0
VERTEX
  5
16D03B
  8
0
 10
49.75935444418258
 20
10.00000730620735
 30
10.38446987575127
 70
   192
  0
VERTEX
  5
16D03C
  8
0
 10
49.85998668216862
 20
9.999997173669545
 30
10.50287359681299
 70
   192
  0
VERTEX
  5
16D03D
  8
0
 10
0.0
 20
0.0
 30
0.0
 70
   128
 71
     9
 72
    -8
 73
   -12
  0
VERTEX
  5
16D03E
  8
0
 10
0.0
 20
0.0
 30
0.0
 70
   128
 71
   -12
 72
    10
 73
    -9
  0
VERTEX
  5
16D03F
  8
0
 10
0.0
 20
0.0
 30
0.0
 70
   128
 71
    12
 72
    11
 73
   -10
  0
VERTEX
  5
16D040
  8
0
 10
0.0
 20
0.0
 30
0.0
 70
   128
 71
    -8
 72
    13
 73
   -12
  0
VERTEX
  5
16D041
  8
0
 10
0.0
 20
0.0
 30
0.0
 70
   128
 71
     8
 72
    -7
 73
   -16
  0
VERTEX
  5
16D042
  8
0
 10
0.0
 20
0.0
 30
0.0
 70
   128
 71
    -8
 72
   -16
 73
   -14
  0
VERTEX
  5
16D043
  8
0
 10
0.0
 20
0.0
 30
0.0
 70
   128
 71
    -8
 72
    14
 73
   -13
  0
VERTEX
  5
16D044
  8
0
 10
0.0
 20
0.0
 30
0.0
 70
   128
 71
    16
 72
    15
 73
   -14
  0
VERTEX
  5
16D045
  8
0
 10
0.0
 20
0.0
 30
0.0
 70
   128
 71
     7
 72
    -6
 73
   -17
  0
VERTEX
  5
16D046
  8
0
 10
0.0
 20
0.0
 30
0.0
 70
   128
 71
    -7
 72
    17
 73
   -16
  0
VERTEX
  5
16D047
  8
0
 10
0.0
 20
0.0
 30
0.0
 70
   128
 71
     6
 72
    -5
 73
   -18
  0
VERTEX
  5
16D048
  8
0
 10
0.0
 20
0.0
 30
0.0
 70
   128
 71
    -6
 72
    18
 73
   -17
  0
VERTEX
  5
16D049
  8
0
 10
0.0
 20
0.0
 30
0.0
 70
   128
 71
     5
 72
    -4
 73
   -21
  0
VERTEX
  5
16D04A
  8
0
 10
0.0
 20
0.0
 30
0.0
 70
   128
 71
    -5
 72
   -21
 73
   -19
  0
VERTEX
  5
16D04B
  8
0
 10
0.0
 20
0.0
 30
0.0
 70
   128
 71
    -5
 72
    19
 73
   -18
  0
VERTEX
  5
16D04C
  8
0
 10
0.0
 20
0.0
 30
0.0
 70
   128
 71
    21
 72
    20
 73
   -19
  0
VERTEX
  5
16D04D
  8
0
 10
0.0
 20
0.0
 30
0.0
 70
   128
 71
    -4
 72
    22
 73
   -21
  0
VERTEX
  5
16D04E
  8
0
 10
0.0
 20
0.0
 30
0.0
 70
   128
 71
     2
 72
     1
 73
   -22
  0
VERTEX
  5
16D04F
  8
0
 10
0.0
 20
0.0
 30
0.0
 70
   128
 71
   -22
 72
     3
 73
    -2
  0
VERTEX
  5
16D050
  8
0
 10
0.0
 20
0.0
 30
0.0
 70
   128
 71
   -22
 72
     4
 73
    -3
  0
SEQEND
  5
16D0B5
  8
0
  0
POLYLINE
  5
16D051
  8
0
 66
     1
 10
0.0
 20
0.0
 30
0.0
 70
    64
 71
    16
 72
    14
  0
VERTEX
  5
16D052
  8
0
 10
63.66808539184648
 20
9.999997174569994
 30
-8.305
 70
   192
  0
VERTEX
  5
16D053
  8
0
 10
62.26430775313369
 20
9.999997174569994
 30
-8.305
 70
   192
  0
VERTEX
  5
16D054
  8
0
 10
62.26431354566825
 20
9.999997174569998
 30
-8.305018704448655
 70
   192
  0
VERTEX
  5
16D055
  8
0
 10
61.37330635432171
 20
9.999997174569998
 30
-9.05436384590331
 70
   192
  0
VERTEX
  5
16D056
  8
0
 10
60.41026015500463
 20
9.999997174569998
 30
-9.708545757938364
 70
   192
  0
VERTEX
  5
16D057
  8
0
 10
59.38529676168061
 20
9.999997174569998
 30
-10.26068885388239
 70
   192
  0
VERTEX
  5
16D058
  8
0
 10
59.38518504384111
 20
10.00025826473397
 30
-10.26045328911223
 70
   192
  0
VERTEX
  5
16D059
  8
0
 10
59.28618105954134
 20
10.00000685468364
 30
-10.38117176988389
 70
   192
  0
VERTEX
  5
16D05A
  8
0
 10
59.1857280617121
 20
9.999997174693748
 30
-10.49963781589707
 70
   192
  0
VERTEX
  5
16D05B
  8
0
 10
59.08365067904859
 20
9.9999971779147
 30
-10.61633220703993
 70
   192
  0
VERTEX
  5
16D05C
  8
0
 10
59.1969955781422
 20
9.999997174569996
 30
-10.85804620530677
 70
   192
  0
VERTEX
  5
16D05D
  8
0
 10
59.31029242895413
 20
9.999997174570002
 30
-11.09963506334852
 70
   192
  0
VERTEX
  5
16D05E
  8
0
 10
59.42391922725681
 20
9.999997174570002
 30
-11.34106891145387
 70
   192
  0
VERTEX
  5
16D05F
  8
0
 10
59.4239155624722
 20
9.999997174569998
 30
-11.34106043761131
 70
   192
  0
VERTEX
  5
16D060
  8
0
 10
60.97790078167764
 20
9.999997174569998
 30
-10.53379292605218
 70
   192
  0
VERTEX
  5
16D061
  8
0
 10
62.40215958999811
 20
9.999997174569998
 30
-9.514951552898621
 70
   192
  0
VERTEX
  5
16D062
  8
0
 10
0.0
 20
0.0
 30
0.0
 70
   128
 71
    14
 72
    13
 73
   -12
  0
VERTEX
  5
16D063
  8
0
 10
0.0
 20
0.0
 30
0.0
 70
   128
 71
     3
 72
     2
 73
    -1
  0
VERTEX
  5
16D064
  8
0
 10
0.0
 20
0.0
 30
0.0
 70
   128
 71
     1
 72
   -16
 73
    -4
  0
VERTEX
  5
16D065
  8
0
 10
0.0
 20
0.0
 30
0.0
 70
   128
 71
    -1
 72
     4
 73
    -3
  0
VERTEX
  5
16D066
  8
0
 10
0.0
 20
0.0
 30
0.0
 70
   128
 71
   -16
 72
   -11
 73
    -5
  0
VERTEX
  5
16D067
  8
0
 10
0.0
 20
0.0
 30
0.0
 70
   128
 71
   -16
 72
     5
 73
    -4
  0
VERTEX
  5
16D068
  8
0
 10
0.0
 20
0.0
 30
0.0
 70
   128
 71
   -11
 72
    -8
 73
    -6
  0
VERTEX
  5
16D069
  8
0
 10
0.0
 20
0.0
 30
0.0
 70
   128
 71
   -11
 72
     6
 73
    -5
  0
VERTEX
  5
16D06A
  8
0
 10
0.0
 20
0.0
 30
0.0
 70
   128
 71
     8
 72
     7
 73
    -6
  0
VERTEX
  5
16D06B
  8
0
 10
0.0
 20
0.0
 30
0.0
 70
   128
 71
   -11
 72
     9
 73
    -8
  0
VERTEX
  5
16D06C
  8
0
 10
0.0
 20
0.0
 30
0.0
 70
   128
 71
    11
 72
    10
 73
    -9
  0
VERTEX
  5
16D06D
  8
0
 10
0.0
 20
0.0
 30
0.0
 70
   128
 71
    16
 72
   -15
 73
   -12
  0
VERTEX
  5
16D06E
  8
0
 10
0.0
 20
0.0
 30
0.0
 70
   128
 71
   -16
 72
    12
 73
   -11
  0
VERTEX
  5
16D06F
  8
0
 10
0.0
 20
0.0
 30
0.0
 70
   128
 71
    15
 72
   -14
 73
   -12
  0
SEQEND
  5
16D0B6
  8
0
  0
ENDBLK
  5
16D0A9
  8
0
  0
ENDSEC
  0
SECTION
  2
ENTITIES
  0
INSERT
  5
16C063
  8
0
  2
*X1
 10
0.0
 20
0.0
 30
0.0
  0
INSERT
  5
16C064
  8
0
  2
*X2
 10
0.0
 20
0.0
 30
0.0
  0
INSERT
  5
16C065
  8
0
  2
*X3
 10
0.0
 20
0.0
 30
0.0
  0
ENDSEC
  0
EOF
